  0
SECTION
  2
HEADER
  9
$ACADVER
  1
AC1009
  9
$INSBASE
 10
0.0
 20
0.0
 30
0.0
  9
$EXTMIN
 10
279.213
 20
18.522
 30
0.0
  9
$EXTMAX
 10
300.213
 20
48.222
 30
0.0
  9
$LIMMIN
 10
278.213
 20
17.522
  9
$LIMMAX
 10
301.213
 20
47.222
  9
$ORTHOMODE
 70
     1
  9
$REGENMODE
 70
     1
  9
$FILLMODE
 70
     1
  9
$QTEXTMODE
 70
     0
  9
$MIRRTEXT
 70
     1
  9
$DRAGMODE
 70
     2
  9
$LTSCALE
 40
1.0
  9
$OSMODE
 70
     0
  9
$ATTMODE
 70
     1
  9
$TEXTSIZE
 40
0.2
  9
$TRACEWID
 40
0.05
  9
$TEXTSTYLE
  7
STANDARD
  9
$CLAYER
  8
0
  9
$CELTYPE
  6
BYLAYER
  9
$CECOLOR
 62
   256
  9
$DIMSCALE
 40
1.0
  9
$DIMASZ
 40
0.18
  9
$DIMEXO
 40
0.0625
  9
$DIMDLI
 40
0.38
  9
$DIMRND
 40
0.0
  9
$DIMDLE
 40
0.0
  9
$DIMEXE
 40
0.18
  9
$DIMTP
 40
0.0
  9
$DIMTM
 40
0.0
  9
$DIMTXT
 40
0.18
  9
$DIMCEN
 40
0.09
  9
$DIMTSZ
 40
0.0
  9
$DIMTOL
 70
     0
  9
$DIMLIM
 70
     0
  9
$DIMTIH
 70
     1
  9
$DIMTOH
 70
     1
  9
$DIMSE1
 70
     0
  9
$DIMSE2
 70
     0
  9
$DIMTAD
 70
     0
  9
$DIMZIN
 70
     0
  9
$DIMBLK
  1

  9
$DIMASO
 70
     1
  9
$DIMSHO
 70
     1
  9
$DIMPOST
  1

  9
$DIMAPOST
  1

  9
$DIMALT
 70
     0
  9
$DIMALTD
 70
     2
  9
$DIMALTF
 40
25.4
  9
$DIMLFAC
 40
1.0
  9
$DIMTOFL
 70
     0
  9
$DIMTVP
 40
0.0
  9
$DIMTIX
 70
     0
  9
$DIMSOXD
 70
     0
  9
$DIMSAH
 70
     0
  9
$DIMBLK1
  1

  9
$DIMBLK2
  1

  9
$DIMSTYLE
  2
*UNNAMED
  9
$DIMCLRD
 70
     0
  9
$DIMCLRE
 70
     0
  9
$DIMCLRT
 70
     0
  9
$DIMTFAC
 40
1.0
  9
$DIMGAP
 40
0.09
  9
$LUNITS
 70
     2
  9
$LUPREC
 70
     4
  9
$SKETCHINC
 40
0.1
  9
$FILLETRAD
 40
0.0
  9
$AUNITS
 70
     0
  9
$AUPREC
 70
     0
  9
$MENU
  1
acad
  9
$ELEVATION
 40
0.0
  9
$PELEVATION
 40
0.0
  9
$THICKNESS
 40
0.0
  9
$LIMCHECK
 70
     0
  9
$BLIPMODE
 70
     1
  9
$CHAMFERA
 40
0.0
  9
$CHAMFERB
 40
0.0
  9
$SKPOLY
 70
     0
  9
$TDCREATE
 40
2448315.373408102
  9
$TDUPDATE
 40
2448315.373408102
  9
$TDINDWG
 40
0.0000000000
  9
$TDUSRTIMER
 40
0.0000000000
  9
$USRTIMER
 70
     1
  9
$ANGBASE
 50
0.0
  9
$ANGDIR
 70
     0
  9
$PDMODE
 70
     0
  9
$PDSIZE
 40
0.0
  9
$PLINEWID
 40
0.0
  9
$COORDS
 70
     0
  9
$SPLFRAME
 70
     0
  9
$SPLINETYPE
 70
     6
  9
$SPLINESEGS
 70
     8
  9
$ATTDIA
 70
     0
  9
$ATTREQ
 70
     1
  9
$HANDLING
 70
     0
  9
$HANDSEED
  5
0
  9
$SURFTAB1
 70
     6
  9
$SURFTAB2
 70
     6
  9
$SURFTYPE
 70
     6
  9
$SURFU
 70
     6
  9
$SURFV
 70
     6
  9
$UCSNAME
  2

  9
$UCSORG
 10
0.0
 20
0.0
 30
0.0
  9
$UCSXDIR
 10
1.0
 20
0.0
 30
0.0
  9
$UCSYDIR
 10
0.0
 20
1.0
 30
0.0
  9
$PUCSNAME
  2

  9
$PUCSORG
 10
0.0
 20
0.0
 30
0.0
  9
$PUCSXDIR
 10
1.0
 20
0.0
 30
0.0
  9
$PUCSYDIR
 10
0.0
 20
1.0
 30
0.0
  9
$USERI1
 70
     0
  9
$USERI2
 70
     0
  9
$USERI3
 70
     0
  9
$USERI4
 70
     0
  9
$USERI5
 70
     0
  9
$USERR1
 40
0.0
  9
$USERR2
 40
0.0
  9
$USERR3
 40
0.0
  9
$USERR4
 40
0.0
  9
$USERR5
 40
0.0
  9
$WORLDVIEW
 70
     1
  9
$SHADEDGE
 70
     3
  9
$SHADEDIF
 70
    70
  9
$TILEMODE
 70
     1
  9
$MAXACTVP
 70
    16
  9
$PINSBASE
 10
0.0
 20
0.0
 30
0.0
  9
$PLIMCHECK
 70
     0
  9
$PEXTMIN
 10
1.000000E+20
 20
1.000000E+20
 30
1.000000E+20
  9
$PEXTMAX
 10
-1.000000E+20
 20
-1.000000E+20
 30
-1.000000E+20
  9
$PLIMMIN
 10
0.0
 20
0.0
  9
$PLIMMAX
 10
12.0
 20
9.0
  9
$UNITMODE
 70
     0
  9
$VISRETAIN
 70
     0
  9
$PLINEGEN
 70
     0
  9
$PSLTSCALE
 70
     0
  9
$TREEDEPTH
 70
  3020
  9
$DWGCODEPAGE
  3
iso8859-1
  0
ENDSEC
  0
SECTION
  2
TABLES
  0
TABLE
  2
VPORT
 70
     3
  0
VPORT
  2
*ACTIVE
 70
     0
 10
0.0
 20
0.0
 11
1.0
 21
1.0
 12
303.136701
 22
33.372
 13
0.0
 23
0.0
 14
1.0
 24
1.0
 15
10.0
 25
10.0
 16
0.0
 26
0.0
 36
1.0
 17
0.0
 27
0.0
 37
0.0
 40
29.7
 41
1.611024
 42
50.0
 43
0.0
 44
0.0
 50
0.0
 51
0.0
 71
     0
 72
   100
 73
     1
 74
     0
 75
     0
 76
     0
 77
     0
 78
     0
  0
ENDTAB
  0
TABLE
  2
LTYPE
 70
     1
  0
LTYPE
  2
CONTINUOUS
 70
    64
  3
Solid line
 72
    65
 73
     0
 40
0.0
  0
ENDTAB
  0
TABLE
  2
LAYER
 70
     7
  0
LAYER
  2
0
 70
    64
 62
     7
  6
CONTINUOUS
  0
LAYER
  2
1
 70
    64
 62
     7
  6
CONTINUOUS
  0
LAYER
  2
7
 70
    64
 62
     7
  6
CONTINUOUS
  0
LAYER
  2
8
 70
    64
 62
     7
  6
CONTINUOUS
  0
LAYER
  2
9
 70
    64
 62
     7
  6
CONTINUOUS
  0
LAYER
  2
22
 70
    64
 62
     7
  6
CONTINUOUS
  0
LAYER
  2
25
 70
    64
 62
     7
  6
CONTINUOUS
  0
ENDTAB
  0
TABLE
  2
STYLE
 70
     2
  0
STYLE
  2
STANDARD
 70
    64
 40
0.0
 41
1.0
 50
0.0
 71
     0
 42
3.5
  3
C:\APLIC\ACADWIN\FONTS\ROMANS.SHX
  4

  0
STYLE
  2
ROMANC
 70
     0
 40
0.0
 41
1.0
 50
0.0
 71
     0
 42
0.2
  3
ROMANC
  4

  0
ENDTAB
  0
TABLE
  2
VIEW
 70
     0
  0
ENDTAB
  0
TABLE
  2
UCS
 70
     0
  0
ENDTAB
  0
TABLE
  2
APPID
 70
     1
  0
APPID
  2
ACAD
 70
    64
  0
ENDTAB
  0
TABLE
  2
DIMSTYLE
 70
     0
  0
ENDTAB
  0
ENDSEC
  0
SECTION
  2
BLOCKS
  0
ENDSEC
  0
SECTION
  2
ENTITIES
  0
TEXT
  8
0
  6
CONTINUOUS
 10
290.239
 20
41.376
 30
0.0
 40
0.2
  1
2
  7
ROMANC
  0
POLYLINE
  8
0
  6
CONTINUOUS
 66
     1
 10
0.0
 20
0.0
 30
0.0
 70
     1
  0
VERTEX
  8
0
  6
CONTINUOUS
 10
279.213
 20
48.222
 30
0.0
  0
VERTEX
  8
0
  6
CONTINUOUS
 10
300.213
 20
48.222
 30
0.0
  0
VERTEX
  8
0
  6
CONTINUOUS
 10
300.213
 20
18.522
 30
0.0
  0
VERTEX
  8
0
  6
CONTINUOUS
 10
279.213
 20
18.522
 30
0.0
  0
SEQEND
  8
0
  0
TEXT
  8
0
  6
CONTINUOUS
 10
284.273
 20
43.49
 30
0.0
 40
0.6
  1
TIPUS   NT2432
  7
ROMANC
  0
TEXT
  8
0
  6
CONTINUOUS
 10
284.273
 20
42.264
 30
0.0
 40
0.6
  1
ESCALA  1:100
  7
ROMANC
  0
TEXT
  8
0
  6
CONTINUOUS
 10
284.311
 20
40.926
 30
0.0
 40
0.6
  1
S = 2432dm
  7
ROMANC
  0
TEXT
  8
0
  6
CONTINUOUS
 10
284.265
 20
39.786
 30
0.0
 40
0.6
  1
P = 283 dm
  7
ROMANC
  0
LINE
  8
1
  6
CONTINUOUS
 10
284.565
 20
24.831
 30
0.0
 11
289.565
 21
24.831
 31
0.0
  0
LINE
  8
1
  6
CONTINUOUS
 10
290.165
 20
24.831
 30
0.0
 11
290.165
 21
27.781
 31
0.0
  0
LINE
  8
1
  6
CONTINUOUS
 10
290.165
 20
27.781
 30
0.0
 11
290.665
 21
28.281
 31
0.0
  0
LINE
  8
1
  6
CONTINUOUS
 10
289.565
 20
27.781
 30
0.0
 11
289.065
 21
28.281
 31
0.0
  0
LINE
  8
1
  6
CONTINUOUS
 10
290.665
 20
28.281
 30
0.0
 11
289.065
 21
28.281
 31
0.0
  0
LINE
  8
1
  6
CONTINUOUS
 10
284.565
 20
27.781
 30
0.0
 11
285.065
 21
28.281
 31
0.0
  0
LINE
  8
1
  6
CONTINUOUS
 10
285.065
 20
28.281
 30
0.0
 11
289.065
 21
28.281
 31
0.0
  0
LINE
  8
1
  6
CONTINUOUS
 10
284.565
 20
24.831
 30
0.0
 11
284.565
 21
27.781
 31
0.0
  0
LINE
  8
1
  6
CONTINUOUS
 10
289.565
 20
24.831
 30
0.0
 11
289.565
 21
27.781
 31
0.0
  0
LINE
  8
1
  6
CONTINUOUS
 10
289.565
 20
24.831
 30
0.0
 11
290.165
 21
24.831
 31
0.0
  0
LINE
  8
1
  6
CONTINUOUS
 10
290.165
 20
24.831
 30
0.0
 11
291.965
 21
24.831
 31
0.0
  0
LINE
  8
1
  6
CONTINUOUS
 10
291.965
 20
25.281
 30
0.0
 11
292.865
 21
25.281
 31
0.0
  0
LINE
  8
1
  6
CONTINUOUS
 10
292.865
 20
25.281
 30
0.0
 11
292.865
 21
27.781
 31
0.0
  0
LINE
  8
1
  6
CONTINUOUS
 10
291.965
 20
24.831
 30
0.0
 11
291.965
 21
25.281
 31
0.0
  0
LINE
  8
1
  6
CONTINUOUS
 10
292.865
 20
27.781
 30
0.0
 11
292.365
 21
28.281
 31
0.0
  0
LINE
  8
1
  6
CONTINUOUS
 10
290.665
 20
28.281
 30
0.0
 11
292.365
 21
28.281
 31
0.0
  0
LINE
  8
1
  6
CONTINUOUS
 10
285.056
 20
28.301
 30
0.0
 11
289.065
 21
28.301
 31
0.0
  0
LINE
  8
1
  6
CONTINUOUS
 10
285.048
 20
28.321
 30
0.0
 11
289.065
 21
28.321
 31
0.0
  0
LINE
  8
1
  6
CONTINUOUS
 10
290.665
 20
28.301
 30
0.0
 11
289.065
 21
28.301
 31
0.0
  0
LINE
  8
1
  6
CONTINUOUS
 10
290.665
 20
28.321
 30
0.0
 11
289.065
 21
28.321
 31
0.0
  0
LINE
  8
1
  6
CONTINUOUS
 10
290.665
 20
28.301
 30
0.0
 11
292.373
 21
28.301
 31
0.0
  0
LINE
  8
1
  6
CONTINUOUS
 10
290.665
 20
28.321
 30
0.0
 11
292.381
 21
28.321
 31
0.0
  0
LINE
  8
1
  6
CONTINUOUS
 10
292.885
 20
27.789
 30
0.0
 11
292.373
 21
28.301
 31
0.0
  0
LINE
  8
1
  6
CONTINUOUS
 10
292.905
 20
27.797
 30
0.0
 11
292.381
 21
28.321
 31
0.0
  0
LINE
  8
1
  6
CONTINUOUS
 10
292.885
 20
25.261
 30
0.0
 11
292.885
 21
27.789
 31
0.0
  0
LINE
  8
1
  6
CONTINUOUS
 10
292.905
 20
25.241
 30
0.0
 11
292.905
 21
27.797
 31
0.0
  0
LINE
  8
1
  6
CONTINUOUS
 10
291.985
 20
25.261
 30
0.0
 11
292.885
 21
25.261
 31
0.0
  0
LINE
  8
1
  6
CONTINUOUS
 10
292.005
 20
25.241
 30
0.0
 11
292.905
 21
25.241
 31
0.0
  0
LINE
  8
1
  6
CONTINUOUS
 10
291.985
 20
24.811
 30
0.0
 11
291.985
 21
25.261
 31
0.0
  0
LINE
  8
1
  6
CONTINUOUS
 10
292.005
 20
24.791
 30
0.0
 11
292.005
 21
25.241
 31
0.0
  0
LINE
  8
1
  6
CONTINUOUS
 10
290.165
 20
24.811
 30
0.0
 11
291.985
 21
24.811
 31
0.0
  0
LINE
  8
1
  6
CONTINUOUS
 10
290.165
 20
24.791
 30
0.0
 11
292.005
 21
24.791
 31
0.0
  0
LINE
  8
1
  6
CONTINUOUS
 10
289.565
 20
24.811
 30
0.0
 11
290.165
 21
24.811
 31
0.0
  0
LINE
  8
1
  6
CONTINUOUS
 10
289.565
 20
24.791
 30
0.0
 11
290.165
 21
24.791
 31
0.0
  0
LINE
  8
1
  6
CONTINUOUS
 10
284.545
 20
24.811
 30
0.0
 11
289.565
 21
24.811
 31
0.0
  0
LINE
  8
1
  6
CONTINUOUS
 10
284.525
 20
24.791
 30
0.0
 11
289.565
 21
24.791
 31
0.0
  0
LINE
  8
1
  6
CONTINUOUS
 10
284.545
 20
24.811
 30
0.0
 11
284.545
 21
27.79
 31
0.0
  0
LINE
  8
1
  6
CONTINUOUS
 10
284.525
 20
24.791
 30
0.0
 11
284.525
 21
27.798
 31
0.0
  0
LINE
  8
1
  6
CONTINUOUS
 10
284.545
 20
27.79
 30
0.0
 11
285.056
 21
28.301
 31
0.0
  0
LINE
  8
1
  6
CONTINUOUS
 10
284.525
 20
27.798
 30
0.0
 11
285.048
 21
28.321
 31
0.0
  0
LINE
  8
1
  6
CONTINUOUS
 10
289.579
 20
27.795
 30
0.0
 11
289.093
 21
28.281
 31
0.0
  0
LINE
  8
1
  6
CONTINUOUS
 10
289.593
 20
27.809
 30
0.0
 11
289.121
 21
28.281
 31
0.0
  0
LINE
  8
1
  6
CONTINUOUS
 10
290.15
 20
27.795
 30
0.0
 11
290.636
 21
28.281
 31
0.0
  0
LINE
  8
1
  6
CONTINUOUS
 10
290.136
 20
27.809
 30
0.0
 11
290.608
 21
28.281
 31
0.0
  0
LINE
  8
1
  6
CONTINUOUS
 10
290.145
 20
24.831
 30
0.0
 11
290.145
 21
27.781
 31
0.0
  0
LINE
  8
1
  6
CONTINUOUS
 10
290.125
 20
24.831
 30
0.0
 11
290.125
 21
27.781
 31
0.0
  0
LINE
  8
1
  6
CONTINUOUS
 10
289.585
 20
24.831
 30
0.0
 11
289.585
 21
27.781
 31
0.0
  0
LINE
  8
1
  6
CONTINUOUS
 10
289.605
 20
24.831
 30
0.0
 11
289.605
 21
27.781
 31
0.0
  0
TEXT
  8
1
  6
CONTINUOUS
 10
286.804
 20
24.334
 30
0.0
 40
0.15
  1
5.00
  7
ROMANC
  0
LINE
  8
1
  6
CONTINUOUS
 10
286.743
 20
24.411
 30
0.0
 11
284.565
 21
24.414
 31
0.0
  0
LINE
  8
1
  6
CONTINUOUS
 10
287.338
 20
24.414
 30
0.0
 11
289.565
 21
24.414
 31
0.0
  0
LINE
  8
1
  6
CONTINUOUS
 10
284.528
 20
24.395
 30
0.0
 11
284.602
 21
24.433
 31
0.0
  0
LINE
  8
1
  6
CONTINUOUS
 10
289.602
 20
24.433
 30
0.0
 11
289.528
 21
24.395
 31
0.0
  0
LINE
  8
1
  6
CONTINUOUS
 10
284.565
 20
24.793
 30
0.0
 11
284.565
 21
24.376
 31
0.0
  0
LINE
  8
1
  6
CONTINUOUS
 10
289.565
 20
24.793
 30
0.0
 11
289.565
 21
24.376
 31
0.0
  0
TEXT
  8
1
  6
CONTINUOUS
 10
289.633
 20
24.354
 30
0.0
 40
0.15
  1
0.60
  7
ROMANC
  0
LINE
  8
1
  6
CONTINUOUS
 10
289.415
 20
24.414
 30
0.0
 11
289.565
 21
24.414
 31
0.0
  0
LINE
  8
1
  6
CONTINUOUS
 10
290.315
 20
24.414
 30
0.0
 11
290.165
 21
24.414
 31
0.0
  0
LINE
  8
1
  6
CONTINUOUS
 10
289.602
 20
24.433
 30
0.0
 11
289.528
 21
24.395
 31
0.0
  0
LINE
  8
1
  6
CONTINUOUS
 10
290.128
 20
24.395
 30
0.0
 11
290.202
 21
24.433
 31
0.0
  0
LINE
  8
1
  6
CONTINUOUS
 10
290.165
 20
24.793
 30
0.0
 11
290.165
 21
24.376
 31
0.0
  0
TEXT
  8
1
  6
CONTINUOUS
 10
290.955
 20
24.338
 30
0.0
 40
0.15
  1
1.80
  7
ROMANC
  0
LINE
  8
1
  6
CONTINUOUS
 10
290.917
 20
24.414
 30
0.0
 11
290.165
 21
24.414
 31
0.0
  0
LINE
  8
1
  6
CONTINUOUS
 10
291.429
 20
24.414
 30
0.0
 11
291.965
 21
24.414
 31
0.0
  0
LINE
  8
1
  6
CONTINUOUS
 10
290.128
 20
24.395
 30
0.0
 11
290.202
 21
24.433
 31
0.0
  0
LINE
  8
1
  6
CONTINUOUS
 10
292.002
 20
24.433
 30
0.0
 11
291.928
 21
24.395
 31
0.0
  0
LINE
  8
1
  6
CONTINUOUS
 10
291.965
 20
24.793
 30
0.0
 11
291.965
 21
24.376
 31
0.0
  0
TEXT
  8
1
  6
CONTINUOUS
 10
292.2
 20
24.346
 30
0.0
 40
0.15
  1
0.90
  7
ROMANC
  0
LINE
  8
1
  6
CONTINUOUS
 10
292.121
 20
24.414
 30
0.0
 11
291.965
 21
24.414
 31
0.0
  0
LINE
  8
1
  6
CONTINUOUS
 10
292.724
 20
24.414
 30
0.0
 11
292.865
 21
24.414
 31
0.0
  0
LINE
  8
1
  6
CONTINUOUS
 10
291.928
 20
24.395
 30
0.0
 11
292.002
 21
24.433
 31
0.0
  0
LINE
  8
1
  6
CONTINUOUS
 10
292.902
 20
24.433
 30
0.0
 11
292.828
 21
24.395
 31
0.0
  0
LINE
  8
1
  6
CONTINUOUS
 10
292.865
 20
25.243
 30
0.0
 11
292.865
 21
24.376
 31
0.0
  0
TEXT
  8
1
  6
CONTINUOUS
 10
288.596
 20
23.92
 30
0.0
 40
0.15
  1
8.30
  7
ROMANC
  0
LINE
  8
1
  6
CONTINUOUS
 10
288.558
 20
23.996
 30
0.0
 11
284.565
 21
23.996
 31
0.0
  0
LINE
  8
1
  6
CONTINUOUS
 10
289.138
 20
23.996
 30
0.0
 11
292.865
 21
23.996
 31
0.0
  0
LINE
  8
1
  6
CONTINUOUS
 10
284.528
 20
23.977
 30
0.0
 11
284.602
 21
24.015
 31
0.0
  0
LINE
  8
1
  6
CONTINUOUS
 10
292.902
 20
24.015
 30
0.0
 11
292.828
 21
23.977
 31
0.0
  0
LINE
  8
1
  6
CONTINUOUS
 10
284.565
 20
24.793
 30
0.0
 11
284.565
 21
23.958
 31
0.0
  0
LINE
  8
1
  6
CONTINUOUS
 10
292.865
 20
25.243
 30
0.0
 11
292.865
 21
23.958
 31
0.0
  0
TEXT
  8
1
  6
CONTINUOUS
 10
293.428
 20
24.082
 30
0.0
 40
0.15
  1
0.45
 50
90.0
  7
ROMANC
  0
LINE
  8
1
  6
CONTINUOUS
 10
293.336
 20
24.681
 30
0.0
 11
293.336
 21
24.831
 31
0.0
  0
LINE
  8
1
  6
CONTINUOUS
 10
293.336
 20
25.431
 30
0.0
 11
293.336
 21
25.262
 31
0.0
  0
LINE
  8
1
  6
CONTINUOUS
 10
293.317
 20
24.868
 30
0.0
 11
293.355
 21
24.794
 31
0.0
  0
LINE
  8
1
  6
CONTINUOUS
 10
293.355
 20
25.244
 30
0.0
 11
293.317
 21
25.318
 31
0.0
  0
LINE
  8
1
  6
CONTINUOUS
 10
292.003
 20
24.831
 30
0.0
 11
293.374
 21
24.831
 31
0.0
  0
LINE
  8
1
  6
CONTINUOUS
 10
292.903
 20
25.281
 30
0.0
 11
293.374
 21
25.281
 31
0.0
  0
TEXT
  8
1
  6
CONTINUOUS
 10
293.412
 20
26.412
 30
0.0
 40
0.15
  1
2.50
 50
90.0
  7
ROMANC
  0
LINE
  8
1
  6
CONTINUOUS
 10
293.336
 20
26.374
 30
0.0
 11
293.336
 21
25.281
 31
0.0
  0
LINE
  8
1
  6
CONTINUOUS
 10
293.336
 20
26.943
 30
0.0
 11
293.336
 21
27.742
 31
0.0
  0
LINE
  8
1
  6
CONTINUOUS
 10
293.355
 20
25.244
 30
0.0
 11
293.317
 21
25.318
 31
0.0
  0
LINE
  8
1
  6
CONTINUOUS
 10
293.317
 20
27.818
 30
0.0
 11
293.355
 21
27.744
 31
0.0
  0
LINE
  8
1
  6
CONTINUOUS
 10
292.903
 20
27.781
 30
0.0
 11
293.374
 21
27.781
 31
0.0
  0
TEXT
  8
1
  6
CONTINUOUS
 10
293.404
 20
28.568
 30
0.0
 40
0.15
  1
0.50
 50
90.0
  7
ROMANC
  0
LINE
  8
1
  6
CONTINUOUS
 10
293.336
 20
27.631
 30
0.0
 11
293.336
 21
27.781
 31
0.0
  0
LINE
  8
1
  6
CONTINUOUS
 10
293.336
 20
28.431
 30
0.0
 11
293.336
 21
28.281
 31
0.0
  0
LINE
  8
1
  6
CONTINUOUS
 10
293.317
 20
27.818
 30
0.0
 11
293.355
 21
27.744
 31
0.0
  0
LINE
  8
1
  6
CONTINUOUS
 10
293.355
 20
28.244
 30
0.0
 11
293.317
 21
28.318
 31
0.0
  0
LINE
  8
1
  6
CONTINUOUS
 10
292.903
 20
27.781
 30
0.0
 11
293.374
 21
27.781
 31
0.0
  0
LINE
  8
1
  6
CONTINUOUS
 10
292.403
 20
28.281
 30
0.0
 11
293.374
 21
28.281
 31
0.0
  0
TEXT
  8
1
  6
CONTINUOUS
 10
292.386
 20
28.786108
 30
0.0
 40
0.15
  1
0.50
  7
ROMANC
  0
LINE
  8
1
  6
CONTINUOUS
 10
292.828
 20
28.686
 30
0.0
 11
292.902
 21
28.724
 31
0.0
  0
LINE
  8
1
  6
CONTINUOUS
 10
292.402
 20
28.724
 30
0.0
 11
292.328
 21
28.686
 31
0.0
  0
LINE
  8
1
  6
CONTINUOUS
 10
292.865
 20
27.819
 30
0.0
 11
292.865
 21
28.743
 31
0.0
  0
LINE
  8
1
  6
CONTINUOUS
 10
292.365
 20
28.319
 30
0.0
 11
292.365
 21
28.743
 31
0.0
  0
TEXT
  8
1
  6
CONTINUOUS
 10
293.942
 20
26.434
 30
0.0
 40
0.15
  1
3.45
 50
90.0
  7
ROMANC
  0
LINE
  8
1
  6
CONTINUOUS
 10
293.866
 20
26.396
 30
0.0
 11
293.866
 21
24.831
 31
0.0
  0
LINE
  8
1
  6
CONTINUOUS
 10
293.866
 20
26.989
 30
0.0
 11
293.866
 21
28.281
 31
0.0
  0
LINE
  8
1
  6
CONTINUOUS
 10
293.885
 20
24.794
 30
0.0
 11
293.847
 21
24.868
 31
0.0
  0
LINE
  8
1
  6
CONTINUOUS
 10
293.847
 20
28.318
 30
0.0
 11
293.885
 21
28.244
 31
0.0
  0
LINE
  8
1
  6
CONTINUOUS
 10
292.003
 20
24.831
 30
0.0
 11
293.904
 21
24.831
 31
0.0
  0
LINE
  8
1
  6
CONTINUOUS
 10
292.403
 20
28.281
 30
0.0
 11
293.904
 21
28.281
 31
0.0
  0
LINE
  8
1
  6
CONTINUOUS
 10
290.677025
 20
28.724
 30
0.0
 11
290.603025
 21
28.686
 31
0.0
  0
LINE
  8
1
  6
CONTINUOUS
 10
290.173908
 20
28.724
 30
0.0
 11
290.099908
 21
28.686
 31
0.0
  0
LINE
  8
1
  6
CONTINUOUS
 10
289.64204
 20
28.724
 30
0.0
 11
289.56804
 21
28.686
 31
0.0
  0
LINE
  8
1
  6
CONTINUOUS
 10
289.134131
 20
28.724
 30
0.0
 11
289.060131
 21
28.686
 31
0.0
  0
LINE
  8
1
  6
CONTINUOUS
 10
285.10919
 20
28.724
 30
0.0
 11
285.03519
 21
28.686
 31
0.0
  0
LINE
  8
1
  6
CONTINUOUS
 10
284.601281
 20
28.724
 30
0.0
 11
284.527281
 21
28.686
 31
0.0
  0
TEXT
  8
1
  6
CONTINUOUS
 10
290.143533
 20
28.786108
 30
0.0
 40
0.15
  1
0.50
  7
ROMANC
  0
TEXT
  8
1
  6
CONTINUOUS
 10
289.089381
 20
28.786108
 30
0.0
 40
0.15
  1
0.50
  7
ROMANC
  0
TEXT
  8
1
  6
CONTINUOUS
 10
284.585281
 20
28.786108
 30
0.0
 40
0.15
  1
0.50
  7
ROMANC
  0
TEXT
  8
1
  6
CONTINUOUS
 10
286.827748
 20
28.786108
 30
0.0
 40
0.15
  1
4.0
  7
ROMANC
  0
TEXT
  8
1
  6
CONTINUOUS
 10
291.140185
 20
28.786108
 30
0.0
 40
0.15
  1
1.70
  7
ROMANC
  0
TEXT
  8
0
  6
CONTINUOUS
 10
290.239
 20
41.376
 30
0.0
 40
0.2
  1
2
  7
ROMANC
  0
POLYLINE
  8
0
  6
CONTINUOUS
 66
     1
 10
0.0
 20
0.0
 30
0.0
 70
     1
  0
VERTEX
  8
0
  6
CONTINUOUS
 10
279.213
 20
48.222
 30
0.0
  0
VERTEX
  8
0
  6
CONTINUOUS
 10
300.213
 20
48.222
 30
0.0
  0
VERTEX
  8
0
  6
CONTINUOUS
 10
300.213
 20
18.522
 30
0.0
  0
VERTEX
  8
0
  6
CONTINUOUS
 10
279.213
 20
18.522
 30
0.0
  0
SEQEND
  8
0
  0
TEXT
  8
0
  6
CONTINUOUS
 10
284.273
 20
43.49
 30
0.0
 40
0.6
  1
TIPUS   NT2432
  7
ROMANC
  0
TEXT
  8
0
  6
CONTINUOUS
 10
284.273
 20
42.264
 30
0.0
 40
0.6
  1
ESCALA  1:100
  7
ROMANC
  0
TEXT
  8
0
  6
CONTINUOUS
 10
284.311
 20
40.926
 30
0.0
 40
0.6
  1
S = 2432dm
  7
ROMANC
  0
TEXT
  8
0
  6
CONTINUOUS
 10
284.265
 20
39.786
 30
0.0
 40
0.6
  1
P = 283 dm
  7
ROMANC
  0
LINE
  8
1
  6
CONTINUOUS
 10
284.565
 20
24.831
 30
0.0
 11
289.565
 21
24.831
 31
0.0
  0
LINE
  8
1
  6
CONTINUOUS
 10
290.165
 20
24.831
 30
0.0
 11
290.165
 21
27.781
 31
0.0
  0
LINE
  8
1
  6
CONTINUOUS
 10
290.165
 20
27.781
 30
0.0
 11
290.665
 21
28.281
 31
0.0
  0
LINE
  8
1
  6
CONTINUOUS
 10
289.565
 20
27.781
 30
0.0
 11
289.065
 21
28.281
 31
0.0
  0
LINE
  8
1
  6
CONTINUOUS
 10
290.665
 20
28.281
 30
0.0
 11
289.065
 21
28.281
 31
0.0
  0
LINE
  8
1
  6
CONTINUOUS
 10
284.565
 20
27.781
 30
0.0
 11
285.065
 21
28.281
 31
0.0
  0
LINE
  8
1
  6
CONTINUOUS
 10
285.065
 20
28.281
 30
0.0
 11
289.065
 21
28.281
 31
0.0
  0
LINE
  8
1
  6
CONTINUOUS
 10
284.565
 20
24.831
 30
0.0
 11
284.565
 21
27.781
 31
0.0
  0
LINE
  8
1
  6
CONTINUOUS
 10
289.565
 20
24.831
 30
0.0
 11
289.565
 21
27.781
 31
0.0
  0
LINE
  8
1
  6
CONTINUOUS
 10
289.565
 20
24.831
 30
0.0
 11
290.165
 21
24.831
 31
0.0
  0
LINE
  8
1
  6
CONTINUOUS
 10
290.165
 20
24.831
 30
0.0
 11
291.965
 21
24.831
 31
0.0
  0
LINE
  8
1
  6
CONTINUOUS
 10
291.965
 20
25.281
 30
0.0
 11
292.865
 21
25.281
 31
0.0
  0
LINE
  8
1
  6
CONTINUOUS
 10
292.865
 20
25.281
 30
0.0
 11
292.865
 21
27.781
 31
0.0
  0
LINE
  8
1
  6
CONTINUOUS
 10
291.965
 20
24.831
 30
0.0
 11
291.965
 21
25.281
 31
0.0
  0
LINE
  8
1
  6
CONTINUOUS
 10
292.865
 20
27.781
 30
0.0
 11
292.365
 21
28.281
 31
0.0
  0
LINE
  8
1
  6
CONTINUOUS
 10
290.665
 20
28.281
 30
0.0
 11
292.365
 21
28.281
 31
0.0
  0
LINE
  8
1
  6
CONTINUOUS
 10
285.056
 20
28.301
 30
0.0
 11
289.065
 21
28.301
 31
0.0
  0
LINE
  8
1
  6
CONTINUOUS
 10
285.048
 20
28.321
 30
0.0
 11
289.065
 21
28.321
 31
0.0
  0
LINE
  8
1
  6
CONTINUOUS
 10
290.665
 20
28.301
 30
0.0
 11
289.065
 21
28.301
 31
0.0
  0
LINE
  8
1
  6
CONTINUOUS
 10
290.665
 20
28.321
 30
0.0
 11
289.065
 21
28.321
 31
0.0
  0
LINE
  8
1
  6
CONTINUOUS
 10
290.665
 20
28.301
 30
0.0
 11
292.373
 21
28.301
 31
0.0
  0
LINE
  8
1
  6
CONTINUOUS
 10
290.665
 20
28.321
 30
0.0
 11
292.381
 21
28.321
 31
0.0
  0
LINE
  8
1
  6
CONTINUOUS
 10
292.885
 20
27.789
 30
0.0
 11
292.373
 21
28.301
 31
0.0
  0
LINE
  8
1
  6
CONTINUOUS
 10
292.905
 20
27.797
 30
0.0
 11
292.381
 21
28.321
 31
0.0
  0
LINE
  8
1
  6
CONTINUOUS
 10
292.885
 20
25.261
 30
0.0
 11
292.885
 21
27.789
 31
0.0
  0
LINE
  8
1
  6
CONTINUOUS
 10
292.905
 20
25.241
 30
0.0
 11
292.905
 21
27.797
 31
0.0
  0
LINE
  8
1
  6
CONTINUOUS
 10
291.985
 20
25.261
 30
0.0
 11
292.885
 21
25.261
 31
0.0
  0
LINE
  8
1
  6
CONTINUOUS
 10
292.005
 20
25.241
 30
0.0
 11
292.905
 21
25.241
 31
0.0
  0
LINE
  8
1
  6
CONTINUOUS
 10
291.985
 20
24.811
 30
0.0
 11
291.985
 21
25.261
 31
0.0
  0
LINE
  8
1
  6
CONTINUOUS
 10
292.005
 20
24.791
 30
0.0
 11
292.005
 21
25.241
 31
0.0
  0
LINE
  8
1
  6
CONTINUOUS
 10
290.165
 20
24.811
 30
0.0
 11
291.985
 21
24.811
 31
0.0
  0
LINE
  8
1
  6
CONTINUOUS
 10
290.165
 20
24.791
 30
0.0
 11
292.005
 21
24.791
 31
0.0
  0
LINE
  8
1
  6
CONTINUOUS
 10
289.565
 20
24.811
 30
0.0
 11
290.165
 21
24.811
 31
0.0
  0
LINE
  8
1
  6
CONTINUOUS
 10
289.565
 20
24.791
 30
0.0
 11
290.165
 21
24.791
 31
0.0
  0
LINE
  8
1
  6
CONTINUOUS
 10
284.545
 20
24.811
 30
0.0
 11
289.565
 21
24.811
 31
0.0
  0
LINE
  8
1
  6
CONTINUOUS
 10
284.525
 20
24.791
 30
0.0
 11
289.565
 21
24.791
 31
0.0
  0
LINE
  8
1
  6
CONTINUOUS
 10
284.545
 20
24.811
 30
0.0
 11
284.545
 21
27.79
 31
0.0
  0
LINE
  8
1
  6
CONTINUOUS
 10
284.525
 20
24.791
 30
0.0
 11
284.525
 21
27.798
 31
0.0
  0
LINE
  8
1
  6
CONTINUOUS
 10
284.545
 20
27.79
 30
0.0
 11
285.056
 21
28.301
 31
0.0
  0
LINE
  8
1
  6
CONTINUOUS
 10
284.525
 20
27.798
 30
0.0
 11
285.048
 21
28.321
 31
0.0
  0
LINE
  8
1
  6
CONTINUOUS
 10
289.579
 20
27.795
 30
0.0
 11
289.093
 21
28.281
 31
0.0
  0
LINE
  8
1
  6
CONTINUOUS
 10
289.593
 20
27.809
 30
0.0
 11
289.121
 21
28.281
 31
0.0
  0
LINE
  8
1
  6
CONTINUOUS
 10
290.15
 20
27.795
 30
0.0
 11
290.636
 21
28.281
 31
0.0
  0
LINE
  8
1
  6
CONTINUOUS
 10
290.136
 20
27.809
 30
0.0
 11
290.608
 21
28.281
 31
0.0
  0
LINE
  8
1
  6
CONTINUOUS
 10
290.145
 20
24.831
 30
0.0
 11
290.145
 21
27.781
 31
0.0
  0
LINE
  8
1
  6
CONTINUOUS
 10
290.125
 20
24.831
 30
0.0
 11
290.125
 21
27.781
 31
0.0
  0
LINE
  8
1
  6
CONTINUOUS
 10
289.585
 20
24.831
 30
0.0
 11
289.585
 21
27.781
 31
0.0
  0
LINE
  8
1
  6
CONTINUOUS
 10
289.605
 20
24.831
 30
0.0
 11
289.605
 21
27.781
 31
0.0
  0
TEXT
  8
1
  6
CONTINUOUS
 10
286.804
 20
24.334
 30
0.0
 40
0.15
  1
5.00
  7
ROMANC
  0
LINE
  8
1
  6
CONTINUOUS
 10
286.743
 20
24.411
 30
0.0
 11
284.565
 21
24.414
 31
0.0
  0
LINE
  8
1
  6
CONTINUOUS
 10
287.338
 20
24.414
 30
0.0
 11
289.565
 21
24.414
 31
0.0
  0
LINE
  8
1
  6
CONTINUOUS
 10
284.528
 20
24.395
 30
0.0
 11
284.602
 21
24.433
 31
0.0
  0
LINE
  8
1
  6
CONTINUOUS
 10
289.602
 20
24.433
 30
0.0
 11
289.528
 21
24.395
 31
0.0
  0
LINE
  8
1
  6
CONTINUOUS
 10
284.565
 20
24.793
 30
0.0
 11
284.565
 21
24.376
 31
0.0
  0
LINE
  8
1
  6
CONTINUOUS
 10
289.565
 20
24.793
 30
0.0
 11
289.565
 21
24.376
 31
0.0
  0
TEXT
  8
1
  6
CONTINUOUS
 10
289.633
 20
24.354
 30
0.0
 40
0.15
  1
0.60
  7
ROMANC
  0
LINE
  8
1
  6
CONTINUOUS
 10
289.415
 20
24.414
 30
0.0
 11
289.565
 21
24.414
 31
0.0
  0
LINE
  8
1
  6
CONTINUOUS
 10
290.315
 20
24.414
 30
0.0
 11
290.165
 21
24.414
 31
0.0
  0
LINE
  8
1
  6
CONTINUOUS
 10
289.602
 20
24.433
 30
0.0
 11
289.528
 21
24.395
 31
0.0
  0
LINE
  8
1
  6
CONTINUOUS
 10
290.128
 20
24.395
 30
0.0
 11
290.202
 21
24.433
 31
0.0
  0
LINE
  8
1
  6
CONTINUOUS
 10
290.165
 20
24.793
 30
0.0
 11
290.165
 21
24.376
 31
0.0
  0
TEXT
  8
1
  6
CONTINUOUS
 10
290.955
 20
24.338
 30
0.0
 40
0.15
  1
1.80
  7
ROMANC
  0
LINE
  8
1
  6
CONTINUOUS
 10
290.917
 20
24.414
 30
0.0
 11
290.165
 21
24.414
 31
0.0
  0
LINE
  8
1
  6
CONTINUOUS
 10
291.429
 20
24.414
 30
0.0
 11
291.965
 21
24.414
 31
0.0
  0
LINE
  8
1
  6
CONTINUOUS
 10
290.128
 20
24.395
 30
0.0
 11
290.202
 21
24.433
 31
0.0
  0
LINE
  8
1
  6
CONTINUOUS
 10
292.002
 20
24.433
 30
0.0
 11
291.928
 21
24.395
 31
0.0
  0
LINE
  8
1
  6
CONTINUOUS
 10
291.965
 20
24.793
 30
0.0
 11
291.965
 21
24.376
 31
0.0
  0
TEXT
  8
1
  6
CONTINUOUS
 10
292.2
 20
24.346
 30
0.0
 40
0.15
  1
0.90
  7
ROMANC
  0
LINE
  8
1
  6
CONTINUOUS
 10
292.121
 20
24.414
 30
0.0
 11
291.965
 21
24.414
 31
0.0
  0
LINE
  8
1
  6
CONTINUOUS
 10
292.724
 20
24.414
 30
0.0
 11
292.865
 21
24.414
 31
0.0
  0
LINE
  8
1
  6
CONTINUOUS
 10
291.928
 20
24.395
 30
0.0
 11
292.002
 21
24.433
 31
0.0
  0
LINE
  8
1
  6
CONTINUOUS
 10
292.902
 20
24.433
 30
0.0
 11
292.828
 21
24.395
 31
0.0
  0
LINE
  8
1
  6
CONTINUOUS
 10
292.865
 20
25.243
 30
0.0
 11
292.865
 21
24.376
 31
0.0
  0
TEXT
  8
1
  6
CONTINUOUS
 10
288.596
 20
23.92
 30
0.0
 40
0.15
  1
8.30
  7
ROMANC
  0
LINE
  8
1
  6
CONTINUOUS
 10
288.558
 20
23.996
 30
0.0
 11
284.565
 21
23.996
 31
0.0
  0
LINE
  8
1
  6
CONTINUOUS
 10
289.138
 20
23.996
 30
0.0
 11
292.865
 21
23.996
 31
0.0
  0
LINE
  8
1
  6
CONTINUOUS
 10
284.528
 20
23.977
 30
0.0
 11
284.602
 21
24.015
 31
0.0
  0
LINE
  8
1
  6
CONTINUOUS
 10
292.902
 20
24.015
 30
0.0
 11
292.828
 21
23.977
 31
0.0
  0
LINE
  8
1
  6
CONTINUOUS
 10
284.565
 20
24.793
 30
0.0
 11
284.565
 21
23.958
 31
0.0
  0
LINE
  8
1
  6
CONTINUOUS
 10
292.865
 20
25.243
 30
0.0
 11
292.865
 21
23.958
 31
0.0
  0
TEXT
  8
1
  6
CONTINUOUS
 10
293.428
 20
24.082
 30
0.0
 40
0.15
  1
0.45
 50
90.0
  7
ROMANC
  0
LINE
  8
1
  6
CONTINUOUS
 10
293.336
 20
24.681
 30
0.0
 11
293.336
 21
24.831
 31
0.0
  0
LINE
  8
1
  6
CONTINUOUS
 10
293.336
 20
25.431
 30
0.0
 11
293.336
 21
25.262
 31
0.0
  0
LINE
  8
1
  6
CONTINUOUS
 10
293.317
 20
24.868
 30
0.0
 11
293.355
 21
24.794
 31
0.0
  0
LINE
  8
1
  6
CONTINUOUS
 10
293.355
 20
25.244
 30
0.0
 11
293.317
 21
25.318
 31
0.0
  0
LINE
  8
1
  6
CONTINUOUS
 10
292.003
 20
24.831
 30
0.0
 11
293.374
 21
24.831
 31
0.0
  0
LINE
  8
1
  6
CONTINUOUS
 10
292.903
 20
25.281
 30
0.0
 11
293.374
 21
25.281
 31
0.0
  0
TEXT
  8
1
  6
CONTINUOUS
 10
293.412
 20
26.412
 30
0.0
 40
0.15
  1
2.50
 50
90.0
  7
ROMANC
  0
LINE
  8
1
  6
CONTINUOUS
 10
293.336
 20
26.374
 30
0.0
 11
293.336
 21
25.281
 31
0.0
  0
LINE
  8
1
  6
CONTINUOUS
 10
293.336
 20
26.943
 30
0.0
 11
293.336
 21
27.742
 31
0.0
  0
LINE
  8
1
  6
CONTINUOUS
 10
293.355
 20
25.244
 30
0.0
 11
293.317
 21
25.318
 31
0.0
  0
LINE
  8
1
  6
CONTINUOUS
 10
293.317
 20
27.818
 30
0.0
 11
293.355
 21
27.744
 31
0.0
  0
LINE
  8
1
  6
CONTINUOUS
 10
292.903
 20
27.781
 30
0.0
 11
293.374
 21
27.781
 31
0.0
  0
TEXT
  8
1
  6
CONTINUOUS
 10
293.404
 20
28.568
 30
0.0
 40
0.15
  1
0.50
 50
90.0
  7
ROMANC
  0
LINE
  8
1
  6
CONTINUOUS
 10
293.336
 20
27.631
 30
0.0
 11
293.336
 21
27.781
 31
0.0
  0
LINE
  8
1
  6
CONTINUOUS
 10
293.336
 20
28.431
 30
0.0
 11
293.336
 21
28.281
 31
0.0
  0
LINE
  8
1
  6
CONTINUOUS
 10
293.317
 20
27.818
 30
0.0
 11
293.355
 21
27.744
 31
0.0
  0
LINE
  8
1
  6
CONTINUOUS
 10
293.355
 20
28.244
 30
0.0
 11
293.317
 21
28.318
 31
0.0
  0
LINE
  8
1
  6
CONTINUOUS
 10
292.903
 20
27.781
 30
0.0
 11
293.374
 21
27.781
 31
0.0
  0
LINE
  8
1
  6
CONTINUOUS
 10
292.403
 20
28.281
 30
0.0
 11
293.374
 21
28.281
 31
0.0
  0
TEXT
  8
1
  6
CONTINUOUS
 10
292.386
 20
28.623
 30
0.0
 40
0.15
  1
0.50
  7
ROMANC
  0
LINE
  8
1
  6
CONTINUOUS
 10
293.015
 20
28.705
 30
0.0
 11
292.865
 21
28.705
 31
0.0
  0
LINE
  8
1
  6
CONTINUOUS
 10
292.215
 20
28.705
 30
0.0
 11
292.365
 21
28.705
 31
0.0
  0
LINE
  8
1
  6
CONTINUOUS
 10
292.828
 20
28.686
 30
0.0
 11
292.902
 21
28.724
 31
0.0
  0
LINE
  8
1
  6
CONTINUOUS
 10
292.402
 20
28.724
 30
0.0
 11
292.328
 21
28.686
 31
0.0
  0
LINE
  8
1
  6
CONTINUOUS
 10
292.865
 20
27.819
 30
0.0
 11
292.865
 21
28.743
 31
0.0
  0
LINE
  8
1
  6
CONTINUOUS
 10
292.365
 20
28.319
 30
0.0
 11
292.365
 21
28.743
 31
0.0
  0
TEXT
  8
1
  6
CONTINUOUS
 10
293.942
 20
26.434
 30
0.0
 40
0.15
  1
3.45
 50
90.0
  7
ROMANC
  0
LINE
  8
1
  6
CONTINUOUS
 10
293.866
 20
26.396
 30
0.0
 11
293.866
 21
24.831
 31
0.0
  0
LINE
  8
1
  6
CONTINUOUS
 10
293.866
 20
26.989
 30
0.0
 11
293.866
 21
28.281
 31
0.0
  0
LINE
  8
1
  6
CONTINUOUS
 10
293.885
 20
24.794
 30
0.0
 11
293.847
 21
24.868
 31
0.0
  0
LINE
  8
1
  6
CONTINUOUS
 10
293.847
 20
28.318
 30
0.0
 11
293.885
 21
28.244
 31
0.0
  0
LINE
  8
1
  6
CONTINUOUS
 10
292.003
 20
24.831
 30
0.0
 11
293.904
 21
24.831
 31
0.0
  0
LINE
  8
1
  6
CONTINUOUS
 10
292.403
 20
28.281
 30
0.0
 11
293.904
 21
28.281
 31
0.0
  0
LINE
  8
0
 10
284.565
 20
28.70025
 30
0.0
 11
292.865
 21
28.70025
 31
0.0
  0
LINE
  8
0
 10
284.565
 20
27.838
 30
0.0
 11
284.565
 21
28.70025
 31
0.0
  0
LINE
  8
0
 10
285.065
 20
28.281
 30
0.0
 11
285.065
 21
28.70025
 31
0.0
  0
LINE
  8
0
 10
289.093
 20
28.281
 30
0.0
 11
289.093
 21
28.70025
 31
0.0
  0
LINE
  8
0
 10
289.593
 20
28.321
 30
0.0
 11
289.593
 21
28.70025
 31
0.0
  0
LINE
  8
0
 10
290.136
 20
28.321
 30
0.0
 11
290.136
 21
28.70025
 31
0.0
  0
LINE
  8
0
 10
290.636
 20
28.281
 30
0.0
 11
290.636
 21
28.70025
 31
0.0
  0
ENDSEC
  0
EOF
