  0
SECTION
  2
HEADER
  9
$ACADVER
  1
AC1009
  9
$INSBASE
 10
0.0
 20
0.0
 30
0.0
  9
$EXTMIN
 10
281.396
 20
29.897
 30
0.0
  9
$EXTMAX
 10
291.896
 20
44.747
 30
0.0
  9
$LIMMIN
 10
280.396
 20
28.897
  9
$LIMMAX
 10
292.896
 20
43.747
  9
$ORTHOMODE
 70
     0
  9
$REGENMODE
 70
     1
  9
$FILLMODE
 70
     1
  9
$QTEXTMODE
 70
     0
  9
$MIRRTEXT
 70
     1
  9
$DRAGMODE
 70
     2
  9
$LTSCALE
 40
1.0
  9
$OSMODE
 70
     0
  9
$ATTMODE
 70
     1
  9
$TEXTSIZE
 40
0.2
  9
$TRACEWID
 40
0.05
  9
$TEXTSTYLE
  7
STANDARD
  9
$CLAYER
  8
0
  9
$CELTYPE
  6
BYLAYER
  9
$CECOLOR
 62
   256
  9
$DIMSCALE
 40
1.0
  9
$DIMASZ
 40
0.18
  9
$DIMEXO
 40
0.0625
  9
$DIMDLI
 40
0.38
  9
$DIMRND
 40
0.0
  9
$DIMDLE
 40
0.0
  9
$DIMEXE
 40
0.18
  9
$DIMTP
 40
0.0
  9
$DIMTM
 40
0.0
  9
$DIMTXT
 40
0.18
  9
$DIMCEN
 40
0.09
  9
$DIMTSZ
 40
0.0
  9
$DIMTOL
 70
     0
  9
$DIMLIM
 70
     0
  9
$DIMTIH
 70
     1
  9
$DIMTOH
 70
     1
  9
$DIMSE1
 70
     0
  9
$DIMSE2
 70
     0
  9
$DIMTAD
 70
     0
  9
$DIMZIN
 70
     0
  9
$DIMBLK
  1

  9
$DIMASO
 70
     1
  9
$DIMSHO
 70
     1
  9
$DIMPOST
  1

  9
$DIMAPOST
  1

  9
$DIMALT
 70
     0
  9
$DIMALTD
 70
     2
  9
$DIMALTF
 40
25.4
  9
$DIMLFAC
 40
1.0
  9
$DIMTOFL
 70
     0
  9
$DIMTVP
 40
0.0
  9
$DIMTIX
 70
     0
  9
$DIMSOXD
 70
     0
  9
$DIMSAH
 70
     0
  9
$DIMBLK1
  1

  9
$DIMBLK2
  1

  9
$DIMSTYLE
  2
*UNNAMED
  9
$DIMCLRD
 70
     0
  9
$DIMCLRE
 70
     0
  9
$DIMCLRT
 70
     0
  9
$DIMTFAC
 40
1.0
  9
$DIMGAP
 40
0.09
  9
$LUNITS
 70
     2
  9
$LUPREC
 70
     4
  9
$SKETCHINC
 40
0.1
  9
$FILLETRAD
 40
0.0
  9
$AUNITS
 70
     0
  9
$AUPREC
 70
     0
  9
$MENU
  1
acad
  9
$ELEVATION
 40
0.0
  9
$PELEVATION
 40
0.0
  9
$THICKNESS
 40
0.0
  9
$LIMCHECK
 70
     0
  9
$BLIPMODE
 70
     1
  9
$CHAMFERA
 40
0.0
  9
$CHAMFERB
 40
0.0
  9
$SKPOLY
 70
     0
  9
$TDCREATE
 40
2448315.373408102
  9
$TDUPDATE
 40
2448315.373408102
  9
$TDINDWG
 40
0.0000000000
  9
$TDUSRTIMER
 40
0.0000000000
  9
$USRTIMER
 70
     1
  9
$ANGBASE
 50
0.0
  9
$ANGDIR
 70
     0
  9
$PDMODE
 70
     0
  9
$PDSIZE
 40
0.0
  9
$PLINEWID
 40
0.0
  9
$COORDS
 70
     0
  9
$SPLFRAME
 70
     0
  9
$SPLINETYPE
 70
     6
  9
$SPLINESEGS
 70
     8
  9
$ATTDIA
 70
     0
  9
$ATTREQ
 70
     1
  9
$HANDLING
 70
     0
  9
$HANDSEED
  5
0
  9
$SURFTAB1
 70
     6
  9
$SURFTAB2
 70
     6
  9
$SURFTYPE
 70
     6
  9
$SURFU
 70
     6
  9
$SURFV
 70
     6
  9
$UCSNAME
  2

  9
$UCSORG
 10
0.0
 20
0.0
 30
0.0
  9
$UCSXDIR
 10
1.0
 20
0.0
 30
0.0
  9
$UCSYDIR
 10
0.0
 20
1.0
 30
0.0
  9
$PUCSNAME
  2

  9
$PUCSORG
 10
0.0
 20
0.0
 30
0.0
  9
$PUCSXDIR
 10
1.0
 20
0.0
 30
0.0
  9
$PUCSYDIR
 10
0.0
 20
1.0
 30
0.0
  9
$USERI1
 70
     0
  9
$USERI2
 70
     0
  9
$USERI3
 70
     0
  9
$USERI4
 70
     0
  9
$USERI5
 70
     0
  9
$USERR1
 40
0.0
  9
$USERR2
 40
0.0
  9
$USERR3
 40
0.0
  9
$USERR4
 40
0.0
  9
$USERR5
 40
0.0
  9
$WORLDVIEW
 70
     1
  9
$SHADEDGE
 70
     3
  9
$SHADEDIF
 70
    70
  9
$TILEMODE
 70
     1
  9
$MAXACTVP
 70
    16
  9
$PINSBASE
 10
0.0
 20
0.0
 30
0.0
  9
$PLIMCHECK
 70
     0
  9
$PEXTMIN
 10
1.000000E+20
 20
1.000000E+20
 30
1.000000E+20
  9
$PEXTMAX
 10
-1.000000E+20
 20
-1.000000E+20
 30
-1.000000E+20
  9
$PLIMMIN
 10
0.0
 20
0.0
  9
$PLIMMAX
 10
12.0
 20
9.0
  9
$UNITMODE
 70
     0
  9
$VISRETAIN
 70
     0
  9
$PLINEGEN
 70
     0
  9
$PSLTSCALE
 70
     0
  9
$TREEDEPTH
 70
  3020
  9
$DWGCODEPAGE
  3
iso8859-1
  0
ENDSEC
  0
SECTION
  2
TABLES
  0
TABLE
  2
VPORT
 70
     2
  0
VPORT
  2
*ACTIVE
 70
     0
 10
0.0
 20
0.0
 11
1.0
 21
1.0
 12
293.35785
 22
37.322
 13
0.0
 23
0.0
 14
1.0
 24
1.0
 15
10.0
 25
10.0
 16
0.0
 26
0.0
 36
1.0
 17
0.0
 27
0.0
 37
0.0
 40
14.85
 41
1.611024
 42
50.0
 43
0.0
 44
0.0
 50
0.0
 51
0.0
 71
     0
 72
   100
 73
     1
 74
     0
 75
     0
 76
     0
 77
     0
 78
     0
  0
ENDTAB
  0
TABLE
  2
LTYPE
 70
     1
  0
LTYPE
  2
CONTINUOUS
 70
    64
  3
Solid line
 72
    65
 73
     0
 40
0.0
  0
ENDTAB
  0
TABLE
  2
LAYER
 70
     7
  0
LAYER
  2
0
 70
    64
 62
     7
  6
CONTINUOUS
  0
LAYER
  2
1
 70
    64
 62
     7
  6
CONTINUOUS
  0
LAYER
  2
7
 70
    64
 62
     7
  6
CONTINUOUS
  0
LAYER
  2
8
 70
    64
 62
     7
  6
CONTINUOUS
  0
LAYER
  2
9
 70
    64
 62
     7
  6
CONTINUOUS
  0
LAYER
  2
22
 70
    64
 62
     7
  6
CONTINUOUS
  0
LAYER
  2
25
 70
    64
 62
     7
  6
CONTINUOUS
  0
ENDTAB
  0
TABLE
  2
STYLE
 70
     2
  0
STYLE
  2
STANDARD
 70
     0
 40
0.0
 41
1.0
 50
0.0
 71
     0
 42
3.5
  3
txt
  4

  0
STYLE
  2
ROMANC
 70
     0
 40
0.0
 41
1.0
 50
0.0
 71
     0
 42
0.2
  3
ROMANC
  4

  0
ENDTAB
  0
TABLE
  2
VIEW
 70
     0
  0
ENDTAB
  0
TABLE
  2
UCS
 70
     0
  0
ENDTAB
  0
TABLE
  2
APPID
 70
     1
  0
APPID
  2
ACAD
 70
    64
  0
ENDTAB
  0
TABLE
  2
DIMSTYLE
 70
     0
  0
ENDTAB
  0
ENDSEC
  0
SECTION
  2
BLOCKS
  0
ENDSEC
  0
SECTION
  2
ENTITIES
  0
TEXT
  8
0
  6
CONTINUOUS
 10
287.119267
 20
41.347349
 30
0.0
 40
0.1
  1
2
  7
ROMANC
  0
TEXT
  8
0
  6
CONTINUOUS
 10
283.926
 20
41.768
 30
0.0
 40
0.3
  1
ESCALA  1:50
  7
ROMANC
  0
POLYLINE
  8
0
  6
CONTINUOUS
 66
     1
 10
0.0
 20
0.0
 30
0.0
 70
     1
  0
VERTEX
  8
0
  6
CONTINUOUS
 10
281.396
 20
44.747
 30
0.0
  0
VERTEX
  8
0
  6
CONTINUOUS
 10
291.896
 20
44.747
 30
0.0
  0
VERTEX
  8
0
  6
CONTINUOUS
 10
291.896
 20
29.897
 30
0.0
  0
VERTEX
  8
0
  6
CONTINUOUS
 10
281.396
 20
29.897
 30
0.0
  0
SEQEND
  8
0
  0
ARC
  8
1
  6
CONTINUOUS
 10
286.329
 20
34.587
 30
0.0
 40
0.6
 50
0.0
 51
180.0
  0
TEXT
  8
0
  6
CONTINUOUS
 10
283.922
 20
40.529
 30
0.0
 40
0.3
  1
P = 64 dm
  7
ROMANC
  0
TEXT
  8
0
  6
CONTINUOUS
 10
283.945
 20
41.099
 30
0.0
 40
0.3
  1
S = 243 dm
  7
ROMANC
  0
ARC
  8
1
  6
CONTINUOUS
 10
286.329
 20
32.887
 30
0.0
 40
0.2
 50
180.0
 51
0.0
  0
TEXT
  8
1
  6
CONTINUOUS
 10
286.207
 20
32.496
 30
0.0
 40
0.075
  1
0.40
  7
ROMANC
  0
LINE
  8
1
  6
CONTINUOUS
 10
285.979
 20
32.533
 30
0.0
 11
286.129
 21
32.533
 31
0.0
  0
LINE
  8
1
  6
CONTINUOUS
 10
286.679
 20
32.533
 30
0.0
 11
286.529
 21
32.533
 31
0.0
  0
LINE
  8
1
  6
CONTINUOUS
 10
286.166
 20
32.552
 30
0.0
 11
286.092
 21
32.514
 31
0.0
  0
LINE
  8
1
  6
CONTINUOUS
 10
286.492
 20
32.514
 30
0.0
 11
286.566
 21
32.552
 31
0.0
  0
LINE
  8
1
  6
CONTINUOUS
 10
286.129
 20
32.849
 30
0.0
 11
286.129
 21
32.495
 31
0.0
  0
LINE
  8
1
  6
CONTINUOUS
 10
286.529
 20
32.849
 30
0.0
 11
286.529
 21
32.495
 31
0.0
  0
LINE
  8
1
  6
CONTINUOUS
 10
286.129
 20
32.887
 30
0.0
 11
285.904
 21
32.887
 31
0.0
  0
LINE
  8
1
  6
CONTINUOUS
 10
286.754
 20
32.887
 30
0.0
 11
286.529
 21
32.887
 31
0.0
  0
TEXT
  8
1
  6
CONTINUOUS
 10
286.21
 20
32.324
 30
0.0
 40
0.075
  1
0.85
  7
ROMANC
  0
LINE
  8
1
  6
CONTINUOUS
 10
286.172
 20
32.362
 30
0.0
 11
285.904
 21
32.362
 31
0.0
  0
LINE
  8
1
  6
CONTINUOUS
 10
286.484
 20
32.362
 30
0.0
 11
286.754
 21
32.362
 31
0.0
  0
LINE
  8
1
  6
CONTINUOUS
 10
285.866
 20
32.343
 30
0.0
 11
285.942
 21
32.381
 31
0.0
  0
LINE
  8
1
  6
CONTINUOUS
 10
286.792
 20
32.381
 30
0.0
 11
286.716
 21
32.343
 31
0.0
  0
LINE
  8
1
  6
CONTINUOUS
 10
285.904
 20
32.849
 30
0.0
 11
285.904
 21
32.324
 31
0.0
  0
LINE
  8
1
  6
CONTINUOUS
 10
286.754
 20
32.849
 30
0.0
 11
286.754
 21
32.324
 31
0.0
  0
ARC
  8
1
  6
CONTINUOUS
 10
272.958347
 20
35.166148
 30
0.0
 40
13.982652
 50
350.619033
 51
357.626186
  0
TEXT
  8
1
  6
CONTINUOUS
 10
287.066
 20
33.149
 30
0.0
 40
0.075
  1
0.20
 50
90.0
  7
ROMANC
  0
LINE
  8
1
  6
CONTINUOUS
 10
287.029
 20
32.537
 30
0.0
 11
287.029
 21
32.687
 31
0.0
  0
LINE
  8
1
  6
CONTINUOUS
 10
287.029
 20
33.111
 30
0.0
 11
287.029
 21
32.887
 31
0.0
  0
LINE
  8
1
  6
CONTINUOUS
 10
287.01
 20
32.724
 30
0.0
 11
287.048
 21
32.65
 31
0.0
  0
LINE
  8
1
  6
CONTINUOUS
 10
287.048
 20
32.85
 30
0.0
 11
287.01
 21
32.924
 31
0.0
  0
LINE
  8
1
  6
CONTINUOUS
 10
286.367
 20
32.687
 30
0.0
 11
287.067
 21
32.687
 31
0.0
  0
LINE
  8
1
  6
CONTINUOUS
 10
286.792
 20
32.887
 30
0.0
 11
287.067
 21
32.887
 31
0.0
  0
TEXT
  8
1
  6
CONTINUOUS
 10
287.242
 20
33.627
 30
0.0
 40
0.075
  1
1.70
 50
90.0
  7
ROMANC
  0
LINE
  8
1
  6
CONTINUOUS
 10
287.205
 20
33.589
 30
0.0
 11
287.205
 21
32.887
 31
0.0
  0
LINE
  8
1
  6
CONTINUOUS
 10
287.205
 20
33.884
 30
0.0
 11
287.205
 21
34.587
 31
0.0
  0
LINE
  8
1
  6
CONTINUOUS
 10
287.224
 20
32.85
 30
0.0
 11
287.186
 21
32.924
 31
0.0
  0
LINE
  8
1
  6
CONTINUOUS
 10
287.186
 20
34.624
 30
0.0
 11
287.224
 21
34.55
 31
0.0
  0
LINE
  8
1
  6
CONTINUOUS
 10
286.792
 20
32.887
 30
0.0
 11
287.243
 21
32.887
 31
0.0
  0
LINE
  8
1
  6
CONTINUOUS
 10
286.967
 20
34.587
 30
0.0
 11
287.243
 21
34.587
 31
0.0
  0
TEXT
  8
1
  6
CONTINUOUS
 10
287.494
 20
33.818
 30
0.0
 40
0.075
  1
2.50
 50
90.0
  7
ROMANC
  0
LINE
  8
1
  6
CONTINUOUS
 10
287.457
 20
33.78
 30
0.0
 11
287.457
 21
32.687
 31
0.0
  0
LINE
  8
1
  6
CONTINUOUS
 10
287.457
 20
34.092
 30
0.0
 11
287.457
 21
35.187
 31
0.0
  0
LINE
  8
1
  6
CONTINUOUS
 10
287.476
 20
32.65
 30
0.0
 11
287.438
 21
32.724
 31
0.0
  0
LINE
  8
1
  6
CONTINUOUS
 10
287.438
 20
35.224
 30
0.0
 11
287.476
 21
35.15
 31
0.0
  0
LINE
  8
1
  6
CONTINUOUS
 10
286.367
 20
32.687
 30
0.0
 11
287.495
 21
32.687
 31
0.0
  0
LINE
  8
1
  6
CONTINUOUS
 10
286.367
 20
35.187
 30
0.0
 11
287.495
 21
35.187
 31
0.0
  0
ARC
  8
1
  6
CONTINUOUS
 10
286.329
 20
34.587
 30
0.0
 40
0.61
 50
0.0
 51
180.0
  0
ARC
  8
1
  6
CONTINUOUS
 10
286.329
 20
34.587
 30
0.0
 40
0.62
 50
0.0
 51
180.0
  0
ARC
  8
1
  6
CONTINUOUS
 10
272.958347
 20
35.166148
 30
0.0
 40
13.992652
 50
350.584292
 51
357.626186
  0
ARC
  8
1
  6
CONTINUOUS
 10
272.958347
 20
35.166148
 30
0.0
 40
14.002652
 50
350.5496
 51
357.626186
  0
LINE
  8
1
  6
CONTINUOUS
 10
286.762
 20
32.877
 30
0.0
 11
286.539
 21
32.877
 31
0.0
  0
LINE
  8
1
  6
CONTINUOUS
 10
286.771
 20
32.867
 30
0.0
 11
286.548
 21
32.867
 31
0.0
  0
ARC
  8
1
  6
CONTINUOUS
 10
286.329
 20
32.887
 30
0.0
 40
0.21
 50
182.729403
 51
357.270597
  0
ARC
  8
1
  6
CONTINUOUS
 10
286.329
 20
32.887
 30
0.0
 40
0.22
 50
185.215908
 51
354.784092
  0
LINE
  8
1
  6
CONTINUOUS
 10
286.119
 20
32.877
 30
0.0
 11
285.896
 21
32.877
 31
0.0
  0
LINE
  8
1
  6
CONTINUOUS
 10
286.11
 20
32.867
 30
0.0
 11
285.887
 21
32.867
 31
0.0
  0
ARC
  8
1
  6
CONTINUOUS
 10
299.699653
 20
35.166148
 30
0.0
 40
13.992652
 50
182.373814
 51
189.415708
  0
ARC
  8
1
  6
CONTINUOUS
 10
299.699653
 20
35.166148
 30
0.0
 40
14.002652
 50
182.373814
 51
189.4504
  0
TEXT
  8
0
  6
CONTINUOUS
 10
283.926
 20
42.381
 30
0.0
 40
0.3
  1
TIPUS   NT243
  7
ROMANC
  0
ARC
  8
1
  6
CONTINUOUS
 10
299.699653
 20
35.166148
 30
0.0
 40
13.982652
 50
182.373814
 51
189.380967
  0
TEXT
  8
1
  6
CONTINUOUS
 10
286.219
 20
35.328
 30
0.0
 40
0.075
  1
1.20
  7
ROMANC
  0
LINE
  8
1
  6
CONTINUOUS
 10
286.181
 20
35.365
 30
0.0
 11
285.729
 21
35.365
 31
0.0
  0
LINE
  8
1
  6
CONTINUOUS
 10
286.476
 20
35.365
 30
0.0
 11
286.929
 21
35.365
 31
0.0
  0
LINE
  8
1
  6
CONTINUOUS
 10
285.692
 20
35.346
 30
0.0
 11
285.766
 21
35.384
 31
0.0
  0
LINE
  8
1
  6
CONTINUOUS
 10
286.966
 20
35.384
 30
0.0
 11
286.892
 21
35.346
 31
0.0
  0
LINE
  8
1
  6
CONTINUOUS
 10
285.729
 20
34.625
 30
0.0
 11
285.729
 21
35.403
 31
0.0
  0
LINE
  8
1
  6
CONTINUOUS
 10
286.929
 20
34.625
 30
0.0
 11
286.929
 21
35.403
 31
0.0
  0
LINE
  8
1
  6
CONTINUOUS
 10
287.202878
 20
35.409855
 30
0.0
 11
287.202878
 21
35.185855
 31
0.0
  0
LINE
  8
1
  6
CONTINUOUS
 10
287.221878
 20
35.148855
 30
0.0
 11
287.183878
 21
35.222855
 31
0.0
  0
TEXT
  8
1
  6
CONTINUOUS
 10
287.242
 20
34.795334
 30
0.0
 40
0.075
  1
0.60
 50
90.0
  7
ROMANC
  0
ENDSEC
  0
EOF
