  0
SECTION
  2
HEADER
  9
$ACADVER
  1
AC1009
  9
$INSBASE
 10
0.0
 20
0.0
 30
0.0
  9
$EXTMIN
 10
281.396000
 20
29.897000
 30
-2147483.648000
  9
$EXTMAX
 10
291.896000
 20
44.747000
 30
0.000000
  9
$LIMMIN
 10
280.396000
 20
28.897000
  9
$LIMMAX
 10
292.896000
 20
43.747000
  9
$ORTHOMODE
 70
     0
  9
$REGENMODE
 70
     1
  9
$FILLMODE
 70
     1
  9
$QTEXTMODE
 70
     0
  9
$MIRRTEXT
 70
     1
  9
$DRAGMODE
 70
     2
  9
$LTSCALE
 40
1.0
  9
$OSMODE
 70
     0
  9
$ATTMODE
 70
     1
  9
$TEXTSIZE
 40
0.2
  9
$TRACEWID
 40
0.05
  9
$TEXTSTYLE
  7
STANDARD
  9
$CLAYER
  8
0
  9
$CELTYPE
  6
BYLAYER
  9
$CECOLOR
 62
   256
  9
$DIMSCALE
 40
1.0
  9
$DIMASZ
 40
0.18
  9
$DIMEXO
 40
0.0625
  9
$DIMDLI
 40
0.38
  9
$DIMRND
 40
0.0
  9
$DIMDLE
 40
0.0
  9
$DIMEXE
 40
0.18
  9
$DIMTP
 40
0.0
  9
$DIMTM
 40
0.0
  9
$DIMTXT
 40
0.18
  9
$DIMCEN
 40
0.09
  9
$DIMTSZ
 40
0.0
  9
$DIMTOL
 70
     0
  9
$DIMLIM
 70
     0
  9
$DIMTIH
 70
     1
  9
$DIMTOH
 70
     1
  9
$DIMSE1
 70
     0
  9
$DIMSE2
 70
     0
  9
$DIMTAD
 70
     0
  9
$DIMZIN
 70
     0
  9
$DIMBLK
  1

  9
$DIMASO
 70
     1
  9
$DIMSHO
 70
     1
  9
$DIMPOST
  1

  9
$DIMAPOST
  1

  9
$DIMALT
 70
     0
  9
$DIMALTD
 70
     2
  9
$DIMALTF
 40
25.4
  9
$DIMLFAC
 40
1.0
  9
$DIMTOFL
 70
     0
  9
$DIMTVP
 40
0.0
  9
$DIMTIX
 70
     0
  9
$DIMSOXD
 70
     0
  9
$DIMSAH
 70
     0
  9
$DIMBLK1
  1

  9
$DIMBLK2
  1

  9
$DIMSTYLE
  2
*UNNAMED
  9
$DIMCLRD
 70
     0
  9
$DIMCLRE
 70
     0
  9
$DIMCLRT
 70
     0
  9
$DIMTFAC
 40
1.0
  9
$DIMGAP
 40
0.09
  9
$LUNITS
 70
     2
  9
$LUPREC
 70
     4
  9
$AXISMODE
 70
     0
  9
$AXISUNIT
 10
0.0
 20
0.0
  9
$SKETCHINC
 40
0.1
  9
$FILLETRAD
 40
0.0
  9
$AUNITS
 70
     0
  9
$AUPREC
 70
     0
  9
$MENU
  1
acad
  9
$ELEVATION
 40
0.0
  9
$PELEVATION
 40
0.0
  9
$THICKNESS
 40
0.0
  9
$LIMCHECK
 70
     0
  9
$BLIPMODE
 70
     1
  9
$CHAMFERA
 40
0.0
  9
$CHAMFERB
 40
0.0
  9
$SKPOLY
 70
     0
  9
$TDCREATE
 40
2448315.373408102
  9
$TDUPDATE
 40
2448315.373408102
  9
$TDINDWG
 40
0.0000000000
  9
$TDUSRTIMER
 40
0.0000000000
  9
$USRTIMER
 70
     1
  9
$ANGBASE
 50
0.0
  9
$ANGDIR
 70
     0
  9
$PDMODE
 70
     0
  9
$PDSIZE
 40
0.0
  9
$PLINEWID
 40
0.0
  9
$COORDS
 70
     0
  9
$SPLFRAME
 70
     0
  9
$SPLINETYPE
 70
     6
  9
$SPLINESEGS
 70
     8
  9
$ATTDIA
 70
     0
  9
$ATTREQ
 70
     1
  9
$HANDLING
 70
     0
  9
$HANDSEED
  5
0
  9
$SURFTAB1
 70
     6
  9
$SURFTAB2
 70
     6
  9
$SURFTYPE
 70
     6
  9
$SURFU
 70
     6
  9
$SURFV
 70
     6
  9
$UCSNAME
  2

  9
$UCSORG
 10
0.0
 20
0.0
 30
0.0
  9
$UCSXDIR
 10
1.0
 20
0.0
 30
0.0
  9
$UCSYDIR
 10
0.0
 20
1.0
 30
0.0
  9
$PUCSNAME
  2

  9
$PUCSORG
 10
0.0
 20
0.0
 30
0.0
  9
$PUCSXDIR
 10
1.0
 20
0.0
 30
0.0
  9
$PUCSYDIR
 10
0.0
 20
1.0
 30
0.0
  9
$USERI1
 70
     0
  9
$USERI2
 70
     0
  9
$USERI3
 70
     0
  9
$USERI4
 70
     0
  9
$USERI5
 70
     0
  9
$USERR1
 40
0.0
  9
$USERR2
 40
0.0
  9
$USERR3
 40
0.0
  9
$USERR4
 40
0.0
  9
$USERR5
 40
0.0
  9
$WORLDVIEW
 70
     1
  9
$SHADEDGE
 70
     3
  9
$SHADEDIF
 70
    70
  9
$TILEMODE
 70
     1
  9
$MAXACTVP
 70
    16
  9
$PINSBASE
 10
0.0
 20
0.0
 30
0.0
  9
$PLIMCHECK
 70
     0
  9
$PEXTMIN
 10
1.000000E+20
 20
1.000000E+20
 30
1.000000E+20
  9
$PEXTMAX
 10
-1.000000E+20
 20
-1.000000E+20
 30
-1.000000E+20
  9
$PLIMMIN
 10
0.0
 20
0.0
  9
$PLIMMAX
 10
12.0
 20
9.0
  9
$UNITMODE
 70
     0
  9
$VISRETAIN
 70
     0
  0
ENDSEC
  0
SECTION
  2
TABLES
  0
TABLE
  2
LTYPE
 70
    1
  0
LTYPE
  2
CONTINUOUS
 70
    64
3
Solid line
 72
    65
 73
0
 40
0.000000
  0
ENDTAB
  0
TABLE
  2
LAYER
 70
    8
  0
LAYER
  2
0
 70
    64
 62
7
  6
CONTINUOUS
  0
LAYER
  2
1
 70
    64
 62
7
  6
CONTINUOUS
  0
LAYER
  2
7
 70
    64
 62
7
  6
CONTINUOUS
  0
LAYER
  2
8
 70
    64
 62
7
  6
CONTINUOUS
  0
LAYER
  2
9
 70
    64
 62
7
  6
CONTINUOUS
  0
LAYER
  2
22
 70
    64
 62
7
  6
CONTINUOUS
  0
LAYER
  2
25
 70
    64
 62
7
  6
CONTINUOUS
  0
LAYER
  2
0
 70
    64
 62
7
  6
CONTINUOUS
  0
ENDTAB
  0
TABLE
  2
STYLE
 70
    1
  0
STYLE
  2
ROMANC
70
     0
 40
0.0
 41
1.0
 50
0.0
 71
     0
 42
0.2
  3
ROMANC
  4

  0
ENDTAB
  0
ENDSEC
  0
SECTION
  2
BLOCKS
  0
ENDSEC
  0
SECTION
  2
ENTITIES
  0
TEXT
  8
0
  6
CONTINUOUS
 40
0.100000
 10
286.973000
 20
41.347000
  1
2
  7
ROMANC
  0
TEXT
  8
0
  6
CONTINUOUS
 40
0.300000
 10
283.926000
 20
41.768000
  1
ESCALA  1:50
  7
ROMANC
  0
POLYLINE
  8
0
  6
CONTINUOUS
 66
     1
 70
     1
  0
VERTEX
  8
0
  6
CONTINUOUS
 10
281.396000
 20
44.747000
  0
VERTEX
  8
0
  6
CONTINUOUS
 10
291.896000
 20
44.747000
  0
VERTEX
  8
0
  6
CONTINUOUS
 10
291.896000
 20
29.897000
  0
VERTEX
  8
0
  6
CONTINUOUS
 10
281.396000
 20
29.897000
  0
SEQEND
  8
0
  0
TEXT
  8
0
  6
CONTINUOUS
 40
0.300000
 10
283.945000
 20
41.099000
  1
S = 242 dm
  7
ROMANC
  0
TEXT
  8
0
  6
CONTINUOUS
 40
0.300000
 10
283.922000
 20
40.529000
  1
P = 60 dm
  7
ROMANC
  0
TEXT
  8
0
  6
CONTINUOUS
 40
0.300000
 10
283.926000
 20
42.381000
  1
TIPUS   NT242B
  7
ROMANC
  0
LINE
  8
1
  6
CONTINUOUS
 10
286.054000
 20
36.057000
 11
286.803000
 21
36.057000
  0
LINE
  8
1
  6
CONTINUOUS
 10
286.044000
 20
36.047000
 11
286.794000
 21
36.047000
  0
POLYLINE
  8
1
  6
CONTINUOUS
 66
     1
 70
     0
  0
VERTEX
  8
1
  6
CONTINUOUS
 10
286.802808
 20
36.057000
 42
0.038719
  0
VERTEX
  8
1
  6
CONTINUOUS
 10
286.806584
 20
36.028020
 42
0.038007
  0
VERTEX
  8
1
  6
CONTINUOUS
 10
286.814725
 20
35.999948
 42
0.037602
  0
VERTEX
  8
1
  6
CONTINUOUS
 10
286.827280
 20
35.972909
 42
0.036146
  0
VERTEX
  8
1
  6
CONTINUOUS
 10
286.843661
 20
35.947990
 42
0.035587
  0
VERTEX
  8
1
  6
CONTINUOUS
 10
286.864043
 20
35.925028
 42
0.033969
  0
VERTEX
  8
1
  6
CONTINUOUS
 10
286.887407
 20
35.905094
 42
0.033453
  0
VERTEX
  8
1
  6
CONTINUOUS
 10
286.914011
 20
35.888010
 42
0.032158
  0
VERTEX
  8
1
  6
CONTINUOUS
 10
286.942622
 20
35.874537
 42
0.031811
  0
VERTEX
  8
1
  6
CONTINUOUS
 10
286.973354
 20
35.864633
 42
0.031110
  0
VERTEX
  8
1
  6
CONTINUOUS
 10
287.005088
 20
35.858651
 42
0.030990
  0
VERTEX
  8
1
  6
CONTINUOUS
 10
287.037561
 20
35.856642
 42
0.030990
  0
VERTEX
  8
1
  6
CONTINUOUS
 10
287.070034
 20
35.858651
 42
0.031110
  0
VERTEX
  8
1
  6
CONTINUOUS
 10
287.101767
 20
35.864633
 42
0.031811
  0
VERTEX
  8
1
  6
CONTINUOUS
 10
287.132499
 20
35.874537
 42
0.032158
  0
VERTEX
  8
1
  6
CONTINUOUS
 10
287.161110
 20
35.888010
 42
0.033453
  0
VERTEX
  8
1
  6
CONTINUOUS
 10
287.187714
 20
35.905094
 42
0.033969
  0
VERTEX
  8
1
  6
CONTINUOUS
 10
287.211079
 20
35.925028
 42
0.035587
  0
VERTEX
  8
1
  6
CONTINUOUS
 10
287.231460
 20
35.947990
 42
0.036146
  0
VERTEX
  8
1
  6
CONTINUOUS
 10
287.247841
 20
35.972909
 42
0.037602
  0
VERTEX
  8
1
  6
CONTINUOUS
 10
287.260396
 20
35.999948
 42
0.038007
  0
VERTEX
  8
1
  6
CONTINUOUS
 10
287.268537
 20
36.028020
 42
0.038719
  0
VERTEX
  8
1
  6
CONTINUOUS
 10
287.272313
 20
36.057000
  0
SEQEND
  8
0
  0
POLYLINE
  8
1
  6
CONTINUOUS
 66
     1
 70
     0
  0
VERTEX
  8
1
  6
CONTINUOUS
 10
286.793538
 20
36.047000
 42
0.037357
  0
VERTEX
  8
1
  6
CONTINUOUS
 10
286.798723
 20
36.017662
 42
0.036596
  0
VERTEX
  8
1
  6
CONTINUOUS
 10
286.808156
 20
35.989399
 42
0.036205
  0
VERTEX
  8
1
  6
CONTINUOUS
 10
286.821890
 20
35.962282
 42
0.034852
  0
VERTEX
  8
1
  6
CONTINUOUS
 10
286.839316
 20
35.937367
 42
0.034346
  0
VERTEX
  8
1
  6
CONTINUOUS
 10
286.860609
 20
35.914490
 42
0.032894
  0
VERTEX
  8
1
  6
CONTINUOUS
 10
286.884772
 20
35.894657
 42
0.032435
  0
VERTEX
  8
1
  6
CONTINUOUS
 10
286.912043
 20
35.877709
 42
0.031285
  0
VERTEX
  8
1
  6
CONTINUOUS
 10
286.941246
 20
35.864349
 42
0.030978
  0
VERTEX
  8
1
  6
CONTINUOUS
 10
286.972473
 20
35.854548
 42
0.030357
  0
VERTEX
  8
1
  6
CONTINUOUS
 10
287.004665
 20
35.848628
 42
0.030250
  0
VERTEX
  8
1
  6
CONTINUOUS
 10
287.037561
 20
35.846642
 42
0.030250
  0
VERTEX
  8
1
  6
CONTINUOUS
 10
287.070456
 20
35.848628
 42
0.030357
  0
VERTEX
  8
1
  6
CONTINUOUS
 10
287.102649
 20
35.854548
 42
0.030978
  0
VERTEX
  8
1
  6
CONTINUOUS
 10
287.133875
 20
35.864349
 42
0.031285
  0
VERTEX
  8
1
  6
CONTINUOUS
 10
287.163079
 20
35.877709
 42
0.032435
  0
VERTEX
  8
1
  6
CONTINUOUS
 10
287.190349
 20
35.894657
 42
0.032894
  0
VERTEX
  8
1
  6
CONTINUOUS
 10
287.214513
 20
35.914490
 42
0.034346
  0
VERTEX
  8
1
  6
CONTINUOUS
 10
287.235805
 20
35.937367
 42
0.034852
  0
VERTEX
  8
1
  6
CONTINUOUS
 10
287.253231
 20
35.962282
 42
0.036205
  0
VERTEX
  8
1
  6
CONTINUOUS
 10
287.266965
 20
35.989399
 42
0.036596
  0
VERTEX
  8
1
  6
CONTINUOUS
 10
287.276399
 20
36.017662
 42
0.037357
  0
VERTEX
  8
1
  6
CONTINUOUS
 10
287.281583
 20
36.047000
  0
SEQEND
  8
0
  0
LINE
  8
1
  6
CONTINUOUS
 10
287.272000
 20
36.057000
 11
287.422000
 21
36.057000
  0
LINE
  8
1
  6
CONTINUOUS
 10
287.282000
 20
36.047000
 11
287.432000
 21
36.047000
  0
LINE
  8
1
  6
CONTINUOUS
 10
287.422000
 20
36.057000
 11
287.523000
 21
37.266000
  0
LINE
  8
1
  6
CONTINUOUS
 10
287.432000
 20
36.047000
 11
287.533000
 21
37.265000
  0
LINE
  8
1
  6
CONTINUOUS
 10
285.953000
 20
37.266000
 11
286.054000
 21
36.057000
  0
LINE
  8
1
  6
CONTINUOUS
 10
285.943000
 20
37.265000
 11
286.044000
 21
36.047000
  0
TEXT
  8
1
  6
CONTINUOUS
 40
0.075000
 10
286.601000
 20
35.042000
  1
1.35
  7
ROMANC
  0
LINE
  8
1
  6
CONTINUOUS
 10
286.563000
 20
35.080000
 11
286.063000
 21
35.080000
  0
LINE
  8
1
  6
CONTINUOUS
 10
286.912000
 20
35.080000
 11
287.413000
 21
35.080000
  0
LINE
  8
1
  6
CONTINUOUS
 10
286.026000
 20
35.061000
 11
286.100000
 21
35.099000
  0
LINE
  8
1
  6
CONTINUOUS
 10
287.450000
 20
35.099000
 11
287.376000
 21
35.061000
  0
LINE
  8
1
  6
CONTINUOUS
 10
286.063000
 20
36.029000
 11
286.063000
 21
35.042000
  0
LINE
  8
1
  6
CONTINUOUS
 10
287.413000
 20
36.029000
 11
287.413000
 21
35.042000
  0
TEXT
  8
1
  6
CONTINUOUS
 40
0.075000
 10
287.593000
 20
35.568000
  1
0.15
  7
ROMANC
  0
LINE
  8
1
  6
CONTINUOUS
 10
287.479000
 20
35.606000
 11
287.413000
 21
35.606000
  0
LINE
  8
1
  6
CONTINUOUS
 10
287.113000
 20
35.606000
 11
287.263000
 21
35.606000
  0
LINE
  8
1
  6
CONTINUOUS
 10
287.376000
 20
35.587000
 11
287.450000
 21
35.625000
  0
LINE
  8
1
  6
CONTINUOUS
 10
287.300000
 20
35.625000
 11
287.226000
 21
35.587000
  0
LINE
  8
1
  6
CONTINUOUS
 10
287.413000
 20
36.029000
 11
287.413000
 21
35.568000
  0
LINE
  8
1
  6
CONTINUOUS
 10
287.263000
 20
36.029000
 11
287.263000
 21
35.568000
  0
TEXT
  8
1
  6
CONTINUOUS
 40
0.075000
 10
286.302000
 20
35.568000
  1
0.75
  7
ROMANC
  0
LINE
  8
1
  6
CONTINUOUS
 10
286.613000
 20
35.606000
 11
286.813000
 21
35.606000
  0
LINE
  8
1
  6
CONTINUOUS
 10
286.264000
 20
35.606000
 11
286.063000
 21
35.606000
  0
LINE
  8
1
  6
CONTINUOUS
 10
286.850000
 20
35.625000
 11
286.776000
 21
35.587000
  0
LINE
  8
1
  6
CONTINUOUS
 10
286.026000
 20
35.587000
 11
286.100000
 21
35.625000
  0
LINE
  8
1
  6
CONTINUOUS
 10
286.813000
 20
36.029000
 11
286.813000
 21
35.568000
  0
LINE
  8
1
  6
CONTINUOUS
 10
286.063000
 20
36.029000
 11
286.063000
 21
35.568000
  0
TEXT
  8
1
  6
CONTINUOUS
 40
0.075000
 10
288.160000
 20
36.290000
  1
0.20
 50
90.000000
  7
ROMANC
  0
LINE
  8
1
  6
CONTINUOUS
 10
288.123000
 20
36.176000
 11
288.123000
 21
36.067000
  0
LINE
  8
1
  6
CONTINUOUS
 10
288.123000
 20
35.717000
 11
288.123000
 21
35.867000
  0
LINE
  8
1
  6
CONTINUOUS
 10
288.142000
 20
36.030000
 11
288.104000
 21
36.104000
  0
LINE
  8
1
  6
CONTINUOUS
 10
288.104000
 20
35.904000
 11
288.142000
 21
35.830000
  0
LINE
  8
1
  6
CONTINUOUS
 10
287.301000
 20
36.067000
 11
288.161000
 21
36.067000
  0
LINE
  8
1
  6
CONTINUOUS
 10
287.076000
 20
35.867000
 11
288.161000
 21
35.867000
  0
LINE
  8
1
  6
CONTINUOUS
 10
287.513000
 20
37.267000
 11
287.413000
 21
36.067000
  0
LINE
  8
1
  6
CONTINUOUS
 10
287.413000
 20
36.067000
 11
287.263000
 21
36.067000
  0
POLYLINE
  8
1
  6
CONTINUOUS
 66
     1
 70
     0
  0
VERTEX
  8
1
  6
CONTINUOUS
 10
286.812561
 20
36.066636
 42
0.036808
  0
VERTEX
  8
1
  6
CONTINUOUS
 10
286.814506
 20
36.040476
 42
0.036322
  0
VERTEX
  8
1
  6
CONTINUOUS
 10
286.820227
 20
36.014873
 42
0.036000
  0
VERTEX
  8
1
  6
CONTINUOUS
 10
286.829763
 20
35.989964
 42
0.034755
  0
VERTEX
  8
1
  6
CONTINUOUS
 10
286.842705
 20
35.966636
 42
0.034252
  0
VERTEX
  8
1
  6
CONTINUOUS
 10
286.859197
 20
35.944734
 42
0.032727
  0
VERTEX
  8
1
  6
CONTINUOUS
 10
286.878462
 20
35.925215
 42
0.032217
  0
VERTEX
  8
1
  6
CONTINUOUS
 10
286.900758
 20
35.907858
 42
0.030864
  0
VERTEX
  8
1
  6
CONTINUOUS
 10
286.925061
 20
35.893431
 42
0.030473
  0
VERTEX
  8
1
  6
CONTINUOUS
 10
286.951593
 20
35.881816
 42
0.029574
  0
VERTEX
  8
1
  6
CONTINUOUS
 10
286.979326
 20
35.873451
 42
0.029367
  0
VERTEX
  8
1
  6
CONTINUOUS
 10
287.008244
 20
35.868346
 42
0.029055
  0
VERTEX
  8
1
  6
CONTINUOUS
 10
287.037561
 20
35.866636
 42
0.029055
  0
VERTEX
  8
1
  6
CONTINUOUS
 10
287.066877
 20
35.868346
 42
0.029367
  0
VERTEX
  8
1
  6
CONTINUOUS
 10
287.095795
 20
35.873451
 42
0.029574
  0
VERTEX
  8
1
  6
CONTINUOUS
 10
287.123528
 20
35.881816
 42
0.030473
  0
VERTEX
  8
1
  6
CONTINUOUS
 10
287.150061
 20
35.893431
 42
0.030864
  0
VERTEX
  8
1
  6
CONTINUOUS
 10
287.174363
 20
35.907858
 42
0.032217
  0
VERTEX
  8
1
  6
CONTINUOUS
 10
287.196660
 20
35.925215
 42
0.032727
  0
VERTEX
  8
1
  6
CONTINUOUS
 10
287.215924
 20
35.944734
 42
0.034252
  0
VERTEX
  8
1
  6
CONTINUOUS
 10
287.232416
 20
35.966636
 42
0.034755
  0
VERTEX
  8
1
  6
CONTINUOUS
 10
287.245359
 20
35.989964
 42
0.036000
  0
VERTEX
  8
1
  6
CONTINUOUS
 10
287.254894
 20
36.014873
 42
0.036322
  0
VERTEX
  8
1
  6
CONTINUOUS
 10
287.260615
 20
36.040476
 42
0.036808
  0
VERTEX
  8
1
  6
CONTINUOUS
 10
287.262561
 20
36.066636
  0
SEQEND
  8
0
  0
LINE
  8
1
  6
CONTINUOUS
 10
286.813000
 20
36.067000
 11
286.063000
 21
36.067000
  0
LINE
  8
1
  6
CONTINUOUS
 10
286.063000
 20
36.067000
 11
285.963000
 21
37.267000
  0
POLYLINE
  8
1
  6
CONTINUOUS
 66
     1
 70
     0
  0
VERTEX
  8
1
  6
CONTINUOUS
 10
287.523000
 20
37.267000
 42
0.050445
  0
VERTEX
  8
1
  6
CONTINUOUS
 10
287.516045
 20
37.334271
 42
0.047196
  0
VERTEX
  8
1
  6
CONTINUOUS
 10
287.496252
 20
37.398998
 42
0.045139
  0
VERTEX
  8
1
  6
CONTINUOUS
 10
287.462201
 20
37.463726
 42
0.038603
  0
VERTEX
  8
1
  6
CONTINUOUS
 10
287.417830
 20
37.522000
 42
0.036357
  0
VERTEX
  8
1
  6
CONTINUOUS
 10
287.359016
 20
37.578954
 42
0.030627
  0
VERTEX
  8
1
  6
CONTINUOUS
 10
287.293079
 20
37.627624
 42
0.029038
  0
VERTEX
  8
1
  6
CONTINUOUS
 10
287.214009
 20
37.672545
 42
0.025261
  0
VERTEX
  8
1
  6
CONTINUOUS
 10
287.130500
 20
37.708673
 42
0.024325
  0
VERTEX
  8
1
  6
CONTINUOUS
 10
287.037035
 20
37.738552
 42
0.022283
  0
VERTEX
  8
1
  6
CONTINUOUS
 10
286.941173
 20
37.759622
 42
0.021857
  0
VERTEX
  8
1
  6
CONTINUOUS
 10
286.839964
 20
37.772683
 42
0.021218
  0
VERTEX
  8
1
  6
CONTINUOUS
 10
286.738000
 20
37.777000
 42
0.021218
  0
VERTEX
  8
1
  6
CONTINUOUS
 10
286.636036
 20
37.772683
 42
0.021857
  0
VERTEX
  8
1
  6
CONTINUOUS
 10
286.534827
 20
37.759622
 42
0.022283
  0
VERTEX
  8
1
  6
CONTINUOUS
 10
286.438965
 20
37.738552
 42
0.024325
  0
VERTEX
  8
1
  6
CONTINUOUS
 10
286.345500
 20
37.708673
 42
0.025261
  0
VERTEX
  8
1
  6
CONTINUOUS
 10
286.261991
 20
37.672545
 42
0.029038
  0
VERTEX
  8
1
  6
CONTINUOUS
 10
286.182921
 20
37.627624
 42
0.030627
  0
VERTEX
  8
1
  6
CONTINUOUS
 10
286.116984
 20
37.578954
 42
0.036357
  0
VERTEX
  8
1
  6
CONTINUOUS
 10
286.058170
 20
37.522000
 42
0.038603
  0
VERTEX
  8
1
  6
CONTINUOUS
 10
286.013799
 20
37.463726
 42
0.045139
  0
VERTEX
  8
1
  6
CONTINUOUS
 10
285.979748
 20
37.398998
 42
0.047196
  0
VERTEX
  8
1
  6
CONTINUOUS
 10
285.959955
 20
37.334271
 42
0.050445
  0
VERTEX
  8
1
  6
CONTINUOUS
 10
285.953000
 20
37.267000
  0
SEQEND
  8
0
  0
POLYLINE
  8
1
  6
CONTINUOUS
 66
     1
 70
     0
  0
VERTEX
  8
1
  6
CONTINUOUS
 10
287.533000
 20
37.267000
 42
0.050103
  0
VERTEX
  8
1
  6
CONTINUOUS
 10
287.525961
 20
37.335574
 42
0.046946
  0
VERTEX
  8
1
  6
CONTINUOUS
 10
287.505911
 20
37.401586
 42
0.044944
  0
VERTEX
  8
1
  6
CONTINUOUS
 10
287.471446
 20
37.467552
 42
0.038553
  0
VERTEX
  8
1
  6
CONTINUOUS
 10
287.426490
 20
37.527000
 42
0.036348
  0
VERTEX
  8
1
  6
CONTINUOUS
 10
287.366954
 20
37.585046
 42
0.030702
  0
VERTEX
  8
1
  6
CONTINUOUS
 10
287.300150
 20
37.634696
 42
0.029129
  0
VERTEX
  8
1
  6
CONTINUOUS
 10
287.220096
 20
37.680484
 42
0.025385
  0
VERTEX
  8
1
  6
CONTINUOUS
 10
287.135500
 20
37.717333
 42
0.024455
  0
VERTEX
  8
1
  6
CONTINUOUS
 10
287.040859
 20
37.747793
 42
0.022424
  0
VERTEX
  8
1
  6
CONTINUOUS
 10
286.943761
 20
37.769281
 42
0.021999
  0
VERTEX
  8
1
  6
CONTINUOUS
 10
286.841268
 20
37.782597
 42
0.021362
  0
VERTEX
  8
1
  6
CONTINUOUS
 10
286.738000
 20
37.787000
 42
0.021362
  0
VERTEX
  8
1
  6
CONTINUOUS
 10
286.634732
 20
37.782597
 42
0.021999
  0
VERTEX
  8
1
  6
CONTINUOUS
 10
286.532239
 20
37.769281
 42
0.022424
  0
VERTEX
  8
1
  6
CONTINUOUS
 10
286.435141
 20
37.747793
 42
0.024455
  0
VERTEX
  8
1
  6
CONTINUOUS
 10
286.340500
 20
37.717333
 42
0.025385
  0
VERTEX
  8
1
  6
CONTINUOUS
 10
286.255904
 20
37.680484
 42
0.029129
  0
VERTEX
  8
1
  6
CONTINUOUS
 10
286.175850
 20
37.634696
 42
0.030702
  0
VERTEX
  8
1
  6
CONTINUOUS
 10
286.109046
 20
37.585046
 42
0.036348
  0
VERTEX
  8
1
  6
CONTINUOUS
 10
286.049510
 20
37.527000
 42
0.038553
  0
VERTEX
  8
1
  6
CONTINUOUS
 10
286.004554
 20
37.467552
 42
0.044944
  0
VERTEX
  8
1
  6
CONTINUOUS
 10
285.970089
 20
37.401586
 42
0.046946
  0
VERTEX
  8
1
  6
CONTINUOUS
 10
285.950039
 20
37.335574
 42
0.050103
  0
VERTEX
  8
1
  6
CONTINUOUS
 10
285.943000
 20
37.267000
  0
SEQEND
  8
0
  0
TEXT
  8
1
  6
CONTINUOUS
 40
0.075000
 10
285.320000
 20
36.530000
  1
1.20
 50
90.000000
  7
ROMANC
  0
LINE
  8
1
  6
CONTINUOUS
 10
285.282000
 20
36.492000
 11
285.282000
 21
36.067000
  0
LINE
  8
1
  6
CONTINUOUS
 10
285.282000
 20
36.841000
 11
285.282000
 21
37.267000
  0
LINE
  8
1
  6
CONTINUOUS
 10
285.301000
 20
36.030000
 11
285.263000
 21
36.104000
  0
LINE
  8
1
  6
CONTINUOUS
 10
285.263000
 20
37.304000
 11
285.301000
 21
37.230000
  0
LINE
  8
1
  6
CONTINUOUS
 10
286.025000
 20
36.067000
 11
285.244000
 21
36.067000
  0
LINE
  8
1
  6
CONTINUOUS
 10
285.925000
 20
37.267000
 11
285.244000
 21
37.267000
  0
POLYLINE
  8
1
  6
CONTINUOUS
 66
     1
 70
     0
  0
VERTEX
  8
1
  6
CONTINUOUS
 10
287.513000
 20
37.267000
 42
0.050800
  0
VERTEX
  8
1
  6
CONTINUOUS
 10
287.506129
 20
37.332967
 42
0.047454
  0
VERTEX
  8
1
  6
CONTINUOUS
 10
287.486593
 20
37.396410
 42
0.045339
  0
VERTEX
  8
1
  6
CONTINUOUS
 10
287.452956
 20
37.459899
 42
0.038652
  0
VERTEX
  8
1
  6
CONTINUOUS
 10
287.409170
 20
37.517000
 42
0.036364
  0
VERTEX
  8
1
  6
CONTINUOUS
 10
287.351077
 20
37.572861
 42
0.030549
  0
VERTEX
  8
1
  6
CONTINUOUS
 10
287.286008
 20
37.620553
 42
0.028943
  0
VERTEX
  8
1
  6
CONTINUOUS
 10
287.207921
 20
37.664605
 42
0.025133
  0
VERTEX
  8
1
  6
CONTINUOUS
 10
287.125500
 20
37.700013
 42
0.024191
  0
VERTEX
  8
1
  6
CONTINUOUS
 10
287.033210
 20
37.729310
 42
0.022139
  0
VERTEX
  8
1
  6
CONTINUOUS
 10
286.938585
 20
37.749963
 42
0.021711
  0
VERTEX
  8
1
  6
CONTINUOUS
 10
286.838660
 20
37.762768
 42
0.021070
  0
VERTEX
  8
1
  6
CONTINUOUS
 10
286.738000
 20
37.767000
 42
0.021070
  0
VERTEX
  8
1
  6
CONTINUOUS
 10
286.637340
 20
37.762768
 42
0.021711
  0
VERTEX
  8
1
  6
CONTINUOUS
 10
286.537415
 20
37.749963
 42
0.022139
  0
VERTEX
  8
1
  6
CONTINUOUS
 10
286.442790
 20
37.729310
 42
0.024191
  0
VERTEX
  8
1
  6
CONTINUOUS
 10
286.350500
 20
37.700013
 42
0.025133
  0
VERTEX
  8
1
  6
CONTINUOUS
 10
286.268079
 20
37.664605
 42
0.028943
  0
VERTEX
  8
1
  6
CONTINUOUS
 10
286.189992
 20
37.620553
 42
0.030549
  0
VERTEX
  8
1
  6
CONTINUOUS
 10
286.124923
 20
37.572861
 42
0.036364
  0
VERTEX
  8
1
  6
CONTINUOUS
 10
286.066830
 20
37.517000
 42
0.038652
  0
VERTEX
  8
1
  6
CONTINUOUS
 10
286.023044
 20
37.459899
 42
0.045339
  0
VERTEX
  8
1
  6
CONTINUOUS
 10
285.989407
 20
37.396410
 42
0.047454
  0
VERTEX
  8
1
  6
CONTINUOUS
 10
285.969871
 20
37.332967
 42
0.050800
  0
VERTEX
  8
1
  6
CONTINUOUS
 10
285.963000
 20
37.267000
  0
SEQEND
  8
0
  0
TEXT
  8
1
  6
CONTINUOUS
 40
0.075000
 10
288.632000
 20
36.780000
  1
1.70
 50
90.000000
  7
ROMANC
  0
LINE
  8
1
  6
CONTINUOUS
 10
288.595000
 20
36.742000
 11
288.595000
 21
36.067000
  0
LINE
  8
1
  6
CONTINUOUS
 10
288.595000
 20
37.091000
 11
288.595000
 21
37.767000
  0
LINE
  8
1
  6
CONTINUOUS
 10
288.614000
 20
36.030000
 11
288.576000
 21
36.104000
  0
LINE
  8
1
  6
CONTINUOUS
 10
288.576000
 20
37.804000
 11
288.614000
 21
37.730000
  0
LINE
  8
1
  6
CONTINUOUS
 10
288.199000
 20
36.067000
 11
288.633000
 21
36.067000
  0
LINE
  8
1
  6
CONTINUOUS
 10
286.776000
 20
37.767000
 11
288.633000
 21
37.767000
  0
TEXT
  8
1
  6
CONTINUOUS
 40
0.075000
 10
286.901000
 20
35.286000
  1
0.45
  7
ROMANC
  0
LINE
  8
1
  6
CONTINUOUS
 10
286.663000
 20
35.323000
 11
286.813000
 21
35.323000
  0
LINE
  8
1
  6
CONTINUOUS
 10
287.413000
 20
35.323000
 11
287.263000
 21
35.323000
  0
LINE
  8
1
  6
CONTINUOUS
 10
286.850000
 20
35.342000
 11
286.776000
 21
35.304000
  0
LINE
  8
1
  6
CONTINUOUS
 10
287.226000
 20
35.304000
 11
287.300000
 21
35.342000
  0
LINE
  8
1
  6
CONTINUOUS
 10
286.813000
 20
36.029000
 11
286.813000
 21
35.285000
  0
LINE
  8
1
  6
CONTINUOUS
 10
287.263000
 20
36.029000
 11
287.263000
 21
35.285000
  0
TEXT
  8
1
  6
CONTINUOUS
 40
0.075000
 10
286.601000
 20
38.204000
  1
1.55
  7
ROMANC
  0
LINE
  8
1
  6
CONTINUOUS
 10
286.563000
 20
38.242000
 11
285.963000
 21
38.242000
  0
LINE
  8
1
  6
CONTINUOUS
 10
286.912000
 20
38.242000
 11
287.513000
 21
38.242000
  0
LINE
  8
1
  6
CONTINUOUS
 10
285.926000
 20
38.223000
 11
286.000000
 21
38.261000
  0
LINE
  8
1
  6
CONTINUOUS
 10
287.550000
 20
38.261000
 11
287.476000
 21
38.223000
  0
LINE
  8
1
  6
CONTINUOUS
 10
285.963000
 20
37.305000
 11
285.963000
 21
38.280000
  0
LINE
  8
1
  6
CONTINUOUS
 10
287.513000
 20
37.305000
 11
287.513000
 21
38.280000
  0
ENDSEC
  0
EOF
