  0
SECTION
  2
HEADER
  9
$ACADVER
  1
AC1009
  9
$INSBASE
 10
219.026464
 20
233.233653
 30
0.0
  9
$EXTMIN
 10
219.026464
 20
233.233653
 30
0.0
  9
$EXTMAX
 10
229.526464
 20
248.083653
 30
0.0
  9
$LIMMIN
 10
0.0
 20
0.0
  9
$LIMMAX
 10
410.0
 20
287.0
  9
$ORTHOMODE
 70
     1
  9
$REGENMODE
 70
     1
  9
$FILLMODE
 70
     1
  9
$QTEXTMODE
 70
     0
  9
$MIRRTEXT
 70
     1
  9
$DRAGMODE
 70
     2
  9
$LTSCALE
 40
25.0
  9
$OSMODE
 70
    32
  9
$ATTMODE
 70
     1
  9
$TEXTSIZE
 40
0.1
  9
$TRACEWID
 40
0.3
  9
$TEXTSTYLE
  7
STANDARD
  9
$CLAYER
  8
0
  9
$CELTYPE
  6
BYLAYER
  9
$CECOLOR
 62
   256
  9
$DIMSCALE
 40
1.0
  9
$DIMASZ
 40
3.5
  9
$DIMEXO
 40
0.1
  9
$DIMDLI
 40
7.0
  9
$DIMRND
 40
0.0
  9
$DIMDLE
 40
0.0
  9
$DIMEXE
 40
1.8
  9
$DIMTP
 40
0.0
  9
$DIMTM
 40
0.0
  9
$DIMTXT
 40
3.5
  9
$DIMCEN
 40
1.5
  9
$DIMTSZ
 40
0.0
  9
$DIMTOL
 70
     0
  9
$DIMLIM
 70
     0
  9
$DIMTIH
 70
     0
  9
$DIMTOH
 70
     0
  9
$DIMSE1
 70
     0
  9
$DIMSE2
 70
     0
  9
$DIMTAD
 70
     0
  9
$DIMZIN
 70
     0
  9
$DIMBLK
  1

  9
$DIMASO
 70
     1
  9
$DIMSHO
 70
     0
  9
$DIMPOST
  1

  9
$DIMAPOST
  1

  9
$DIMALT
 70
     0
  9
$DIMALTD
 70
     2
  9
$DIMALTF
 40
25.4
  9
$DIMLFAC
 40
1.0
  9
$DIMTOFL
 70
     0
  9
$DIMTVP
 40
0.0
  9
$DIMTIX
 70
     0
  9
$DIMSOXD
 70
     0
  9
$DIMSAH
 70
     0
  9
$DIMBLK1
  1

  9
$DIMBLK2
  1

  9
$DIMSTYLE
  2
*UNNAMED
  9
$DIMCLRD
 70
     0
  9
$DIMCLRE
 70
     0
  9
$DIMCLRT
 70
     0
  9
$DIMTFAC
 40
1.0
  9
$DIMGAP
 40
0.09
  9
$LUNITS
 70
     2
  9
$LUPREC
 70
     2
  9
$SKETCHINC
 40
1.0
  9
$FILLETRAD
 40
0.0
  9
$AUNITS
 70
     0
  9
$AUPREC
 70
     0
  9
$MENU
  1
acad
  9
$ELEVATION
 40
0.0
  9
$PELEVATION
 40
0.0
  9
$THICKNESS
 40
0.0
  9
$LIMCHECK
 70
     0
  9
$BLIPMODE
 70
     0
  9
$CHAMFERA
 40
0.0
  9
$CHAMFERB
 40
0.0
  9
$SKPOLY
 70
     0
  9
$TDCREATE
 40
2449961.496775578
  9
$TDUPDATE
 40
2450723.722322917
  9
$TDINDWG
 40
0.0012637731
  9
$TDUSRTIMER
 40
0.0012637731
  9
$USRTIMER
 70
     1
  9
$ANGBASE
 50
0.0
  9
$ANGDIR
 70
     0
  9
$PDMODE
 70
     0
  9
$PDSIZE
 40
0.0
  9
$PLINEWID
 40
0.0
  9
$COORDS
 70
     2
  9
$SPLFRAME
 70
     0
  9
$SPLINETYPE
 70
     6
  9
$SPLINESEGS
 70
     8
  9
$ATTDIA
 70
     0
  9
$ATTREQ
 70
     1
  9
$HANDLING
 70
     0
  9
$HANDSEED
  5
0
  9
$SURFTAB1
 70
     6
  9
$SURFTAB2
 70
     6
  9
$SURFTYPE
 70
     6
  9
$SURFU
 70
     6
  9
$SURFV
 70
     6
  9
$UCSNAME
  2

  9
$UCSORG
 10
0.0
 20
0.0
 30
0.0
  9
$UCSXDIR
 10
1.0
 20
0.0
 30
0.0
  9
$UCSYDIR
 10
0.0
 20
1.0
 30
0.0
  9
$PUCSNAME
  2

  9
$PUCSORG
 10
0.0
 20
0.0
 30
0.0
  9
$PUCSXDIR
 10
1.0
 20
0.0
 30
0.0
  9
$PUCSYDIR
 10
0.0
 20
1.0
 30
0.0
  9
$USERI1
 70
     0
  9
$USERI2
 70
     0
  9
$USERI3
 70
     0
  9
$USERI4
 70
     0
  9
$USERI5
 70
     0
  9
$USERR1
 40
0.0
  9
$USERR2
 40
0.0
  9
$USERR3
 40
0.0
  9
$USERR4
 40
0.0
  9
$USERR5
 40
0.0
  9
$WORLDVIEW
 70
     1
  9
$SHADEDGE
 70
     3
  9
$SHADEDIF
 70
    70
  9
$TILEMODE
 70
     1
  9
$MAXACTVP
 70
    16
  9
$PINSBASE
 10
0.0
 20
0.0
 30
0.0
  9
$PLIMCHECK
 70
     0
  9
$PEXTMIN
 10
1.000000E+20
 20
1.000000E+20
 30
1.000000E+20
  9
$PEXTMAX
 10
-1.000000E+20
 20
-1.000000E+20
 30
-1.000000E+20
  9
$PLIMMIN
 10
0.0
 20
0.0
  9
$PLIMMAX
 10
12.0
 20
9.0
  9
$UNITMODE
 70
     0
  9
$VISRETAIN
 70
     0
  9
$PLINEGEN
 70
     0
  9
$PSLTSCALE
 70
     0
  9
$TREEDEPTH
 70
  3020
  9
$DWGCODEPAGE
  3
iso8859-1
  0
ENDSEC
  0
SECTION
  2
TABLES
  0
TABLE
  2
VPORT
 70
     1
  0
VPORT
  2
*ACTIVE
 70
     0
 10
0.0
 20
0.0
 11
1.0
 21
1.0
 12
230.988314
 22
240.658653
 13
0.0
 23
0.0
 14
1.0
 24
1.0
 15
10.0
 25
10.0
 16
0.0
 26
0.0
 36
1.0
 17
0.0
 27
0.0
 37
0.0
 40
14.85
 41
1.611024
 42
50.0
 43
0.0
 44
0.0
 50
0.0
 51
0.0
 71
     0
 72
   100
 73
     1
 74
     0
 75
     0
 76
     0
 77
     0
 78
     0
  0
ENDTAB
  0
TABLE
  2
LTYPE
 70
     1
  0
LTYPE
  2
CONTINUOUS
 70
    64
  3
Solid Line
 72
    65
 73
     0
 40
0.0
  0
ENDTAB
  0
TABLE
  2
LAYER
 70
     5
  0
LAYER
  2
0
 70
    64
 62
     7
  6
CONTINUOUS
  0
LAYER
  2
SECCIO
 70
    64
 62
     7
  6
CONTINUOUS
  0
LAYER
  2
MESURA
 70
    64
 62
     7
  6
CONTINUOUS
  0
LAYER
  2
TEXTEP
 70
    64
 62
     7
  6
CONTINUOUS
  0
LAYER
  2
TEXTEG
 70
    64
 62
     7
  6
CONTINUOUS
  0
ENDTAB
  0
TABLE
  2
STYLE
 70
     2
  0
STYLE
  2
STANDARD
 70
    64
 40
0.0
 41
1.0
 50
0.0
 71
     0
 42
0.1
  3
txt
  4

  0
STYLE
  2
ROMANC
 70
    64
 40
0.0
 41
1.0
 50
0.0
 71
     0
 42
0.1
  3
romanc
  4

  0
ENDTAB
  0
TABLE
  2
VIEW
 70
     0
  0
ENDTAB
  0
TABLE
  2
UCS
 70
     0
  0
ENDTAB
  0
TABLE
  2
APPID
 70
     1
  0
APPID
  2
ACAD
 70
    64
  0
ENDTAB
  0
TABLE
  2
DIMSTYLE
 70
     0
  0
ENDTAB
  0
ENDSEC
  0
SECTION
  2
BLOCKS
  0
ENDSEC
  0
SECTION
  2
ENTITIES
  0
LINE
  8
0
 10
219.026464
 20
233.233653
 30
0.0
 11
229.526464
 21
233.233653
 31
0.0
  0
LINE
  8
0
 10
219.026464
 20
248.083653
 30
0.0
 11
229.526464
 21
248.083653
 31
0.0
  0
LINE
  8
0
 10
219.026464
 20
248.083653
 30
0.0
 11
219.026464
 21
233.233653
 31
0.0
  0
LINE
  8
0
 10
229.526464
 20
248.083653
 30
0.0
 11
229.526464
 21
233.233653
 31
0.0
  0
LINE
  8
MESURA
 10
226.956345
 20
242.394819
 30
0.0
 11
228.056345
 21
242.394819
 31
0.0
  0
LINE
  8
MESURA
 10
226.936345
 20
242.694819
 30
0.0
 11
227.522454
 21
242.694819
 31
0.0
  0
TEXT
  8
TEXTEP
 10
227.09993
 20
242.751782
 30
0.0
 40
0.1
  1
0.5
 50
0.5
  0
LINE
  8
MESURA
 10
221.140423
 20
237.994819
 30
0.0
 11
227.440423
 21
237.994819
 31
0.0
  0
LINE
  8
MESURA
 10
221.140423
 20
238.994819
 30
0.0
 11
221.140423
 21
237.927763
 31
0.0
  0
LINE
  8
MESURA
 10
220.715419
 20
239.031286
 30
0.0
 11
220.715419
 21
238.465519
 31
0.0
  0
LINE
  8
MESURA
 10
222.040423
 20
238.494819
 30
0.0
 11
221.140423
 21
238.494819
 31
0.0
  0
LINE
  8
MESURA
 10
222.040423
 20
237.994819
 30
0.0
 11
222.008955
 21
237.958509
 31
0.0
  0
LINE
  8
MESURA
 10
221.140423
 20
237.994819
 30
0.0
 11
221.108955
 21
237.958509
 31
0.0
  0
LINE
  8
0
 10
221.182007
 20
238.039066
 30
0.0
 11
221.140423
 21
237.994819
 31
0.0
  0
TEXT
  8
MESURA
 10
221.47278
 20
237.808456
 30
0.0
 40
0.1
  1
0.9
  0
LINE
  8
MESURA
 10
222.040423
 20
238.494819
 30
0.0
 11
222.040423
 21
237.927763
 31
0.0
  0
LINE
  8
0
 10
222.082007
 20
238.039066
 30
0.0
 11
222.040423
 21
237.994819
 31
0.0
  0
LINE
  8
0
 10
220.757003
 20
238.539066
 30
0.0
 11
220.715419
 21
238.494819
 31
0.0
  0
LINE
  8
MESURA
 10
220.715419
 20
238.494819
 30
0.0
 11
220.683952
 21
238.458509
 31
0.0
  0
LINE
  8
MESURA
 10
221.140423
 20
238.494819
 30
0.0
 11
220.665483
 21
238.494819
 31
0.0
  0
TEXT
  8
TEXTEP
 10
224.057414
 20
237.825154
 30
0.0
 40
0.1
  1
5.4
  0
LINE
  8
MESURA
 10
220.715419
 20
238.994819
 30
0.0
 11
220.683952
 21
238.958509
 31
0.0
  0
LINE
  8
0
 10
220.757003
 20
239.039066
 30
0.0
 11
220.715419
 21
238.994819
 31
0.0
  0
TEXT
  8
MESURA
 10
220.449095
 20
238.656817
 30
0.0
 40
0.1
  1
0.5
  0
LINE
  8
MESURA
 10
221.140423
 20
238.994819
 30
0.0
 11
220.665483
 21
238.994819
 31
0.0
  0
LINE
  8
MESURA
 10
226.955494
 20
242.385777
 30
0.0
 11
226.956483
 21
242.744819
 31
0.0
  0
LINE
  8
MESURA
 10
226.91348
 20
242.664101
 30
0.0
 11
226.99687
 21
242.724711
 31
0.0
  0
LINE
  8
MESURA
 10
227.940423
 20
242.442925
 30
0.0
 11
227.940423
 21
238.494819
 31
0.0
  0
LINE
  8
MESURA
 10
227.440423
 20
238.494819
 30
0.0
 11
228.040423
 21
238.494819
 31
0.0
  0
LINE
  8
MESURA
 10
227.440423
 20
238.494819
 30
0.0
 11
227.440423
 21
237.927763
 31
0.0
  0
LINE
  8
0
 10
227.478462
 20
238.038546
 30
0.0
 11
227.440423
 21
237.994819
 31
0.0
  0
LINE
  8
MESURA
 10
227.440423
 20
237.994819
 30
0.0
 11
227.397635
 21
237.955526
 31
0.0
  0
LINE
  8
MESURA
 10
227.904211
 20
238.467267
 30
0.0
 11
227.987601
 21
238.527876
 31
0.0
  0
LINE
  8
MESURA
 10
227.440423
 20
242.094819
 30
0.0
 11
228.040423
 21
242.094819
 31
0.0
  0
LINE
  8
MESURA
 10
227.402759
 20
242.664101
 30
0.0
 11
227.486149
 21
242.724711
 31
0.0
  0
LINE
  8
MESURA
 10
227.44345
 20
242.102262
 30
0.0
 11
227.44345
 21
242.744819
 31
0.0
  0
LINE
  8
MESURA
 10
227.899025
 20
242.364412
 30
0.0
 11
227.982415
 21
242.425022
 31
0.0
  0
TEXT
  8
TEXTEP
 10
227.98915
 20
242.189978
 30
0.0
 40
0.1
  1
0.3
  0
LINE
  8
MESURA
 10
227.900705
 20
242.063894
 30
0.0
 11
227.984095
 21
242.124504
 31
0.0
  0
TEXT
  8
TEXTEP
 10
228.0039
 20
240.341703
 30
0.0
 40
0.1
  1
3.60
  0
TEXT
  8
0
 10
220.660254
 20
244.309446
 30
0.0
 40
0.3
  1
P = 199.7 dm
  7
ROMANC
  0
TEXT
  8
0
 10
220.663082
 20
244.982944
 30
0.0
 40
0.3
  1
S = 2397 dm
  7
ROMANC
  0
TEXT
  8
TEXTEG
 10
220.634275
 20
245.719563
 30
0.0
 40
0.3
  1
ESCALA    1:50
  0
TEXT
  8
TEXTEG
 10
220.566874
 20
246.484129
 30
0.0
 40
0.3
  1
TIPUS     NT2397
  0
TEXT
  8
0
 10
224.170913
 20
245.28886
 30
0.0
 40
0.1
  1
2
  7
ROMANC
  0
LINE
  8
MESURA
 10
227.465481
 20
242.394819
 30
0.0
 11
228.565481
 21
242.394819
 31
0.0
  0
LINE
  8
MESURA
 10
228.449559
 20
242.442925
 30
0.0
 11
228.449559
 21
238.494819
 31
0.0
  0
LINE
  8
MESURA
 10
228.413347
 20
238.467267
 30
0.0
 11
228.496737
 21
238.527876
 31
0.0
  0
TEXT
  8
TEXTEP
 10
228.513036
 20
240.341703
 30
0.0
 40
0.1
  1
3.90
  0
LINE
  8
MESURA
 10
228.408161
 20
242.364412
 30
0.0
 11
228.491551
 21
242.425022
 31
0.0
  0
LINE
  8
MESURA
 10
227.949559
 20
238.494819
 30
0.0
 11
228.549559
 21
238.494819
 31
0.0
  0
LINE
  8
MESURA
 10
221.140423
 20
237.61631
 30
0.0
 11
227.440423
 21
237.61631
 31
0.0
  0
LINE
  8
MESURA
 10
221.140423
 20
238.61631
 30
0.0
 11
221.140423
 21
237.549254
 31
0.0
  0
LINE
  8
0
 10
221.182007
 20
237.660556
 30
0.0
 11
221.140423
 21
237.61631
 31
0.0
  0
LINE
  8
MESURA
 10
221.140423
 20
237.61631
 30
0.0
 11
221.108955
 21
237.579999
 31
0.0
  0
LINE
  8
MESURA
 10
222.040423
 20
237.61631
 30
0.0
 11
222.008955
 21
237.579999
 31
0.0
  0
TEXT
  8
TEXTEP
 10
224.057414
 20
237.446644
 30
0.0
 40
0.1
  1
6.3
  0
LINE
  8
MESURA
 10
227.440423
 20
237.61631
 30
0.0
 11
227.397635
 21
237.577017
 31
0.0
  0
LINE
  8
0
 10
227.478462
 20
237.660036
 30
0.0
 11
227.440423
 21
237.61631
 31
0.0
  0
LINE
  8
MESURA
 10
227.440423
 20
238.11631
 30
0.0
 11
227.440423
 21
237.549254
 31
0.0
  0
LINE
  8
SECCIO
 10
221.150423
 20
239.004819
 30
0.0
 11
221.150423
 21
242.089158
 31
0.0
  0
LINE
  8
SECCIO
 10
221.150423
 20
242.089158
 30
0.0
 11
221.643192
 21
242.384819
 31
0.0
  0
LINE
  8
SECCIO
 10
221.643192
 20
242.384819
 30
0.0
 11
226.937653
 21
242.384819
 31
0.0
  0
LINE
  8
SECCIO
 10
226.937653
 20
242.384819
 30
0.0
 11
227.430423
 21
242.089158
 31
0.0
  0
LINE
  8
SECCIO
 10
227.430423
 20
242.089158
 30
0.0
 11
227.430423
 21
238.504819
 31
0.0
  0
LINE
  8
SECCIO
 10
227.430423
 20
238.504819
 30
0.0
 11
222.050423
 21
238.504819
 31
0.0
  0
LINE
  8
SECCIO
 10
222.050423
 20
238.504819
 30
0.0
 11
222.050423
 21
239.004819
 31
0.0
  0
LINE
  8
SECCIO
 10
222.050423
 20
239.004819
 30
0.0
 11
221.150423
 21
239.004819
 31
0.0
  0
LINE
  8
SECCIO
 10
221.130423
 20
238.984819
 30
0.0
 11
221.130423
 21
242.100481
 31
0.0
  0
LINE
  8
SECCIO
 10
221.130423
 20
242.100481
 30
0.0
 11
221.637653
 21
242.404819
 31
0.0
  0
LINE
  8
SECCIO
 10
221.637653
 20
242.404819
 30
0.0
 11
226.943192
 21
242.404819
 31
0.0
  0
LINE
  8
SECCIO
 10
226.943192
 20
242.404819
 30
0.0
 11
227.450423
 21
242.100481
 31
0.0
  0
LINE
  8
SECCIO
 10
227.450423
 20
242.100481
 30
0.0
 11
227.450423
 21
238.484819
 31
0.0
  0
LINE
  8
SECCIO
 10
227.450423
 20
238.484819
 30
0.0
 11
222.030423
 21
238.484819
 31
0.0
  0
LINE
  8
SECCIO
 10
222.030423
 20
238.484819
 30
0.0
 11
222.030423
 21
238.984819
 31
0.0
  0
LINE
  8
SECCIO
 10
222.030423
 20
238.984819
 30
0.0
 11
221.130423
 21
238.984819
 31
0.0
  0
LINE
  8
SECCIO
 10
221.140423
 20
238.994819
 30
0.0
 11
221.140423
 21
242.094819
 31
0.0
  0
LINE
  8
SECCIO
 10
221.140423
 20
242.094819
 30
0.0
 11
221.640423
 21
242.394819
 31
0.0
  0
LINE
  8
SECCIO
 10
221.640423
 20
242.394819
 30
0.0
 11
226.940423
 21
242.394819
 31
0.0
  0
LINE
  8
SECCIO
 10
226.940423
 20
242.394819
 30
0.0
 11
227.440423
 21
242.094819
 31
0.0
  0
LINE
  8
SECCIO
 10
227.440423
 20
242.094819
 30
0.0
 11
227.440423
 21
238.494819
 31
0.0
  0
LINE
  8
SECCIO
 10
227.440423
 20
238.494819
 30
0.0
 11
222.040423
 21
238.494819
 31
0.0
  0
LINE
  8
SECCIO
 10
222.040423
 20
238.494819
 30
0.0
 11
222.040423
 21
238.994819
 31
0.0
  0
LINE
  8
SECCIO
 10
222.040423
 20
238.994819
 30
0.0
 11
221.140423
 21
238.994819
 31
0.0
  0
ENDSEC
  0
EOF
