  0
SECTION
  2
HEADER
  9
$ACADVER
  1
AC1009
  9
$INSBASE
 10
105.464027
 20
-4.528761
 30
0.0
  9
$EXTMIN
 10
281.395795
 20
29.897444
 30
0.0
  9
$EXTMAX
 10
291.895795
 20
44.747444
 30
0.0
  9
$LIMMIN
 10
0.0
 20
0.0
  9
$LIMMAX
 10
410.0
 20
287.0
  9
$ORTHOMODE
 70
     1
  9
$REGENMODE
 70
     1
  9
$FILLMODE
 70
     1
  9
$QTEXTMODE
 70
     0
  9
$MIRRTEXT
 70
     1
  9
$DRAGMODE
 70
     2
  9
$LTSCALE
 40
25.0
  9
$OSMODE
 70
     0
  9
$ATTMODE
 70
     1
  9
$TEXTSIZE
 40
0.1
  9
$TRACEWID
 40
1.0
  9
$TEXTSTYLE
  7
ROMANC
  9
$CLAYER
  8
0
  9
$CELTYPE
  6
BYLAYER
  9
$CECOLOR
 62
   256
  9
$DIMSCALE
 40
1.5
  9
$DIMASZ
 40
0.1
  9
$DIMEXO
 40
0.01
  9
$DIMDLI
 40
7.0
  9
$DIMRND
 40
0.0
  9
$DIMDLE
 40
0.0
  9
$DIMEXE
 40
0.01
  9
$DIMTP
 40
0.0
  9
$DIMTM
 40
0.0
  9
$DIMTXT
 40
0.05
  9
$DIMCEN
 40
0.1
  9
$DIMTSZ
 40
0.0
  9
$DIMTOL
 70
     0
  9
$DIMLIM
 70
     0
  9
$DIMTIH
 70
     0
  9
$DIMTOH
 70
     0
  9
$DIMSE1
 70
     0
  9
$DIMSE2
 70
     0
  9
$DIMTAD
 70
     1
  9
$DIMZIN
 70
     0
  9
$DIMBLK
  1

  9
$DIMASO
 70
     1
  9
$DIMSHO
 70
     0
  9
$DIMPOST
  1

  9
$DIMAPOST
  1

  9
$DIMALT
 70
     0
  9
$DIMALTD
 70
     2
  9
$DIMALTF
 40
25.4
  9
$DIMLFAC
 40
1.0
  9
$DIMTOFL
 70
     1
  9
$DIMTVP
 40
0.0
  9
$DIMTIX
 70
     1
  9
$DIMSOXD
 70
     0
  9
$DIMSAH
 70
     0
  9
$DIMBLK1
  1

  9
$DIMBLK2
  1

  9
$DIMSTYLE
  2
*UNNAMED
  9
$DIMCLRD
 70
     0
  9
$DIMCLRE
 70
     0
  9
$DIMCLRT
 70
     0
  9
$DIMTFAC
 40
70.0
  9
$DIMGAP
 40
0.09
  9
$LUNITS
 70
     2
  9
$LUPREC
 70
     2
  9
$SKETCHINC
 40
1.0
  9
$FILLETRAD
 40
0.0
  9
$AUNITS
 70
     0
  9
$AUPREC
 70
     0
  9
$MENU
  1
acad
  9
$ELEVATION
 40
0.0
  9
$PELEVATION
 40
0.0
  9
$THICKNESS
 40
0.0
  9
$LIMCHECK
 70
     0
  9
$BLIPMODE
 70
     0
  9
$CHAMFERA
 40
0.0
  9
$CHAMFERB
 40
0.0
  9
$SKPOLY
 70
     0
  9
$TDCREATE
 40
2450305.554557986
  9
$TDUPDATE
 40
2450855.509070949
  9
$TDINDWG
 40
0.1417258102
  9
$TDUSRTIMER
 40
0.1417258102
  9
$USRTIMER
 70
     1
  9
$ANGBASE
 50
0.0
  9
$ANGDIR
 70
     0
  9
$PDMODE
 70
     0
  9
$PDSIZE
 40
0.0
  9
$PLINEWID
 40
0.0
  9
$COORDS
 70
     2
  9
$SPLFRAME
 70
     0
  9
$SPLINETYPE
 70
     6
  9
$SPLINESEGS
 70
     8
  9
$ATTDIA
 70
     0
  9
$ATTREQ
 70
     1
  9
$HANDLING
 70
     0
  9
$HANDSEED
  5
0
  9
$SURFTAB1
 70
     6
  9
$SURFTAB2
 70
     6
  9
$SURFTYPE
 70
     6
  9
$SURFU
 70
     6
  9
$SURFV
 70
     6
  9
$UCSNAME
  2

  9
$UCSORG
 10
0.0
 20
0.0
 30
0.0
  9
$UCSXDIR
 10
1.0
 20
0.0
 30
0.0
  9
$UCSYDIR
 10
0.0
 20
1.0
 30
0.0
  9
$PUCSNAME
  2

  9
$PUCSORG
 10
0.0
 20
0.0
 30
0.0
  9
$PUCSXDIR
 10
1.0
 20
0.0
 30
0.0
  9
$PUCSYDIR
 10
0.0
 20
1.0
 30
0.0
  9
$USERI1
 70
     0
  9
$USERI2
 70
     0
  9
$USERI3
 70
     0
  9
$USERI4
 70
     0
  9
$USERI5
 70
     0
  9
$USERR1
 40
0.0
  9
$USERR2
 40
0.0
  9
$USERR3
 40
0.0
  9
$USERR4
 40
0.0
  9
$USERR5
 40
0.0
  9
$WORLDVIEW
 70
     1
  9
$SHADEDGE
 70
     3
  9
$SHADEDIF
 70
    70
  9
$TILEMODE
 70
     1
  9
$MAXACTVP
 70
    16
  9
$PINSBASE
 10
0.0
 20
0.0
 30
0.0
  9
$PLIMCHECK
 70
     0
  9
$PEXTMIN
 10
1.000000E+20
 20
1.000000E+20
 30
1.000000E+20
  9
$PEXTMAX
 10
-1.000000E+20
 20
-1.000000E+20
 30
-1.000000E+20
  9
$PLIMMIN
 10
0.0
 20
0.0
  9
$PLIMMAX
 10
12.0
 20
9.0
  9
$UNITMODE
 70
     0
  9
$VISRETAIN
 70
     0
  9
$PLINEGEN
 70
     0
  9
$PSLTSCALE
 70
     0
  9
$TREEDEPTH
 70
  3020
  9
$DWGCODEPAGE
  3
iso8859-1
  0
ENDSEC
  0
SECTION
  2
TABLES
  0
TABLE
  2
VPORT
 70
     2
  0
VPORT
  2
*ACTIVE
 70
     0
 10
0.0
 20
0.0
 11
1.0
 21
1.0
 12
292.922009
 22
37.322444
 13
0.0
 23
0.0
 14
1.0
 24
1.0
 15
10.0
 25
10.0
 16
0.0
 26
0.0
 36
1.0
 17
0.0
 27
0.0
 37
0.0
 40
14.85
 41
1.552352
 42
50.0
 43
0.0
 44
0.0
 50
0.0
 51
0.0
 71
     0
 72
   100
 73
     1
 74
     0
 75
     0
 76
     0
 77
     0
 78
     1
  0
ENDTAB
  0
TABLE
  2
LTYPE
 70
     1
  0
LTYPE
  2
CONTINUOUS
 70
    64
  3
Solid line
 72
    65
 73
     0
 40
0.0
  0
ENDTAB
  0
TABLE
  2
LAYER
 70
     3
  0
LAYER
  2
0
 70
    64
 62
     7
  6
CONTINUOUS
  0
LAYER
  2
MESURA
 70
     0
 62
     7
  6
CONTINUOUS
  0
LAYER
  2
DEFPOINTS
 70
    64
 62
     7
  6
CONTINUOUS
  0
ENDTAB
  0
TABLE
  2
STYLE
 70
     2
  0
STYLE
  2
STANDARD
 70
     0
 40
0.0
 41
1.0
 50
0.0
 71
     0
 42
0.1
  3
txt
  4

  0
STYLE
  2
ROMANC
 70
    64
 40
0.0
 41
1.0
 50
0.0
 71
     0
 42
0.1
  3
romanc
  4

  0
ENDTAB
  0
TABLE
  2
VIEW
 70
     0
  0
ENDTAB
  0
TABLE
  2
UCS
 70
     0
  0
ENDTAB
  0
TABLE
  2
APPID
 70
     1
  0
APPID
  2
ACAD
 70
    64
  0
ENDTAB
  0
TABLE
  2
DIMSTYLE
 70
     1
  0
DIMSTYLE
  2
SILVIA
 70
     0
  3

  4

  5

  6

  7

 40
1.5
 41
0.1
 42
0.01
 43
7.0
 44
0.01
 45
0.0
 46
0.0
 47
0.0
 48
0.0
140
0.05
141
0.1
142
0.0
143
25.4
144
1.0
145
0.0
146
70.0
147
0.09
 71
     0
 72
     0
 73
     0
 74
     0
 75
     0
 76
     0
 77
     1
 78
     0
170
     0
171
     2
172
     1
173
     0
174
     1
175
     0
176
     0
177
     0
178
     0
  0
ENDTAB
  0
ENDSEC
  0
SECTION
  2
BLOCKS
  0
BLOCK
  8
0
  2
*D10
 70
    65
 10
0.0
 20
0.0
 30
0.0
  3
*D
  0
LINE
  8
0
  6
BYBLOCK
 62
     0
 10
287.167883
 20
35.441858
 30
0.0
 11
287.167883
 21
34.679324
 31
0.0
  0
LINE
  8
0
  6
BYBLOCK
 62
     0
 10
287.367883
 20
35.441858
 30
0.0
 11
287.367883
 21
34.679324
 31
0.0
  0
LINE
  8
0
  6
BYBLOCK
 62
     0
 10
287.017883
 20
34.694324
 30
0.0
 11
286.867883
 21
34.694324
 31
0.0
  0
LINE
  8
0
  6
BYBLOCK
 62
     0
 10
287.517883
 20
34.694324
 30
0.0
 11
287.667883
 21
34.694324
 31
0.0
  0
SOLID
  8
0
  6
BYBLOCK
 62
     0
 10
287.017883
 20
34.719324
 30
0.0
 11
287.017883
 21
34.669324
 31
0.0
 12
287.167883
 22
34.694324
 32
0.0
 13
287.167883
 23
34.694324
 33
0.0
  0
SOLID
  8
0
  6
BYBLOCK
 62
     0
 10
287.517883
 20
34.719324
 30
0.0
 11
287.517883
 21
34.669324
 31
0.0
 12
287.367883
 22
34.694324
 32
0.0
 13
287.367883
 23
34.694324
 33
0.0
  0
LINE
  8
0
  6
BYBLOCK
 62
     0
 10
287.167883
 20
34.694324
 30
0.0
 11
287.367883
 21
34.694324
 31
0.0
  0
TEXT
  8
0
  6
BYBLOCK
 62
     0
 10
287.396194
 20
34.731824
 30
0.0
 40
0.075
  1
0.20
  7
ROMANC
 72
     1
 11
287.521194
 21
34.769324
 31
0.0
 73
     2
  0
POINT
  8
DEFPOINTS
  6
BYBLOCK
 62
     0
 10
287.167883
 20
35.456858
 30
0.0
  0
POINT
  8
DEFPOINTS
  6
BYBLOCK
 62
     0
 10
287.367883
 20
35.456858
 30
0.0
  0
POINT
  8
DEFPOINTS
  6
BYBLOCK
 62
     0
 10
287.367883
 20
34.694324
 30
0.0
  0
ENDBLK
  8
0
  0
BLOCK
  8
0
  2
*D11
 70
    65
 10
0.0
 20
0.0
 30
0.0
  3
*D
  0
LINE
  8
0
  6
BYBLOCK
 62
     0
 10
285.867883
 20
35.441858
 30
0.0
 11
285.867883
 21
34.679324
 31
0.0
  0
LINE
  8
0
  6
BYBLOCK
 62
     0
 10
286.467883
 20
35.426858
 30
0.0
 11
286.467883
 21
34.679324
 31
0.0
  0
LINE
  8
0
  6
BYBLOCK
 62
     0
 10
285.717883
 20
34.694324
 30
0.0
 11
285.567883
 21
34.694324
 31
0.0
  0
LINE
  8
0
  6
BYBLOCK
 62
     0
 10
286.617883
 20
34.694324
 30
0.0
 11
286.767883
 21
34.694324
 31
0.0
  0
SOLID
  8
0
  6
BYBLOCK
 62
     0
 10
285.717883
 20
34.719324
 30
0.0
 11
285.717883
 21
34.669324
 31
0.0
 12
285.867883
 22
34.694324
 32
0.0
 13
285.867883
 23
34.694324
 33
0.0
  0
SOLID
  8
0
  6
BYBLOCK
 62
     0
 10
286.617883
 20
34.719324
 30
0.0
 11
286.617883
 21
34.669324
 31
0.0
 12
286.467883
 22
34.694324
 32
0.0
 13
286.467883
 23
34.694324
 33
0.0
  0
LINE
  8
0
  6
BYBLOCK
 62
     0
 10
285.867883
 20
34.694324
 30
0.0
 11
286.467883
 21
34.694324
 31
0.0
  0
TEXT
  8
0
  6
BYBLOCK
 62
     0
 10
286.042883
 20
34.731824
 30
0.0
 40
0.075
  1
0.60
  7
ROMANC
 72
     1
 11
286.167883
 21
34.769324
 31
0.0
 73
     2
  0
POINT
  8
DEFPOINTS
  6
BYBLOCK
 62
     0
 10
285.867883
 20
35.456858
 30
0.0
  0
POINT
  8
DEFPOINTS
  6
BYBLOCK
 62
     0
 10
286.467883
 20
35.441858
 30
0.0
  0
POINT
  8
DEFPOINTS
  6
BYBLOCK
 62
     0
 10
286.467883
 20
34.694324
 30
0.0
  0
ENDBLK
  8
0
  0
BLOCK
  8
0
  2
*D12
 70
    65
 10
0.0
 20
0.0
 30
0.0
  3
*D
  0
LINE
  8
0
  6
BYBLOCK
 62
     0
 10
286.467883
 20
35.441858
 30
0.0
 11
286.467883
 21
34.679324
 31
0.0
  0
LINE
  8
0
  6
BYBLOCK
 62
     0
 10
287.167883
 20
35.441858
 30
0.0
 11
287.167883
 21
34.679324
 31
0.0
  0
LINE
  8
0
  6
BYBLOCK
 62
     0
 10
286.317883
 20
34.694324
 30
0.0
 11
286.167883
 21
34.694324
 31
0.0
  0
LINE
  8
0
  6
BYBLOCK
 62
     0
 10
287.317883
 20
34.694324
 30
0.0
 11
287.467883
 21
34.694324
 31
0.0
  0
SOLID
  8
0
  6
BYBLOCK
 62
     0
 10
286.317883
 20
34.719324
 30
0.0
 11
286.317883
 21
34.669324
 31
0.0
 12
286.467883
 22
34.694324
 32
0.0
 13
286.467883
 23
34.694324
 33
0.0
  0
SOLID
  8
0
  6
BYBLOCK
 62
     0
 10
287.317883
 20
34.719324
 30
0.0
 11
287.317883
 21
34.669324
 31
0.0
 12
287.167883
 22
34.694324
 32
0.0
 13
287.167883
 23
34.694324
 33
0.0
  0
LINE
  8
0
  6
BYBLOCK
 62
     0
 10
286.467883
 20
34.694324
 30
0.0
 11
287.167883
 21
34.694324
 31
0.0
  0
TEXT
  8
0
  6
BYBLOCK
 62
     0
 10
286.692883
 20
34.731824
 30
0.0
 40
0.075
  1
0.70
  7
ROMANC
 72
     1
 11
286.817883
 21
34.769324
 31
0.0
 73
     2
  0
POINT
  8
DEFPOINTS
  6
BYBLOCK
 62
     0
 10
286.467883
 20
35.456858
 30
0.0
  0
POINT
  8
DEFPOINTS
  6
BYBLOCK
 62
     0
 10
287.167883
 20
35.456858
 30
0.0
  0
POINT
  8
DEFPOINTS
  6
BYBLOCK
 62
     0
 10
287.167883
 20
34.694324
 30
0.0
  0
ENDBLK
  8
0
  0
BLOCK
  8
0
  2
*D13
 70
    65
 10
0.0
 20
0.0
 30
0.0
  3
*D
  0
LINE
  8
0
  6
BYBLOCK
 62
     0
 10
285.867883
 20
35.441858
 30
0.0
 11
285.867883
 21
34.41679
 31
0.0
  0
LINE
  8
0
  6
BYBLOCK
 62
     0
 10
287.367883
 20
35.441858
 30
0.0
 11
287.367883
 21
34.41679
 31
0.0
  0
LINE
  8
0
  6
BYBLOCK
 62
     0
 10
286.017883
 20
34.43179
 30
0.0
 11
287.217883
 21
34.43179
 31
0.0
  0
SOLID
  8
0
  6
BYBLOCK
 62
     0
 10
286.017883
 20
34.45679
 30
0.0
 11
286.017883
 21
34.40679
 31
0.0
 12
285.867883
 22
34.43179
 32
0.0
 13
285.867883
 23
34.43179
 33
0.0
  0
SOLID
  8
0
  6
BYBLOCK
 62
     0
 10
287.217883
 20
34.45679
 30
0.0
 11
287.217883
 21
34.40679
 31
0.0
 12
287.367883
 22
34.43179
 32
0.0
 13
287.367883
 23
34.43179
 33
0.0
  0
TEXT
  8
0
  6
BYBLOCK
 62
     0
 10
286.487525
 20
34.46929
 30
0.0
 40
0.075
  1
1.50
  7
ROMANC
 72
     1
 11
286.617883
 21
34.50679
 31
0.0
 73
     2
  0
POINT
  8
DEFPOINTS
  6
BYBLOCK
 62
     0
 10
285.867883
 20
35.456858
 30
0.0
  0
POINT
  8
DEFPOINTS
  6
BYBLOCK
 62
     0
 10
287.367883
 20
35.456858
 30
0.0
  0
POINT
  8
DEFPOINTS
  6
BYBLOCK
 62
     0
 10
287.367883
 20
34.43179
 30
0.0
  0
ENDBLK
  8
0
  0
BLOCK
  8
0
  2
*D16
 70
    65
 10
0.0
 20
0.0
 30
0.0
  3
*D
  0
LINE
  8
0
  6
BYBLOCK
 62
     0
 10
287.382883
 20
36.256858
 30
0.0
 11
287.824623
 21
36.256858
 31
0.0
  0
LINE
  8
0
  6
BYBLOCK
 62
     0
 10
287.382883
 20
35.456858
 30
0.0
 11
287.824623
 21
35.456858
 31
0.0
  0
LINE
  8
0
  6
BYBLOCK
 62
     0
 10
287.809623
 20
36.106858
 30
0.0
 11
287.809623
 21
35.606858
 31
0.0
  0
SOLID
  8
0
  6
BYBLOCK
 62
     0
 10
287.784623
 20
36.106858
 30
0.0
 11
287.834623
 21
36.106858
 31
0.0
 12
287.809623
 22
36.256858
 32
0.0
 13
287.809623
 23
36.256858
 33
0.0
  0
SOLID
  8
0
  6
BYBLOCK
 62
     0
 10
287.784623
 20
35.606858
 30
0.0
 11
287.834623
 21
35.606858
 31
0.0
 12
287.809623
 22
35.456858
 32
0.0
 13
287.809623
 23
35.456858
 33
0.0
  0
TEXT
  8
0
  6
BYBLOCK
 62
     0
 10
287.772123
 20
35.731858
 30
0.0
 40
0.075
  1
0.80
 50
90.0
  7
ROMANC
 72
     1
 11
287.734623
 21
35.856858
 31
0.0
 73
     2
  0
POINT
  8
DEFPOINTS
  6
BYBLOCK
 62
     0
 10
287.367883
 20
36.256858
 30
0.0
  0
POINT
  8
DEFPOINTS
  6
BYBLOCK
 62
     0
 10
287.367883
 20
35.456858
 30
0.0
  0
POINT
  8
DEFPOINTS
  6
BYBLOCK
 62
     0
 10
287.809623
 20
35.456858
 30
0.0
  0
ENDBLK
  8
0
  0
BLOCK
  8
0
  2
*D17
 70
    65
 10
0.0
 20
0.0
 30
0.0
  3
*D
  0
LINE
  8
0
  6
BYBLOCK
 62
     0
 10
287.182883
 20
35.456858
 30
0.0
 11
287.824623
 21
35.456858
 31
0.0
  0
LINE
  8
0
  6
BYBLOCK
 62
     0
 10
286.832883
 20
34.956858
 30
0.0
 11
287.824623
 21
34.956858
 31
0.0
  0
LINE
  8
0
  6
BYBLOCK
 62
     0
 10
287.809623
 20
35.606858
 30
0.0
 11
287.809623
 21
35.756858
 31
0.0
  0
LINE
  8
0
  6
BYBLOCK
 62
     0
 10
287.809623
 20
34.806858
 30
0.0
 11
287.809623
 21
34.656858
 31
0.0
  0
SOLID
  8
0
  6
BYBLOCK
 62
     0
 10
287.784623
 20
35.606858
 30
0.0
 11
287.834623
 21
35.606858
 31
0.0
 12
287.809623
 22
35.456858
 32
0.0
 13
287.809623
 23
35.456858
 33
0.0
  0
SOLID
  8
0
  6
BYBLOCK
 62
     0
 10
287.784623
 20
34.806858
 30
0.0
 11
287.834623
 21
34.806858
 31
0.0
 12
287.809623
 22
34.956858
 32
0.0
 13
287.809623
 23
34.956858
 33
0.0
  0
LINE
  8
0
  6
BYBLOCK
 62
     0
 10
287.809623
 20
35.456858
 30
0.0
 11
287.809623
 21
34.956858
 31
0.0
  0
TEXT
  8
0
  6
BYBLOCK
 62
     0
 10
287.772123
 20
35.081858
 30
0.0
 40
0.075
  1
0.50
 50
90.0
  7
ROMANC
 72
     1
 11
287.734623
 21
35.206858
 31
0.0
 73
     2
  0
POINT
  8
DEFPOINTS
  6
BYBLOCK
 62
     0
 10
287.167883
 20
35.456858
 30
0.0
  0
POINT
  8
DEFPOINTS
  6
BYBLOCK
 62
     0
 10
286.817883
 20
34.956858
 30
0.0
  0
POINT
  8
DEFPOINTS
  6
BYBLOCK
 62
     0
 10
287.809623
 20
34.956858
 30
0.0
  0
ENDBLK
  8
0
  0
BLOCK
  8
0
  2
*D18
 70
    65
 10
0.0
 20
0.0
 30
0.0
  3
*D
  0
LINE
  8
0
  6
BYBLOCK
 62
     0
 10
286.832883
 20
34.956858
 30
0.0
 11
288.180007
 21
34.956858
 31
0.0
  0
LINE
  8
0
  6
BYBLOCK
 62
     0
 10
286.632883
 20
37.006858
 30
0.0
 11
288.180007
 21
37.006858
 31
0.0
  0
LINE
  8
0
  6
BYBLOCK
 62
     0
 10
288.165007
 20
35.106858
 30
0.0
 11
288.165007
 21
36.856858
 31
0.0
  0
SOLID
  8
0
  6
BYBLOCK
 62
     0
 10
288.140007
 20
35.106858
 30
0.0
 11
288.190007
 21
35.106858
 31
0.0
 12
288.165007
 22
34.956858
 32
0.0
 13
288.165007
 23
34.956858
 33
0.0
  0
SOLID
  8
0
  6
BYBLOCK
 62
     0
 10
288.140007
 20
36.856858
 30
0.0
 11
288.190007
 21
36.856858
 31
0.0
 12
288.165007
 22
37.006858
 32
0.0
 13
288.165007
 23
37.006858
 33
0.0
  0
TEXT
  8
0
  6
BYBLOCK
 62
     0
 10
288.127507
 20
35.856858
 30
0.0
 40
0.075
  1
2.05
 50
90.0
  7
ROMANC
 72
     1
 11
288.090007
 21
35.981858
 31
0.0
 73
     2
  0
POINT
  8
DEFPOINTS
  6
BYBLOCK
 62
     0
 10
286.817883
 20
34.956858
 30
0.0
  0
POINT
  8
DEFPOINTS
  6
BYBLOCK
 62
     0
 10
286.617883
 20
37.006858
 30
0.0
  0
POINT
  8
DEFPOINTS
  6
BYBLOCK
 62
     0
 10
288.165007
 20
37.006858
 30
0.0
  0
ENDBLK
  8
0
  0
BLOCK
  8
0
  2
*D19
 70
    65
 10
0.0
 20
0.0
 30
0.0
  3
*D
  0
LINE
  8
0
  6
BYBLOCK
 62
     0
 10
285.867883
 20
36.271858
 30
0.0
 11
285.867883
 21
36.271858
 31
0.0
  0
LINE
  8
0
  6
BYBLOCK
 62
     0
 10
287.367883
 20
36.271858
 30
0.0
 11
287.367883
 21
36.271858
 31
0.0
  0
LINE
  8
0
  6
BYBLOCK
 62
     0
 10
286.017883
 20
36.256858
 30
0.0
 11
287.217883
 21
36.256858
 31
0.0
  0
SOLID
  8
0
  6
BYBLOCK
 62
     0
 10
286.017883
 20
36.281858
 30
0.0
 11
286.017883
 21
36.231858
 31
0.0
 12
285.867883
 22
36.256858
 32
0.0
 13
285.867883
 23
36.256858
 33
0.0
  0
SOLID
  8
0
  6
BYBLOCK
 62
     0
 10
287.217883
 20
36.281858
 30
0.0
 11
287.217883
 21
36.231858
 31
0.0
 12
287.367883
 22
36.256858
 32
0.0
 13
287.367883
 23
36.256858
 33
0.0
  0
TEXT
  8
0
  6
BYBLOCK
 62
     0
 10
286.487525
 20
36.294358
 30
0.0
 40
0.075
  1
1.50
  7
ROMANC
 72
     1
 11
286.617883
 21
36.331858
 31
0.0
 73
     2
  0
POINT
  8
DEFPOINTS
  6
BYBLOCK
 62
     0
 10
285.867883
 20
36.256858
 30
0.0
  0
POINT
  8
DEFPOINTS
  6
BYBLOCK
 62
     0
 10
287.367883
 20
36.256858
 30
0.0
  0
POINT
  8
DEFPOINTS
  6
BYBLOCK
 62
     0
 10
287.367883
 20
36.256858
 30
0.0
  0
ENDBLK
  8
0
  0
ENDSEC
  0
SECTION
  2
ENTITIES
  0
TEXT
  8
0
 10
283.887846
 20
40.56142
 30
0.0
 40
0.3
  1
P = 61 dm
  7
ROMANC
  0
TEXT
  8
0
 10
286.845612
 20
41.564915
 30
0.0
 40
0.1
  1
2
  7
ROMANC
  0
TEXT
  8
0
 10
283.925768
 20
41.857589
 30
0.0
 40
0.3
  1
ESCALA  1:50
  7
ROMANC
  0
TEXT
  8
0
 10
283.925768
 20
42.343303
 30
0.0
 40
0.3
  1
TIPUS   NT236
  7
ROMANC
  0
TEXT
  8
0
 10
283.938862
 20
41.258999
 30
0.0
 40
0.3
  1
S= 236 dm
  7
ROMANC
  0
ARC
  8
0
 10
285.357203
 20
36.256858
 30
0.0
 40
0.76
 50
0.000009
 51
179.999991
  0
LINE
  8
0
 10
284.597203
 20
36.256858
 30
0.0
 11
284.597203
 21
35.446858
 31
0.0
  0
LINE
  8
0
 10
284.597203
 20
35.446858
 30
0.0
 11
285.197272
 21
35.446858
 31
0.0
  0
ARC
  8
0
 10
285.919034
 20
35.456858
 30
0.0
 40
0.721831
 50
180.793781
 51
196.16949
  0
ARC
  8
0
 10
285.741081
 20
35.405261
 30
0.0
 40
0.536549
 50
196.16949
 51
214.99202
  0
ARC
  8
0
 10
285.628435
 20
35.326408
 30
0.0
 40
0.399046
 50
214.99202
 51
239.385769
  0
ARC
  8
0
 10
285.557203
 20
35.20603
 30
0.0
 40
0.259172
 50
239.385769
 51
270.0
  0
ARC
  8
0
 10
285.557203
 20
35.20603
 30
0.0
 40
0.259172
 50
270.0
 51
300.614231
  0
ARC
  8
0
 10
285.485971
 20
35.326408
 30
0.0
 40
0.399046
 50
300.614231
 51
325.00798
  0
ARC
  8
0
 10
285.373325
 20
35.405261
 30
0.0
 40
0.536549
 50
325.00798
 51
343.83051
  0
ARC
  8
0
 10
285.195372
 20
35.456858
 30
0.0
 40
0.721831
 50
343.83051
 51
359.206219
  0
LINE
  8
0
 10
285.917134
 20
35.446858
 30
0.0
 11
286.117203
 21
35.446858
 31
0.0
  0
LINE
  8
0
 10
286.117203
 20
35.446858
 30
0.0
 11
286.117203
 21
36.256858
 31
0.0
  0
ARC
  8
0
 10
285.357203
 20
36.256858
 30
0.0
 40
0.755
 50
0.000006
 51
179.999994
  0
LINE
  8
0
 10
284.602203
 20
36.256858
 30
0.0
 11
284.602203
 21
35.451858
 31
0.0
  0
LINE
  8
0
 10
284.602203
 20
35.451858
 30
0.0
 11
285.20222
 21
35.451858
 31
0.0
  0
ARC
  8
0
 10
285.919034
 20
35.456858
 30
0.0
 40
0.716831
 50
180.399649
 51
196.16949
  0
ARC
  8
0
 10
285.741081
 20
35.405261
 30
0.0
 40
0.531549
 50
196.16949
 51
214.99202
  0
ARC
  8
0
 10
285.628435
 20
35.326408
 30
0.0
 40
0.394046
 50
214.99202
 51
239.385769
  0
ARC
  8
0
 10
285.557203
 20
35.20603
 30
0.0
 40
0.254172
 50
239.385769
 51
270.0
  0
ARC
  8
0
 10
285.557203
 20
35.20603
 30
0.0
 40
0.254172
 50
270.0
 51
300.614231
  0
ARC
  8
0
 10
285.485971
 20
35.326408
 30
0.0
 40
0.394046
 50
300.614231
 51
325.00798
  0
ARC
  8
0
 10
285.373325
 20
35.405261
 30
0.0
 40
0.531549
 50
325.00798
 51
343.83051
  0
ARC
  8
0
 10
285.195372
 20
35.456858
 30
0.0
 40
0.716831
 50
343.83051
 51
359.600351
  0
LINE
  8
0
 10
285.912186
 20
35.451858
 30
0.0
 11
286.112203
 21
35.451858
 31
0.0
  0
LINE
  8
0
 10
286.112203
 20
35.451858
 30
0.0
 11
286.112203
 21
36.256858
 31
0.0
  0
LINE
  8
0
  6
BYBLOCK
 62
     0
 10
284.607203
 20
36.271858
 30
0.0
 11
284.607203
 21
36.271858
 31
0.0
  0
LINE
  8
0
  6
BYBLOCK
 62
     0
 10
286.107203
 20
36.271858
 30
0.0
 11
286.107203
 21
36.271858
 31
0.0
  0
LINE
  8
0
  6
BYBLOCK
 62
     0
 10
284.757203
 20
36.256858
 30
0.0
 11
285.957203
 21
36.256858
 31
0.0
  0
SOLID
  8
0
  6
BYBLOCK
 62
     0
 10
284.757203
 20
36.281858
 30
0.0
 11
284.757203
 21
36.231858
 31
0.0
 12
284.607203
 22
36.256858
 32
0.0
 13
284.607203
 23
36.256858
 33
0.0
  0
SOLID
  8
0
  6
BYBLOCK
 62
     0
 10
285.957203
 20
36.281858
 30
0.0
 11
285.957203
 21
36.231858
 31
0.0
 12
286.107203
 22
36.256858
 32
0.0
 13
286.107203
 23
36.256858
 33
0.0
  0
TEXT
  8
0
  6
BYBLOCK
 62
     0
 10
285.226846
 20
36.294358
 30
0.0
 40
0.075
  1
1.50
  7
ROMANC
 72
     1
 11
285.357203
 21
36.331858
 31
0.0
 73
     2
  0
POINT
  8
DEFPOINTS
  6
BYBLOCK
 62
     0
 10
284.607203
 20
36.256858
 30
0.0
  0
POINT
  8
DEFPOINTS
  6
BYBLOCK
 62
     0
 10
286.107203
 20
36.256858
 30
0.0
  0
POINT
  8
DEFPOINTS
  6
BYBLOCK
 62
     0
 10
286.107203
 20
36.256858
 30
0.0
  0
LINE
  8
0
  6
BYBLOCK
 62
     0
 10
285.572203
 20
34.956858
 30
0.0
 11
286.919328
 21
34.956858
 31
0.0
  0
LINE
  8
0
  6
BYBLOCK
 62
     0
 10
285.372203
 20
37.006858
 30
0.0
 11
286.919328
 21
37.006858
 31
0.0
  0
LINE
  8
0
  6
BYBLOCK
 62
     0
 10
286.904328
 20
35.106858
 30
0.0
 11
286.904328
 21
36.856858
 31
0.0
  0
SOLID
  8
0
  6
BYBLOCK
 62
     0
 10
286.879328
 20
35.106858
 30
0.0
 11
286.929328
 21
35.106858
 31
0.0
 12
286.904328
 22
34.956858
 32
0.0
 13
286.904328
 23
34.956858
 33
0.0
  0
SOLID
  8
0
  6
BYBLOCK
 62
     0
 10
286.879328
 20
36.856858
 30
0.0
 11
286.929328
 21
36.856858
 31
0.0
 12
286.904328
 22
37.006858
 32
0.0
 13
286.904328
 23
37.006858
 33
0.0
  0
TEXT
  8
0
  6
BYBLOCK
 62
     0
 10
286.866828
 20
35.856858
 30
0.0
 40
0.075
  1
2.05
 50
90.0
  7
ROMANC
 72
     1
 11
286.829328
 21
35.981858
 31
0.0
 73
     2
  0
POINT
  8
DEFPOINTS
  6
BYBLOCK
 62
     0
 10
285.557203
 20
34.956858
 30
0.0
  0
POINT
  8
DEFPOINTS
  6
BYBLOCK
 62
     0
 10
285.357203
 20
37.006858
 30
0.0
  0
POINT
  8
DEFPOINTS
  6
BYBLOCK
 62
     0
 10
286.904328
 20
37.006858
 30
0.0
  0
LINE
  8
0
  6
BYBLOCK
 62
     0
 10
286.122203
 20
36.256858
 30
0.0
 11
286.563943
 21
36.256858
 31
0.0
  0
LINE
  8
0
  6
BYBLOCK
 62
     0
 10
286.122203
 20
35.456858
 30
0.0
 11
286.563943
 21
35.456858
 31
0.0
  0
LINE
  8
0
  6
BYBLOCK
 62
     0
 10
286.548943
 20
36.106858
 30
0.0
 11
286.548943
 21
35.606858
 31
0.0
  0
SOLID
  8
0
  6
BYBLOCK
 62
     0
 10
286.523943
 20
36.106858
 30
0.0
 11
286.573943
 21
36.106858
 31
0.0
 12
286.548943
 22
36.256858
 32
0.0
 13
286.548943
 23
36.256858
 33
0.0
  0
SOLID
  8
0
  6
BYBLOCK
 62
     0
 10
286.523943
 20
35.606858
 30
0.0
 11
286.573943
 21
35.606858
 31
0.0
 12
286.548943
 22
35.456858
 32
0.0
 13
286.548943
 23
35.456858
 33
0.0
  0
TEXT
  8
0
  6
BYBLOCK
 62
     0
 10
286.511443
 20
35.731858
 30
0.0
 40
0.075
  1
0.80
 50
90.0
  7
ROMANC
 72
     1
 11
286.473943
 21
35.856858
 31
0.0
 73
     2
  0
POINT
  8
DEFPOINTS
  6
BYBLOCK
 62
     0
 10
286.107203
 20
36.256858
 30
0.0
  0
POINT
  8
DEFPOINTS
  6
BYBLOCK
 62
     0
 10
286.107203
 20
35.456858
 30
0.0
  0
POINT
  8
DEFPOINTS
  6
BYBLOCK
 62
     0
 10
286.548943
 20
35.456858
 30
0.0
  0
LINE
  8
0
  6
BYBLOCK
 62
     0
 10
285.922203
 20
35.456858
 30
0.0
 11
286.563943
 21
35.456858
 31
0.0
  0
LINE
  8
0
  6
BYBLOCK
 62
     0
 10
285.572203
 20
34.956858
 30
0.0
 11
286.563943
 21
34.956858
 31
0.0
  0
LINE
  8
0
  6
BYBLOCK
 62
     0
 10
286.548943
 20
35.606858
 30
0.0
 11
286.548943
 21
35.756858
 31
0.0
  0
LINE
  8
0
  6
BYBLOCK
 62
     0
 10
286.548943
 20
34.806858
 30
0.0
 11
286.548943
 21
34.656858
 31
0.0
  0
SOLID
  8
0
  6
BYBLOCK
 62
     0
 10
286.523943
 20
35.606858
 30
0.0
 11
286.573943
 21
35.606858
 31
0.0
 12
286.548943
 22
35.456858
 32
0.0
 13
286.548943
 23
35.456858
 33
0.0
  0
SOLID
  8
0
  6
BYBLOCK
 62
     0
 10
286.523943
 20
34.806858
 30
0.0
 11
286.573943
 21
34.806858
 31
0.0
 12
286.548943
 22
34.956858
 32
0.0
 13
286.548943
 23
34.956858
 33
0.0
  0
LINE
  8
0
  6
BYBLOCK
 62
     0
 10
286.548943
 20
35.456858
 30
0.0
 11
286.548943
 21
34.956858
 31
0.0
  0
TEXT
  8
0
  6
BYBLOCK
 62
     0
 10
286.511443
 20
35.081858
 30
0.0
 40
0.075
  1
0.50
 50
90.0
  7
ROMANC
 72
     1
 11
286.473943
 21
35.206858
 31
0.0
 73
     2
  0
POINT
  8
DEFPOINTS
  6
BYBLOCK
 62
     0
 10
285.907203
 20
35.456858
 30
0.0
  0
POINT
  8
DEFPOINTS
  6
BYBLOCK
 62
     0
 10
285.557203
 20
34.956858
 30
0.0
  0
POINT
  8
DEFPOINTS
  6
BYBLOCK
 62
     0
 10
286.548943
 20
34.956858
 30
0.0
  0
LINE
  8
0
  6
BYBLOCK
 62
     0
 10
284.607203
 20
35.441858
 30
0.0
 11
284.607203
 21
34.41679
 31
0.0
  0
LINE
  8
0
  6
BYBLOCK
 62
     0
 10
286.107203
 20
35.441858
 30
0.0
 11
286.107203
 21
34.41679
 31
0.0
  0
LINE
  8
0
  6
BYBLOCK
 62
     0
 10
284.757203
 20
34.43179
 30
0.0
 11
285.957203
 21
34.43179
 31
0.0
  0
SOLID
  8
0
  6
BYBLOCK
 62
     0
 10
284.757203
 20
34.45679
 30
0.0
 11
284.757203
 21
34.40679
 31
0.0
 12
284.607203
 22
34.43179
 32
0.0
 13
284.607203
 23
34.43179
 33
0.0
  0
SOLID
  8
0
  6
BYBLOCK
 62
     0
 10
285.957203
 20
34.45679
 30
0.0
 11
285.957203
 21
34.40679
 31
0.0
 12
286.107203
 22
34.43179
 32
0.0
 13
286.107203
 23
34.43179
 33
0.0
  0
TEXT
  8
0
  6
BYBLOCK
 62
     0
 10
285.226846
 20
34.46929
 30
0.0
 40
0.075
  1
1.50
  7
ROMANC
 72
     1
 11
285.357203
 21
34.50679
 31
0.0
 73
     2
  0
POINT
  8
DEFPOINTS
  6
BYBLOCK
 62
     0
 10
284.607203
 20
35.456858
 30
0.0
  0
POINT
  8
DEFPOINTS
  6
BYBLOCK
 62
     0
 10
286.107203
 20
35.456858
 30
0.0
  0
POINT
  8
DEFPOINTS
  6
BYBLOCK
 62
     0
 10
286.107203
 20
34.43179
 30
0.0
  0
LINE
  8
0
  6
BYBLOCK
 62
     0
 10
285.907203
 20
35.441858
 30
0.0
 11
285.907203
 21
34.679324
 31
0.0
  0
LINE
  8
0
  6
BYBLOCK
 62
     0
 10
286.107203
 20
35.441858
 30
0.0
 11
286.107203
 21
34.679324
 31
0.0
  0
LINE
  8
0
  6
BYBLOCK
 62
     0
 10
285.757203
 20
34.694324
 30
0.0
 11
285.607203
 21
34.694324
 31
0.0
  0
LINE
  8
0
  6
BYBLOCK
 62
     0
 10
286.257203
 20
34.694324
 30
0.0
 11
286.407203
 21
34.694324
 31
0.0
  0
SOLID
  8
0
  6
BYBLOCK
 62
     0
 10
285.757203
 20
34.719324
 30
0.0
 11
285.757203
 21
34.669324
 31
0.0
 12
285.907203
 22
34.694324
 32
0.0
 13
285.907203
 23
34.694324
 33
0.0
  0
SOLID
  8
0
  6
BYBLOCK
 62
     0
 10
286.257203
 20
34.719324
 30
0.0
 11
286.257203
 21
34.669324
 31
0.0
 12
286.107203
 22
34.694324
 32
0.0
 13
286.107203
 23
34.694324
 33
0.0
  0
LINE
  8
0
  6
BYBLOCK
 62
     0
 10
285.907203
 20
34.694324
 30
0.0
 11
286.107203
 21
34.694324
 31
0.0
  0
TEXT
  8
0
  6
BYBLOCK
 62
     0
 10
286.135515
 20
34.731824
 30
0.0
 40
0.075
  1
0.20
  7
ROMANC
 72
     1
 11
286.260515
 21
34.769324
 31
0.0
 73
     2
  0
POINT
  8
DEFPOINTS
  6
BYBLOCK
 62
     0
 10
285.907203
 20
35.456858
 30
0.0
  0
POINT
  8
DEFPOINTS
  6
BYBLOCK
 62
     0
 10
286.107203
 20
35.456858
 30
0.0
  0
POINT
  8
DEFPOINTS
  6
BYBLOCK
 62
     0
 10
286.107203
 20
34.694324
 30
0.0
  0
LINE
  8
0
  6
BYBLOCK
 62
     0
 10
284.607203
 20
35.441858
 30
0.0
 11
284.607203
 21
34.679324
 31
0.0
  0
LINE
  8
0
  6
BYBLOCK
 62
     0
 10
285.207203
 20
35.426858
 30
0.0
 11
285.207203
 21
34.679324
 31
0.0
  0
LINE
  8
0
  6
BYBLOCK
 62
     0
 10
284.457203
 20
34.694324
 30
0.0
 11
284.307203
 21
34.694324
 31
0.0
  0
LINE
  8
0
  6
BYBLOCK
 62
     0
 10
285.357203
 20
34.694324
 30
0.0
 11
285.507203
 21
34.694324
 31
0.0
  0
SOLID
  8
0
  6
BYBLOCK
 62
     0
 10
284.457203
 20
34.719324
 30
0.0
 11
284.457203
 21
34.669324
 31
0.0
 12
284.607203
 22
34.694324
 32
0.0
 13
284.607203
 23
34.694324
 33
0.0
  0
SOLID
  8
0
  6
BYBLOCK
 62
     0
 10
285.357203
 20
34.719324
 30
0.0
 11
285.357203
 21
34.669324
 31
0.0
 12
285.207203
 22
34.694324
 32
0.0
 13
285.207203
 23
34.694324
 33
0.0
  0
LINE
  8
0
  6
BYBLOCK
 62
     0
 10
284.607203
 20
34.694324
 30
0.0
 11
285.207203
 21
34.694324
 31
0.0
  0
TEXT
  8
0
  6
BYBLOCK
 62
     0
 10
284.782203
 20
34.731824
 30
0.0
 40
0.075
  1
0.60
  7
ROMANC
 72
     1
 11
284.907203
 21
34.769324
 31
0.0
 73
     2
  0
POINT
  8
DEFPOINTS
  6
BYBLOCK
 62
     0
 10
284.607203
 20
35.456858
 30
0.0
  0
POINT
  8
DEFPOINTS
  6
BYBLOCK
 62
     0
 10
285.207203
 20
35.441858
 30
0.0
  0
POINT
  8
DEFPOINTS
  6
BYBLOCK
 62
     0
 10
285.207203
 20
34.694324
 30
0.0
  0
LINE
  8
0
  6
BYBLOCK
 62
     0
 10
285.207203
 20
35.441858
 30
0.0
 11
285.207203
 21
34.679324
 31
0.0
  0
LINE
  8
0
  6
BYBLOCK
 62
     0
 10
285.907203
 20
35.441858
 30
0.0
 11
285.907203
 21
34.679324
 31
0.0
  0
LINE
  8
0
  6
BYBLOCK
 62
     0
 10
285.057203
 20
34.694324
 30
0.0
 11
284.907203
 21
34.694324
 31
0.0
  0
LINE
  8
0
  6
BYBLOCK
 62
     0
 10
286.057203
 20
34.694324
 30
0.0
 11
286.207203
 21
34.694324
 31
0.0
  0
SOLID
  8
0
  6
BYBLOCK
 62
     0
 10
285.057203
 20
34.719324
 30
0.0
 11
285.057203
 21
34.669324
 31
0.0
 12
285.207203
 22
34.694324
 32
0.0
 13
285.207203
 23
34.694324
 33
0.0
  0
SOLID
  8
0
  6
BYBLOCK
 62
     0
 10
286.057203
 20
34.719324
 30
0.0
 11
286.057203
 21
34.669324
 31
0.0
 12
285.907203
 22
34.694324
 32
0.0
 13
285.907203
 23
34.694324
 33
0.0
  0
LINE
  8
0
  6
BYBLOCK
 62
     0
 10
285.207203
 20
34.694324
 30
0.0
 11
285.907203
 21
34.694324
 31
0.0
  0
TEXT
  8
0
  6
BYBLOCK
 62
     0
 10
285.432203
 20
34.731824
 30
0.0
 40
0.075
  1
0.70
  7
ROMANC
 72
     1
 11
285.557203
 21
34.769324
 31
0.0
 73
     2
  0
POINT
  8
DEFPOINTS
  6
BYBLOCK
 62
     0
 10
285.207203
 20
35.456858
 30
0.0
  0
POINT
  8
DEFPOINTS
  6
BYBLOCK
 62
     0
 10
285.907203
 20
35.456858
 30
0.0
  0
POINT
  8
DEFPOINTS
  6
BYBLOCK
 62
     0
 10
285.907203
 20
34.694324
 30
0.0
  0
ARC
  8
0
 10
285.357203
 20
36.256858
 30
0.0
 40
0.75
 50
0.0
 51
180.0
  0
LINE
  8
0
 10
284.607203
 20
36.256858
 30
0.0
 11
284.607203
 21
35.456858
 31
0.0
  0
LINE
  8
0
 10
284.607203
 20
35.456858
 30
0.0
 11
285.207203
 21
35.456858
 31
0.0
  0
ARC
  8
0
 10
285.919034
 20
35.456858
 30
0.0
 40
0.711831
 50
180.0
 51
196.16949
  0
ARC
  8
0
 10
285.741081
 20
35.405261
 30
0.0
 40
0.526549
 50
196.16949
 51
214.99202
  0
ARC
  8
0
 10
285.628435
 20
35.326408
 30
0.0
 40
0.389046
 50
214.99202
 51
239.385769
  0
ARC
  8
0
 10
285.557203
 20
35.20603
 30
0.0
 40
0.249172
 50
239.385769
 51
270.0
  0
ARC
  8
0
 10
285.557203
 20
35.20603
 30
0.0
 40
0.249172
 50
270.0
 51
300.614231
  0
ARC
  8
0
 10
285.485971
 20
35.326408
 30
0.0
 40
0.389046
 50
300.614231
 51
325.00798
  0
ARC
  8
0
 10
285.373325
 20
35.405261
 30
0.0
 40
0.526549
 50
325.00798
 51
343.83051
  0
ARC
  8
0
 10
285.195372
 20
35.456858
 30
0.0
 40
0.711831
 50
343.83051
 51
0.0
  0
LINE
  8
0
 10
285.907203
 20
35.456858
 30
0.0
 11
286.107203
 21
35.456858
 31
0.0
  0
LINE
  8
0
 10
286.107203
 20
35.456858
 30
0.0
 11
286.107203
 21
36.256858
 31
0.0
  0
LINE
  8
0
 10
281.395795
 20
29.897444
 30
0.0
 11
281.395795
 21
44.747444
 31
0.0
  0
LINE
  8
0
 10
281.395795
 20
44.747444
 30
0.0
 11
291.895795
 21
44.747444
 31
0.0
  0
LINE
  8
0
 10
291.895795
 20
44.747444
 30
0.0
 11
291.895795
 21
29.897444
 31
0.0
  0
LINE
  8
0
 10
291.895795
 20
29.897444
 30
0.0
 11
281.395795
 21
29.897444
 31
0.0
  0
ENDSEC
  0
EOF
