  0
SECTION
  2
HEADER
  9
$ACADVER
  1
AC1009
  9
$INSBASE
 10
0.0
 20
0.0
 30
0.0
  9
$EXTMIN
 10
281.396
 20
29.897
 30
0.0
  9
$EXTMAX
 10
291.896
 20
44.747
 30
0.0
  9
$LIMMIN
 10
280.396
 20
28.897
  9
$LIMMAX
 10
292.896
 20
43.747
  9
$ORTHOMODE
 70
     0
  9
$REGENMODE
 70
     1
  9
$FILLMODE
 70
     1
  9
$QTEXTMODE
 70
     0
  9
$MIRRTEXT
 70
     1
  9
$DRAGMODE
 70
     2
  9
$LTSCALE
 40
1.0
  9
$OSMODE
 70
     0
  9
$ATTMODE
 70
     1
  9
$TEXTSIZE
 40
0.2
  9
$TRACEWID
 40
0.05
  9
$TEXTSTYLE
  7
STANDARD
  9
$CLAYER
  8
0
  9
$CELTYPE
  6
BYLAYER
  9
$CECOLOR
 62
   256
  9
$DIMSCALE
 40
1.0
  9
$DIMASZ
 40
0.18
  9
$DIMEXO
 40
0.0625
  9
$DIMDLI
 40
0.38
  9
$DIMRND
 40
0.0
  9
$DIMDLE
 40
0.0
  9
$DIMEXE
 40
0.18
  9
$DIMTP
 40
0.0
  9
$DIMTM
 40
0.0
  9
$DIMTXT
 40
0.18
  9
$DIMCEN
 40
0.09
  9
$DIMTSZ
 40
0.0
  9
$DIMTOL
 70
     0
  9
$DIMLIM
 70
     0
  9
$DIMTIH
 70
     1
  9
$DIMTOH
 70
     1
  9
$DIMSE1
 70
     0
  9
$DIMSE2
 70
     0
  9
$DIMTAD
 70
     0
  9
$DIMZIN
 70
     0
  9
$DIMBLK
  1

  9
$DIMASO
 70
     1
  9
$DIMSHO
 70
     1
  9
$DIMPOST
  1

  9
$DIMAPOST
  1

  9
$DIMALT
 70
     0
  9
$DIMALTD
 70
     2
  9
$DIMALTF
 40
25.4
  9
$DIMLFAC
 40
1.0
  9
$DIMTOFL
 70
     0
  9
$DIMTVP
 40
0.0
  9
$DIMTIX
 70
     0
  9
$DIMSOXD
 70
     0
  9
$DIMSAH
 70
     0
  9
$DIMBLK1
  1

  9
$DIMBLK2
  1

  9
$DIMSTYLE
  2
*UNNAMED
  9
$DIMCLRD
 70
     0
  9
$DIMCLRE
 70
     0
  9
$DIMCLRT
 70
     0
  9
$DIMTFAC
 40
1.0
  9
$DIMGAP
 40
0.09
  9
$LUNITS
 70
     2
  9
$LUPREC
 70
     4
  9
$SKETCHINC
 40
0.1
  9
$FILLETRAD
 40
0.0
  9
$AUNITS
 70
     0
  9
$AUPREC
 70
     0
  9
$MENU
  1
acad
  9
$ELEVATION
 40
0.0
  9
$PELEVATION
 40
0.0
  9
$THICKNESS
 40
0.0
  9
$LIMCHECK
 70
     0
  9
$BLIPMODE
 70
     1
  9
$CHAMFERA
 40
0.0
  9
$CHAMFERB
 40
0.0
  9
$SKPOLY
 70
     0
  9
$TDCREATE
 40
2448315.373408102
  9
$TDUPDATE
 40
2448315.373408102
  9
$TDINDWG
 40
0.0000000000
  9
$TDUSRTIMER
 40
0.0000000000
  9
$USRTIMER
 70
     1
  9
$ANGBASE
 50
0.0
  9
$ANGDIR
 70
     0
  9
$PDMODE
 70
     0
  9
$PDSIZE
 40
0.0
  9
$PLINEWID
 40
0.0
  9
$COORDS
 70
     0
  9
$SPLFRAME
 70
     0
  9
$SPLINETYPE
 70
     6
  9
$SPLINESEGS
 70
     8
  9
$ATTDIA
 70
     0
  9
$ATTREQ
 70
     1
  9
$HANDLING
 70
     0
  9
$HANDSEED
  5
0
  9
$SURFTAB1
 70
     6
  9
$SURFTAB2
 70
     6
  9
$SURFTYPE
 70
     6
  9
$SURFU
 70
     6
  9
$SURFV
 70
     6
  9
$UCSNAME
  2

  9
$UCSORG
 10
0.0
 20
0.0
 30
0.0
  9
$UCSXDIR
 10
1.0
 20
0.0
 30
0.0
  9
$UCSYDIR
 10
0.0
 20
1.0
 30
0.0
  9
$PUCSNAME
  2

  9
$PUCSORG
 10
0.0
 20
0.0
 30
0.0
  9
$PUCSXDIR
 10
1.0
 20
0.0
 30
0.0
  9
$PUCSYDIR
 10
0.0
 20
1.0
 30
0.0
  9
$USERI1
 70
     0
  9
$USERI2
 70
     0
  9
$USERI3
 70
     0
  9
$USERI4
 70
     0
  9
$USERI5
 70
     0
  9
$USERR1
 40
0.0
  9
$USERR2
 40
0.0
  9
$USERR3
 40
0.0
  9
$USERR4
 40
0.0
  9
$USERR5
 40
0.0
  9
$WORLDVIEW
 70
     1
  9
$SHADEDGE
 70
     3
  9
$SHADEDIF
 70
    70
  9
$TILEMODE
 70
     1
  9
$MAXACTVP
 70
    16
  9
$PINSBASE
 10
0.0
 20
0.0
 30
0.0
  9
$PLIMCHECK
 70
     0
  9
$PEXTMIN
 10
1.000000E+20
 20
1.000000E+20
 30
1.000000E+20
  9
$PEXTMAX
 10
-1.000000E+20
 20
-1.000000E+20
 30
-1.000000E+20
  9
$PLIMMIN
 10
0.0
 20
0.0
  9
$PLIMMAX
 10
12.0
 20
9.0
  9
$UNITMODE
 70
     0
  9
$VISRETAIN
 70
     0
  9
$PLINEGEN
 70
     0
  9
$PSLTSCALE
 70
     0
  9
$TREEDEPTH
 70
  3020
  9
$DWGCODEPAGE
  3
iso8859-1
  0
ENDSEC
  0
SECTION
  2
TABLES
  0
TABLE
  2
VPORT
 70
     2
  0
VPORT
  2
*ACTIVE
 70
     0
 10
0.0
 20
0.0
 11
1.0
 21
1.0
 12
293.35785
 22
37.322
 13
0.0
 23
0.0
 14
1.0
 24
1.0
 15
10.0
 25
10.0
 16
0.0
 26
0.0
 36
1.0
 17
0.0
 27
0.0
 37
0.0
 40
14.85
 41
1.611024
 42
50.0
 43
0.0
 44
0.0
 50
0.0
 51
0.0
 71
     0
 72
   100
 73
     1
 74
     0
 75
     0
 76
     0
 77
     0
 78
     0
  0
ENDTAB
  0
TABLE
  2
LTYPE
 70
     1
  0
LTYPE
  2
CONTINUOUS
 70
    64
  3
Solid line
 72
    65
 73
     0
 40
0.0
  0
ENDTAB
  0
TABLE
  2
LAYER
 70
     7
  0
LAYER
  2
0
 70
    64
 62
     7
  6
CONTINUOUS
  0
LAYER
  2
1
 70
    64
 62
     7
  6
CONTINUOUS
  0
LAYER
  2
7
 70
    64
 62
     7
  6
CONTINUOUS
  0
LAYER
  2
8
 70
    64
 62
     7
  6
CONTINUOUS
  0
LAYER
  2
9
 70
    64
 62
     7
  6
CONTINUOUS
  0
LAYER
  2
22
 70
    64
 62
     7
  6
CONTINUOUS
  0
LAYER
  2
25
 70
    64
 62
     7
  6
CONTINUOUS
  0
ENDTAB
  0
TABLE
  2
STYLE
 70
     2
  0
STYLE
  2
STANDARD
 70
     0
 40
0.0
 41
1.0
 50
0.0
 71
     0
 42
3.5
  3
txt
  4

  0
STYLE
  2
ROMANC
 70
     0
 40
0.0
 41
1.0
 50
0.0
 71
     0
 42
0.2
  3
ROMANC
  4

  0
ENDTAB
  0
TABLE
  2
VIEW
 70
     0
  0
ENDTAB
  0
TABLE
  2
UCS
 70
     0
  0
ENDTAB
  0
TABLE
  2
APPID
 70
     1
  0
APPID
  2
ACAD
 70
    64
  0
ENDTAB
  0
TABLE
  2
DIMSTYLE
 70
     0
  0
ENDTAB
  0
ENDSEC
  0
SECTION
  2
BLOCKS
  0
ENDSEC
  0
SECTION
  2
ENTITIES
  0
TEXT
  8
0
  6
CONTINUOUS
 10
287.049178
 20
41.324
 30
0.0
 40
0.1
  1
2
  7
ROMANC
  0
TEXT
  8
0
  6
CONTINUOUS
 10
283.926
 20
41.768
 30
0.0
 40
0.3
  1
ESCALA  1:50
  7
ROMANC
  0
POLYLINE
  8
0
  6
CONTINUOUS
 66
     1
 10
0.0
 20
0.0
 30
0.0
 70
     1
  0
VERTEX
  8
0
  6
CONTINUOUS
 10
281.396
 20
44.747
 30
0.0
  0
VERTEX
  8
0
  6
CONTINUOUS
 10
291.896
 20
44.747
 30
0.0
  0
VERTEX
  8
0
  6
CONTINUOUS
 10
291.896
 20
29.897
 30
0.0
  0
VERTEX
  8
0
  6
CONTINUOUS
 10
281.396
 20
29.897
 30
0.0
  0
SEQEND
  8
0
  0
ARC
  8
1
  6
CONTINUOUS
 10
286.322
 20
35.11
 30
0.0
 40
0.65
 50
0.0
 51
180.0
  0
TEXT
  8
0
  6
CONTINUOUS
 10
283.922
 20
40.529
 30
0.0
 40
0.3
  1
P = 61 dm
  7
ROMANC
  0
TEXT
  8
0
  6
CONTINUOUS
 10
283.945
 20
41.099
 30
0.0
 40
0.3
  1
S = 235 dm
  7
ROMANC
  0
LINE
  8
1
  6
CONTINUOUS
 10
285.672
 20
33.86
 30
0.0
 11
285.672
 21
35.11
 31
0.0
  0
LINE
  8
1
  6
CONTINUOUS
 10
286.122
 20
33.86
 30
0.0
 11
285.672
 21
33.86
 31
0.0
  0
TEXT
  8
1
  6
CONTINUOUS
 10
285.775
 20
33.31
 30
0.0
 40
0.075
  1
0.45
  7
ROMANC
  0
LINE
  8
1
  6
CONTINUOUS
 10
285.522
 20
33.348
 30
0.0
 11
285.672
 21
33.348
 31
0.0
  0
LINE
  8
1
  6
CONTINUOUS
 10
286.272
 20
33.348
 30
0.0
 11
286.122
 21
33.348
 31
0.0
  0
LINE
  8
1
  6
CONTINUOUS
 10
285.71
 20
33.367
 30
0.0
 11
285.634
 21
33.329
 31
0.0
  0
LINE
  8
1
  6
CONTINUOUS
 10
286.084
 20
33.329
 30
0.0
 11
286.16
 21
33.367
 31
0.0
  0
LINE
  8
1
  6
CONTINUOUS
 10
285.672
 20
33.822
 30
0.0
 11
285.672
 21
33.31
 31
0.0
  0
LINE
  8
1
  6
CONTINUOUS
 10
286.122
 20
33.822
 30
0.0
 11
286.122
 21
33.31
 31
0.0
  0
ARC
  8
1
  6
CONTINUOUS
 10
286.322
 20
33.86
 30
0.0
 40
0.2
 50
180.0
 51
0.0
  0
TEXT
  8
1
  6
CONTINUOUS
 10
286.2
 20
33.452
 30
0.0
 40
0.075
  1
0.40
  7
ROMANC
  0
LINE
  8
1
  6
CONTINUOUS
 10
285.972
 20
33.49
 30
0.0
 11
286.122
 21
33.49
 31
0.0
  0
LINE
  8
1
  6
CONTINUOUS
 10
286.672
 20
33.49
 30
0.0
 11
286.522
 21
33.49
 31
0.0
  0
LINE
  8
1
  6
CONTINUOUS
 10
286.16
 20
33.509
 30
0.0
 11
286.084
 21
33.471
 31
0.0
  0
LINE
  8
1
  6
CONTINUOUS
 10
286.484
 20
33.471
 30
0.0
 11
286.56
 21
33.509
 31
0.0
  0
LINE
  8
1
  6
CONTINUOUS
 10
286.122
 20
33.822
 30
0.0
 11
286.122
 21
33.452
 31
0.0
  0
LINE
  8
1
  6
CONTINUOUS
 10
286.522
 20
33.822
 30
0.0
 11
286.522
 21
33.452
 31
0.0
  0
LINE
  8
1
  6
CONTINUOUS
 10
286.972
 20
33.86
 30
0.0
 11
286.522
 21
33.86
 31
0.0
  0
LINE
  8
1
  6
CONTINUOUS
 10
286.972
 20
35.11
 30
0.0
 11
286.972
 21
33.86
 31
0.0
  0
TEXT
  8
1
  6
CONTINUOUS
 10
286.625
 20
33.31
 30
0.0
 40
0.075
  1
0.45
  7
ROMANC
  0
LINE
  8
1
  6
CONTINUOUS
 10
286.372
 20
33.348
 30
0.0
 11
286.522
 21
33.348
 31
0.0
  0
LINE
  8
1
  6
CONTINUOUS
 10
287.122
 20
33.348
 30
0.0
 11
286.972
 21
33.348
 31
0.0
  0
LINE
  8
1
  6
CONTINUOUS
 10
286.56
 20
33.367
 30
0.0
 11
286.484
 21
33.329
 31
0.0
  0
LINE
  8
1
  6
CONTINUOUS
 10
286.934
 20
33.329
 30
0.0
 11
287.01
 21
33.367
 31
0.0
  0
LINE
  8
1
  6
CONTINUOUS
 10
286.522
 20
33.822
 30
0.0
 11
286.522
 21
33.31
 31
0.0
  0
LINE
  8
1
  6
CONTINUOUS
 10
286.972
 20
33.822
 30
0.0
 11
286.972
 21
33.31
 31
0.0
  0
TEXT
  8
1
  6
CONTINUOUS
 10
286.212
 20
33.122
 30
0.0
 40
0.075
  1
1.30
  7
ROMANC
  0
LINE
  8
1
  6
CONTINUOUS
 10
286.174
 20
33.16
 30
0.0
 11
285.672
 21
33.16
 31
0.0
  0
LINE
  8
1
  6
CONTINUOUS
 10
286.469
 20
33.16
 30
0.0
 11
286.972
 21
33.16
 31
0.0
  0
LINE
  8
1
  6
CONTINUOUS
 10
285.634
 20
33.141
 30
0.0
 11
285.71
 21
33.179
 31
0.0
  0
LINE
  8
1
  6
CONTINUOUS
 10
287.01
 20
33.179
 30
0.0
 11
286.934
 21
33.141
 31
0.0
  0
LINE
  8
1
  6
CONTINUOUS
 10
285.672
 20
33.822
 30
0.0
 11
285.672
 21
33.122
 31
0.0
  0
LINE
  8
1
  6
CONTINUOUS
 10
286.972
 20
33.822
 30
0.0
 11
286.972
 21
33.122
 31
0.0
  0
TEXT
  8
1
  6
CONTINUOUS
 10
287.624
 20
34.6
 30
0.0
 40
0.075
  1
2.10
 50
90.0
  7
ROMANC
  0
LINE
  8
1
  6
CONTINUOUS
 10
287.587
 20
34.562
 30
0.0
 11
287.587
 21
33.66
 31
0.0
  0
LINE
  8
1
  6
CONTINUOUS
 10
287.587
 20
34.857
 30
0.0
 11
287.587
 21
35.76
 31
0.0
  0
LINE
  8
1
  6
CONTINUOUS
 10
287.606
 20
33.622
 30
0.0
 11
287.568
 21
33.698
 31
0.0
  0
LINE
  8
1
  6
CONTINUOUS
 10
287.568
 20
35.798
 30
0.0
 11
287.606
 21
35.722
 31
0.0
  0
LINE
  8
1
  6
CONTINUOUS
 10
286.36
 20
33.66
 30
0.0
 11
287.625
 21
33.66
 31
0.0
  0
LINE
  8
1
  6
CONTINUOUS
 10
286.36
 20
35.76
 30
0.0
 11
287.625
 21
35.76
 31
0.0
  0
TEXT
  8
1
  6
CONTINUOUS
 10
287.184
 20
34.058
 30
0.0
 40
0.075
  1
0.20
 50
90.0
  7
ROMANC
  0
LINE
  8
1
  6
CONTINUOUS
 10
287.146
 20
33.51
 30
0.0
 11
287.146
 21
33.66
 31
0.0
  0
LINE
  8
1
  6
CONTINUOUS
 10
287.146
 20
34.02
 30
0.0
 11
287.146
 21
33.86
 31
0.0
  0
LINE
  8
1
  6
CONTINUOUS
 10
287.127
 20
33.698
 30
0.0
 11
287.165
 21
33.622
 31
0.0
  0
LINE
  8
1
  6
CONTINUOUS
 10
287.165
 20
33.822
 30
0.0
 11
287.127
 21
33.898
 31
0.0
  0
LINE
  8
1
  6
CONTINUOUS
 10
286.36
 20
33.66
 30
0.0
 11
287.184
 21
33.66
 31
0.0
  0
LINE
  8
1
  6
CONTINUOUS
 10
287.01
 20
33.86
 30
0.0
 11
287.184
 21
33.86
 31
0.0
  0
TEXT
  8
1
  6
CONTINUOUS
 10
287.404
 20
34.375
 30
0.0
 40
0.075
  1
1.25
 50
90.0
  7
ROMANC
  0
LINE
  8
1
  6
CONTINUOUS
 10
287.367
 20
34.337
 30
0.0
 11
287.367
 21
33.86
 31
0.0
  0
LINE
  8
1
  6
CONTINUOUS
 10
287.367
 20
34.632
 30
0.0
 11
287.367
 21
35.11
 31
0.0
  0
LINE
  8
1
  6
CONTINUOUS
 10
287.386
 20
33.822
 30
0.0
 11
287.348
 21
33.898
 31
0.0
  0
LINE
  8
1
  6
CONTINUOUS
 10
287.348
 20
35.148
 30
0.0
 11
287.386
 21
35.072
 31
0.0
  0
LINE
  8
1
  6
CONTINUOUS
 10
287.01
 20
33.86
 30
0.0
 11
287.405
 21
33.86
 31
0.0
  0
LINE
  8
1
  6
CONTINUOUS
 10
287.01
 20
35.11
 30
0.0
 11
287.405
 21
35.11
 31
0.0
  0
ARC
  8
1
  6
CONTINUOUS
 10
286.322
 20
35.11
 30
0.0
 40
0.66
 50
0.0
 51
180.0
  0
ARC
  8
1
  6
CONTINUOUS
 10
286.322
 20
35.11
 30
0.0
 40
0.67
 50
0.0
 51
180.0
  0
LINE
  8
1
  6
CONTINUOUS
 10
286.982
 20
35.11
 30
0.0
 11
286.982
 21
33.85
 31
0.0
  0
LINE
  8
1
  6
CONTINUOUS
 10
286.992
 20
35.11
 30
0.0
 11
286.992
 21
33.84
 31
0.0
  0
LINE
  8
1
  6
CONTINUOUS
 10
286.982
 20
33.85
 30
0.0
 11
286.532
 21
33.85
 31
0.0
  0
LINE
  8
1
  6
CONTINUOUS
 10
286.992
 20
33.84
 30
0.0
 11
286.541
 21
33.84
 31
0.0
  0
ARC
  8
1
  6
CONTINUOUS
 10
286.322
 20
33.86
 30
0.0
 40
0.21
 50
182.729403
 51
357.270597
  0
ARC
  8
1
  6
CONTINUOUS
 10
286.322
 20
33.86
 30
0.0
 40
0.22
 50
185.215908
 51
354.784092
  0
LINE
  8
1
  6
CONTINUOUS
 10
286.112
 20
33.85
 30
0.0
 11
285.662
 21
33.85
 31
0.0
  0
LINE
  8
1
  6
CONTINUOUS
 10
286.103
 20
33.84
 30
0.0
 11
285.652
 21
33.84
 31
0.0
  0
LINE
  8
1
  6
CONTINUOUS
 10
285.662
 20
33.85
 30
0.0
 11
285.662
 21
35.11
 31
0.0
  0
LINE
  8
1
  6
CONTINUOUS
 10
285.652
 20
33.84
 30
0.0
 11
285.652
 21
35.11
 31
0.0
  0
TEXT
  8
0
  6
CONTINUOUS
 10
283.926
 20
42.381
 30
0.0
 40
0.3
  1
TIPUS   NT235A
  7
ROMANC
  0
LINE
  8
1
  6
CONTINUOUS
 10
287.386
 20
35.722
 30
0.0
 11
287.348
 21
35.798
 31
0.0
  0
LINE
  8
1
  6
CONTINUOUS
 10
287.367
 20
35.92
 30
0.0
 11
287.367
 21
35.76
 31
0.0
  0
TEXT
  8
1
  6
CONTINUOUS
 10
287.41035
 20
35.324805
 30
0.0
 40
0.075
  1
0.65
 50
90.0
  7
ROMANC
  0
ENDSEC
  0
EOF
