  0
SECTION
  2
HEADER
  9
$ACADVER
  1
AC1009
  9
$INSBASE
 10
105.464027
 20
-4.528761
 30
0.0
  9
$EXTMIN
 10
281.395795
 20
29.897444
 30
0.0
  9
$EXTMAX
 10
291.895795
 20
44.747444
 30
0.0
  9
$LIMMIN
 10
0.0
 20
0.0
  9
$LIMMAX
 10
410.0
 20
287.0
  9
$ORTHOMODE
 70
     1
  9
$REGENMODE
 70
     1
  9
$FILLMODE
 70
     1
  9
$QTEXTMODE
 70
     0
  9
$MIRRTEXT
 70
     1
  9
$DRAGMODE
 70
     2
  9
$LTSCALE
 40
25.0
  9
$OSMODE
 70
    32
  9
$ATTMODE
 70
     1
  9
$TEXTSIZE
 40
0.1
  9
$TRACEWID
 40
1.0
  9
$TEXTSTYLE
  7
ROMANC
  9
$CLAYER
  8
0
  9
$CELTYPE
  6
BYLAYER
  9
$CECOLOR
 62
   256
  9
$DIMSCALE
 40
1.5
  9
$DIMASZ
 40
0.1
  9
$DIMEXO
 40
0.01
  9
$DIMDLI
 40
7.0
  9
$DIMRND
 40
0.0
  9
$DIMDLE
 40
0.0
  9
$DIMEXE
 40
0.01
  9
$DIMTP
 40
0.0
  9
$DIMTM
 40
0.0
  9
$DIMTXT
 40
0.05
  9
$DIMCEN
 40
0.1
  9
$DIMTSZ
 40
0.0
  9
$DIMTOL
 70
     0
  9
$DIMLIM
 70
     0
  9
$DIMTIH
 70
     0
  9
$DIMTOH
 70
     0
  9
$DIMSE1
 70
     0
  9
$DIMSE2
 70
     0
  9
$DIMTAD
 70
     1
  9
$DIMZIN
 70
     0
  9
$DIMBLK
  1

  9
$DIMASO
 70
     1
  9
$DIMSHO
 70
     0
  9
$DIMPOST
  1

  9
$DIMAPOST
  1

  9
$DIMALT
 70
     0
  9
$DIMALTD
 70
     2
  9
$DIMALTF
 40
25.4
  9
$DIMLFAC
 40
1.0
  9
$DIMTOFL
 70
     1
  9
$DIMTVP
 40
0.0
  9
$DIMTIX
 70
     1
  9
$DIMSOXD
 70
     0
  9
$DIMSAH
 70
     0
  9
$DIMBLK1
  1

  9
$DIMBLK2
  1

  9
$DIMSTYLE
  2
*UNNAMED
  9
$DIMCLRD
 70
     0
  9
$DIMCLRE
 70
     0
  9
$DIMCLRT
 70
     0
  9
$DIMTFAC
 40
70.0
  9
$DIMGAP
 40
0.09
  9
$LUNITS
 70
     2
  9
$LUPREC
 70
     2
  9
$SKETCHINC
 40
1.0
  9
$FILLETRAD
 40
0.0
  9
$AUNITS
 70
     0
  9
$AUPREC
 70
     0
  9
$MENU
  1
acad
  9
$ELEVATION
 40
0.0
  9
$PELEVATION
 40
0.0
  9
$THICKNESS
 40
0.0
  9
$LIMCHECK
 70
     0
  9
$BLIPMODE
 70
     0
  9
$CHAMFERA
 40
0.0
  9
$CHAMFERB
 40
0.0
  9
$SKPOLY
 70
     0
  9
$TDCREATE
 40
2450305.554557986
  9
$TDUPDATE
 40
2450910.515715972
  9
$TDINDWG
 40
0.1094606481
  9
$TDUSRTIMER
 40
0.1094606481
  9
$USRTIMER
 70
     1
  9
$ANGBASE
 50
0.0
  9
$ANGDIR
 70
     0
  9
$PDMODE
 70
     0
  9
$PDSIZE
 40
0.0
  9
$PLINEWID
 40
0.0
  9
$COORDS
 70
     2
  9
$SPLFRAME
 70
     0
  9
$SPLINETYPE
 70
     6
  9
$SPLINESEGS
 70
     8
  9
$ATTDIA
 70
     0
  9
$ATTREQ
 70
     1
  9
$HANDLING
 70
     0
  9
$HANDSEED
  5
0
  9
$SURFTAB1
 70
     6
  9
$SURFTAB2
 70
     6
  9
$SURFTYPE
 70
     6
  9
$SURFU
 70
     6
  9
$SURFV
 70
     6
  9
$UCSNAME
  2

  9
$UCSORG
 10
0.0
 20
0.0
 30
0.0
  9
$UCSXDIR
 10
1.0
 20
0.0
 30
0.0
  9
$UCSYDIR
 10
0.0
 20
1.0
 30
0.0
  9
$PUCSNAME
  2

  9
$PUCSORG
 10
0.0
 20
0.0
 30
0.0
  9
$PUCSXDIR
 10
1.0
 20
0.0
 30
0.0
  9
$PUCSYDIR
 10
0.0
 20
1.0
 30
0.0
  9
$USERI1
 70
     0
  9
$USERI2
 70
     0
  9
$USERI3
 70
     0
  9
$USERI4
 70
     0
  9
$USERI5
 70
     0
  9
$USERR1
 40
0.0
  9
$USERR2
 40
0.0
  9
$USERR3
 40
0.0
  9
$USERR4
 40
0.0
  9
$USERR5
 40
0.0
  9
$WORLDVIEW
 70
     1
  9
$SHADEDGE
 70
     3
  9
$SHADEDIF
 70
    70
  9
$TILEMODE
 70
     1
  9
$MAXACTVP
 70
    16
  9
$PINSBASE
 10
0.0
 20
0.0
 30
0.0
  9
$PLIMCHECK
 70
     0
  9
$PEXTMIN
 10
1.000000E+20
 20
1.000000E+20
 30
1.000000E+20
  9
$PEXTMAX
 10
-1.000000E+20
 20
-1.000000E+20
 30
-1.000000E+20
  9
$PLIMMIN
 10
0.0
 20
0.0
  9
$PLIMMAX
 10
12.0
 20
9.0
  9
$UNITMODE
 70
     0
  9
$VISRETAIN
 70
     0
  9
$PLINEGEN
 70
     0
  9
$PSLTSCALE
 70
     0
  9
$TREEDEPTH
 70
  3020
  9
$DWGCODEPAGE
  3
iso8859-1
  0
ENDSEC
  0
SECTION
  2
TABLES
  0
TABLE
  2
VPORT
 70
     2
  0
VPORT
  2
*ACTIVE
 70
     0
 10
0.0
 20
0.0
 11
1.0
 21
1.0
 12
292.715233
 22
37.322444
 13
0.0
 23
0.0
 14
1.0
 24
1.0
 15
10.0
 25
10.0
 16
0.0
 26
0.0
 36
1.0
 17
0.0
 27
0.0
 37
0.0
 40
14.85
 41
1.524503
 42
50.0
 43
0.0
 44
0.0
 50
0.0
 51
0.0
 71
     0
 72
   100
 73
     1
 74
     0
 75
     0
 76
     0
 77
     0
 78
     1
  0
ENDTAB
  0
TABLE
  2
LTYPE
 70
     1
  0
LTYPE
  2
CONTINUOUS
 70
    64
  3
Solid line
 72
    65
 73
     0
 40
0.0
  0
ENDTAB
  0
TABLE
  2
LAYER
 70
     3
  0
LAYER
  2
0
 70
    64
 62
     7
  6
CONTINUOUS
  0
LAYER
  2
MESURA
 70
     0
 62
     7
  6
CONTINUOUS
  0
LAYER
  2
DEFPOINTS
 70
    64
 62
     7
  6
CONTINUOUS
  0
ENDTAB
  0
TABLE
  2
STYLE
 70
     2
  0
STYLE
  2
STANDARD
 70
     0
 40
0.0
 41
1.0
 50
0.0
 71
     0
 42
0.1
  3
txt
  4

  0
STYLE
  2
ROMANC
 70
    64
 40
0.0
 41
1.0
 50
0.0
 71
     0
 42
0.1
  3
romanc
  4

  0
ENDTAB
  0
TABLE
  2
VIEW
 70
     0
  0
ENDTAB
  0
TABLE
  2
UCS
 70
     0
  0
ENDTAB
  0
TABLE
  2
APPID
 70
     1
  0
APPID
  2
ACAD
 70
    64
  0
ENDTAB
  0
TABLE
  2
DIMSTYLE
 70
     1
  0
DIMSTYLE
  2
SILVIA
 70
     0
  3

  4

  5

  6

  7

 40
1.5
 41
0.1
 42
0.01
 43
7.0
 44
0.01
 45
0.0
 46
0.0
 47
0.0
 48
0.0
140
0.05
141
0.1
142
0.0
143
25.4
144
1.0
145
0.0
146
70.0
147
0.09
 71
     0
 72
     0
 73
     0
 74
     0
 75
     0
 76
     0
 77
     1
 78
     0
170
     0
171
     2
172
     1
173
     0
174
     1
175
     0
176
     0
177
     0
178
     0
  0
ENDTAB
  0
ENDSEC
  0
SECTION
  2
BLOCKS
  0
BLOCK
  8
0
  2
*D1
 70
    65
 10
0.0
 20
0.0
 30
0.0
  3
*D
  0
LINE
  8
0
  6
BYBLOCK
 62
     0
 10
286.110738
 20
34.12426
 30
0.0
 11
286.110738
 21
33.697503
 31
0.0
  0
LINE
  8
0
  6
BYBLOCK
 62
     0
 10
287.310738
 20
34.12426
 30
0.0
 11
287.310738
 21
33.697503
 31
0.0
  0
LINE
  8
0
  6
BYBLOCK
 62
     0
 10
286.260738
 20
33.712503
 30
0.0
 11
287.160738
 21
33.712503
 31
0.0
  0
SOLID
  8
0
  6
BYBLOCK
 62
     0
 10
286.260738
 20
33.737503
 30
0.0
 11
286.260738
 21
33.687503
 31
0.0
 12
286.110738
 22
33.712503
 32
0.0
 13
286.110738
 23
33.712503
 33
0.0
  0
SOLID
  8
0
  6
BYBLOCK
 62
     0
 10
287.160738
 20
33.737503
 30
0.0
 11
287.160738
 21
33.687503
 31
0.0
 12
287.310738
 22
33.712503
 32
0.0
 13
287.310738
 23
33.712503
 33
0.0
  0
TEXT
  8
0
  6
BYBLOCK
 62
     0
 10
286.580381
 20
33.750003
 30
0.0
 40
0.075
  1
1.20
  7
ROMANC
 72
     1
 11
286.710738
 21
33.787503
 31
0.0
 73
     2
  0
POINT
  8
DEFPOINTS
  6
BYBLOCK
 62
     0
 10
286.110738
 20
34.13926
 30
0.0
  0
POINT
  8
DEFPOINTS
  6
BYBLOCK
 62
     0
 10
287.310738
 20
34.13926
 30
0.0
  0
POINT
  8
DEFPOINTS
  6
BYBLOCK
 62
     0
 10
287.310738
 20
33.712503
 30
0.0
  0
ENDBLK
  8
0
  0
BLOCK
  8
0
  2
*D2
 70
    65
 10
0.0
 20
0.0
 30
0.0
  3
*D
  0
LINE
  8
0
  6
BYBLOCK
 62
     0
 10
285.010738
 20
34.52426
 30
0.0
 11
285.010738
 21
33.697503
 31
0.0
  0
LINE
  8
0
  6
BYBLOCK
 62
     0
 10
286.110738
 20
34.12426
 30
0.0
 11
286.110738
 21
33.697503
 31
0.0
  0
LINE
  8
0
  6
BYBLOCK
 62
     0
 10
285.160738
 20
33.712503
 30
0.0
 11
285.960738
 21
33.712503
 31
0.0
  0
SOLID
  8
0
  6
BYBLOCK
 62
     0
 10
285.160738
 20
33.737503
 30
0.0
 11
285.160738
 21
33.687503
 31
0.0
 12
285.010738
 22
33.712503
 32
0.0
 13
285.010738
 23
33.712503
 33
0.0
  0
SOLID
  8
0
  6
BYBLOCK
 62
     0
 10
285.960738
 20
33.737503
 30
0.0
 11
285.960738
 21
33.687503
 31
0.0
 12
286.110738
 22
33.712503
 32
0.0
 13
286.110738
 23
33.712503
 33
0.0
  0
TEXT
  8
0
  6
BYBLOCK
 62
     0
 10
285.430381
 20
33.750003
 30
0.0
 40
0.075
  1
1.10
  7
ROMANC
 72
     1
 11
285.560738
 21
33.787503
 31
0.0
 73
     2
  0
POINT
  8
DEFPOINTS
  6
BYBLOCK
 62
     0
 10
285.010738
 20
34.53926
 30
0.0
  0
POINT
  8
DEFPOINTS
  6
BYBLOCK
 62
     0
 10
286.110738
 20
34.13926
 30
0.0
  0
POINT
  8
DEFPOINTS
  6
BYBLOCK
 62
     0
 10
286.110738
 20
33.712503
 30
0.0
  0
ENDBLK
  8
0
  0
BLOCK
  8
0
  2
*D4
 70
    65
 10
0.0
 20
0.0
 30
0.0
  3
*D
  0
LINE
  8
0
  6
BYBLOCK
 62
     0
 10
284.995738
 20
34.53926
 30
0.0
 11
284.582265
 21
34.53926
 31
0.0
  0
LINE
  8
0
  6
BYBLOCK
 62
     0
 10
286.095738
 20
34.13926
 30
0.0
 11
284.582265
 21
34.13926
 31
0.0
  0
LINE
  8
0
  6
BYBLOCK
 62
     0
 10
284.597265
 20
34.68926
 30
0.0
 11
284.597265
 21
34.83926
 31
0.0
  0
LINE
  8
0
  6
BYBLOCK
 62
     0
 10
284.597265
 20
33.98926
 30
0.0
 11
284.597265
 21
33.83926
 31
0.0
  0
SOLID
  8
0
  6
BYBLOCK
 62
     0
 10
284.572265
 20
34.68926
 30
0.0
 11
284.622265
 21
34.68926
 31
0.0
 12
284.597265
 22
34.53926
 32
0.0
 13
284.597265
 23
34.53926
 33
0.0
  0
SOLID
  8
0
  6
BYBLOCK
 62
     0
 10
284.572265
 20
33.98926
 30
0.0
 11
284.622265
 21
33.98926
 31
0.0
 12
284.597265
 22
34.13926
 32
0.0
 13
284.597265
 23
34.13926
 33
0.0
  0
LINE
  8
0
  6
BYBLOCK
 62
     0
 10
284.597265
 20
34.53926
 30
0.0
 11
284.597265
 21
34.13926
 31
0.0
  0
TEXT
  8
0
  6
BYBLOCK
 62
     0
 10
284.559765
 20
34.21426
 30
0.0
 40
0.075
  1
0.40
 50
90.0
  7
ROMANC
 72
     1
 11
284.522265
 21
34.33926
 31
0.0
 73
     2
  0
POINT
  8
DEFPOINTS
  6
BYBLOCK
 62
     0
 10
285.010738
 20
34.53926
 30
0.0
  0
POINT
  8
DEFPOINTS
  6
BYBLOCK
 62
     0
 10
286.110738
 20
34.13926
 30
0.0
  0
POINT
  8
DEFPOINTS
  6
BYBLOCK
 62
     0
 10
284.597265
 20
34.13926
 30
0.0
  0
ENDBLK
  8
0
  0
BLOCK
  8
0
  2
*D5
 70
    65
 10
0.0
 20
0.0
 30
0.0
  3
*D
  0
LINE
  8
0
  6
BYBLOCK
 62
     0
 10
284.995738
 20
35.53926
 30
0.0
 11
284.582265
 21
35.53926
 31
0.0
  0
LINE
  8
0
  6
BYBLOCK
 62
     0
 10
284.995738
 20
34.53926
 30
0.0
 11
284.582265
 21
34.53926
 31
0.0
  0
LINE
  8
0
  6
BYBLOCK
 62
     0
 10
284.597265
 20
35.38926
 30
0.0
 11
284.597265
 21
34.68926
 31
0.0
  0
SOLID
  8
0
  6
BYBLOCK
 62
     0
 10
284.572265
 20
35.38926
 30
0.0
 11
284.622265
 21
35.38926
 31
0.0
 12
284.597265
 22
35.53926
 32
0.0
 13
284.597265
 23
35.53926
 33
0.0
  0
SOLID
  8
0
  6
BYBLOCK
 62
     0
 10
284.572265
 20
34.68926
 30
0.0
 11
284.622265
 21
34.68926
 31
0.0
 12
284.597265
 22
34.53926
 32
0.0
 13
284.597265
 23
34.53926
 33
0.0
  0
TEXT
  8
0
  6
BYBLOCK
 62
     0
 10
284.559765
 20
34.908903
 30
0.0
 40
0.075
  1
1.00
 50
90.0
  7
ROMANC
 72
     1
 11
284.522265
 21
35.03926
 31
0.0
 73
     2
  0
POINT
  8
DEFPOINTS
  6
BYBLOCK
 62
     0
 10
285.010738
 20
35.53926
 30
0.0
  0
POINT
  8
DEFPOINTS
  6
BYBLOCK
 62
     0
 10
285.010738
 20
34.53926
 30
0.0
  0
POINT
  8
DEFPOINTS
  6
BYBLOCK
 62
     0
 10
284.597265
 20
34.53926
 30
0.0
  0
ENDBLK
  8
0
  0
BLOCK
  8
0
  2
*D6
 70
    65
 10
0.0
 20
0.0
 30
0.0
  3
*D
  0
LINE
  8
0
  6
BYBLOCK
 62
     0
 10
286.145738
 20
36.78926
 30
0.0
 11
284.180061
 21
36.78926
 31
0.0
  0
LINE
  8
0
  6
BYBLOCK
 62
     0
 10
286.145738
 20
34.13926
 30
0.0
 11
284.180061
 21
34.13926
 31
0.0
  0
LINE
  8
0
  6
BYBLOCK
 62
     0
 10
284.195061
 20
36.63926
 30
0.0
 11
284.195061
 21
34.28926
 31
0.0
  0
SOLID
  8
0
  6
BYBLOCK
 62
     0
 10
284.170061
 20
36.63926
 30
0.0
 11
284.220061
 21
36.63926
 31
0.0
 12
284.195061
 22
36.78926
 32
0.0
 13
284.195061
 23
36.78926
 33
0.0
  0
SOLID
  8
0
  6
BYBLOCK
 62
     0
 10
284.170061
 20
34.28926
 30
0.0
 11
284.220061
 21
34.28926
 31
0.0
 12
284.195061
 22
34.13926
 32
0.0
 13
284.195061
 23
34.13926
 33
0.0
  0
TEXT
  8
0
  6
BYBLOCK
 62
     0
 10
284.157561
 20
35.33926
 30
0.0
 40
0.075
  1
2.65
 50
90.0
  7
ROMANC
 72
     1
 11
284.120061
 21
35.46426
 31
0.0
 73
     2
  0
POINT
  8
DEFPOINTS
  6
BYBLOCK
 62
     0
 10
286.160738
 20
36.78926
 30
0.0
  0
POINT
  8
DEFPOINTS
  6
BYBLOCK
 62
     0
 10
286.160738
 20
34.13926
 30
0.0
  0
POINT
  8
DEFPOINTS
  6
BYBLOCK
 62
     0
 10
284.195061
 20
34.13926
 30
0.0
  0
ENDBLK
  8
0
  0
BLOCK
  8
0
  2
*D7
 70
    65
 10
0.0
 20
0.0
 30
0.0
  3
*D
  0
LINE
  8
0
  6
BYBLOCK
 62
     0
 10
285.36447
 20
35.55426
 30
0.0
 11
285.36447
 21
35.554887
 31
0.0
  0
LINE
  8
0
  6
BYBLOCK
 62
     0
 10
287.66447
 20
35.55426
 30
0.0
 11
287.66447
 21
35.554887
 31
0.0
  0
LINE
  8
0
  6
BYBLOCK
 62
     0
 10
285.51447
 20
35.539887
 30
0.0
 11
287.51447
 21
35.539887
 31
0.0
  0
SOLID
  8
0
  6
BYBLOCK
 62
     0
 10
285.51447
 20
35.564887
 30
0.0
 11
285.51447
 21
35.514887
 31
0.0
 12
285.36447
 22
35.539887
 32
0.0
 13
285.36447
 23
35.539887
 33
0.0
  0
SOLID
  8
0
  6
BYBLOCK
 62
     0
 10
287.51447
 20
35.564887
 30
0.0
 11
287.51447
 21
35.514887
 31
0.0
 12
287.66447
 22
35.539887
 32
0.0
 13
287.66447
 23
35.539887
 33
0.0
  0
TEXT
  8
0
  6
BYBLOCK
 62
     0
 10
286.38947
 20
35.577387
 30
0.0
 40
0.075
  1
2.30
  7
ROMANC
 72
     1
 11
286.51447
 21
35.614887
 31
0.0
 73
     2
  0
POINT
  8
DEFPOINTS
  6
BYBLOCK
 62
     0
 10
285.36447
 20
35.53926
 30
0.0
  0
POINT
  8
DEFPOINTS
  6
BYBLOCK
 62
     0
 10
287.66447
 20
35.53926
 30
0.0
  0
POINT
  8
DEFPOINTS
  6
BYBLOCK
 62
     0
 10
287.66447
 20
35.539887
 30
0.0
  0
ENDBLK
  8
0
  0
BLOCK
  8
0
  2
*D8
 70
    65
 10
0.0
 20
0.0
 30
0.0
  3
*D
  0
LINE
  8
0
  6
BYBLOCK
 62
     0
 10
284.191219
 20
35.506272
 30
0.0
 11
284.191219
 21
35.506272
 31
0.0
  0
LINE
  8
0
  6
BYBLOCK
 62
     0
 10
285.391219
 20
35.506272
 30
0.0
 11
285.391219
 21
35.506272
 31
0.0
  0
LINE
  8
0
  6
BYBLOCK
 62
     0
 10
284.341219
 20
35.491272
 30
0.0
 11
285.241219
 21
35.491272
 31
0.0
  0
SOLID
  8
0
  6
BYBLOCK
 62
     0
 10
284.341219
 20
35.516272
 30
0.0
 11
284.341219
 21
35.466272
 31
0.0
 12
284.191219
 22
35.491272
 32
0.0
 13
284.191219
 23
35.491272
 33
0.0
  0
SOLID
  8
0
  6
BYBLOCK
 62
     0
 10
285.241219
 20
35.516272
 30
0.0
 11
285.241219
 21
35.466272
 31
0.0
 12
285.391219
 22
35.491272
 32
0.0
 13
285.391219
 23
35.491272
 33
0.0
  0
TEXT
  8
0
  6
BYBLOCK
 62
     0
 10
284.660862
 20
35.528772
 30
0.0
 40
0.075
  1
1.20
  7
ROMANC
 72
     1
 11
284.791219
 21
35.566272
 31
0.0
 73
     2
  0
POINT
  8
DEFPOINTS
  6
BYBLOCK
 62
     0
 10
284.191219
 20
35.491272
 30
0.0
  0
POINT
  8
DEFPOINTS
  6
BYBLOCK
 62
     0
 10
285.391219
 20
35.491272
 30
0.0
  0
POINT
  8
DEFPOINTS
  6
BYBLOCK
 62
     0
 10
285.391219
 20
35.491272
 30
0.0
  0
ENDBLK
  8
0
  0
BLOCK
  8
0
  2
*D9
 70
    65
 10
0.0
 20
0.0
 30
0.0
  3
*D
  0
LINE
  8
0
  6
BYBLOCK
 62
     0
 10
284.591219
 20
34.226272
 30
0.0
 11
284.591219
 21
33.782096
 31
0.0
  0
LINE
  8
0
  6
BYBLOCK
 62
     0
 10
284.991219
 20
34.226272
 30
0.0
 11
284.991219
 21
33.782096
 31
0.0
  0
LINE
  8
0
  6
BYBLOCK
 62
     0
 10
284.441219
 20
33.797096
 30
0.0
 11
284.291219
 21
33.797096
 31
0.0
  0
LINE
  8
0
  6
BYBLOCK
 62
     0
 10
285.141219
 20
33.797096
 30
0.0
 11
285.291219
 21
33.797096
 31
0.0
  0
SOLID
  8
0
  6
BYBLOCK
 62
     0
 10
284.441219
 20
33.822096
 30
0.0
 11
284.441219
 21
33.772096
 31
0.0
 12
284.591219
 22
33.797096
 32
0.0
 13
284.591219
 23
33.797096
 33
0.0
  0
SOLID
  8
0
  6
BYBLOCK
 62
     0
 10
285.141219
 20
33.822096
 30
0.0
 11
285.141219
 21
33.772096
 31
0.0
 12
284.991219
 22
33.797096
 32
0.0
 13
284.991219
 23
33.797096
 33
0.0
  0
LINE
  8
0
  6
BYBLOCK
 62
     0
 10
284.591219
 20
33.797096
 30
0.0
 11
284.991219
 21
33.797096
 31
0.0
  0
TEXT
  8
0
  6
BYBLOCK
 62
     0
 10
284.666219
 20
33.834596
 30
0.0
 40
0.075
  1
0.40
  7
ROMANC
 72
     1
 11
284.791219
 21
33.872096
 31
0.0
 73
     2
  0
POINT
  8
DEFPOINTS
  6
BYBLOCK
 62
     0
 10
284.591219
 20
34.241272
 30
0.0
  0
POINT
  8
DEFPOINTS
  6
BYBLOCK
 62
     0
 10
284.991219
 20
34.241272
 30
0.0
  0
POINT
  8
DEFPOINTS
  6
BYBLOCK
 62
     0
 10
284.991219
 20
33.797096
 30
0.0
  0
ENDBLK
  8
0
  0
BLOCK
  8
0
  2
*D10
 70
    65
 10
0.0
 20
0.0
 30
0.0
  3
*D
  0
LINE
  8
0
  6
BYBLOCK
 62
     0
 10
284.231219
 20
34.241272
 30
0.0
 11
284.306219
 21
34.241272
 31
0.0
  0
LINE
  8
0
  6
BYBLOCK
 62
     0
 10
284.576219
 20
34.241272
 30
0.0
 11
284.276219
 21
34.241272
 31
0.0
  0
LINE
  8
0
  6
BYBLOCK
 62
     0
 10
284.291219
 20
34.091272
 30
0.0
 11
284.291219
 21
33.941272
 31
0.0
  0
LINE
  8
0
  6
BYBLOCK
 62
     0
 10
284.291219
 20
34.391272
 30
0.0
 11
284.291219
 21
34.541272
 31
0.0
  0
SOLID
  8
0
  6
BYBLOCK
 62
     0
 10
284.266219
 20
34.091272
 30
0.0
 11
284.316219
 21
34.091272
 31
0.0
 12
284.291219
 22
34.241272
 32
0.0
 13
284.291219
 23
34.241272
 33
0.0
  0
SOLID
  8
0
  6
BYBLOCK
 62
     0
 10
284.266219
 20
34.391272
 30
0.0
 11
284.316219
 21
34.391272
 31
0.0
 12
284.291219
 22
34.241272
 32
0.0
 13
284.291219
 23
34.241272
 33
0.0
  0
LINE
  8
0
  6
BYBLOCK
 62
     0
 10
284.291219
 20
34.241272
 30
0.0
 11
284.291219
 21
34.241272
 31
0.0
  0
TEXT
  8
0
  6
BYBLOCK
 62
     0
 10
284.253719
 20
34.116272
 30
0.0
 40
0.075
  1
0.00
 50
90.0
  7
ROMANC
 72
     1
 11
284.216219
 21
34.241272
 31
0.0
 73
     2
  0
POINT
  8
DEFPOINTS
  6
BYBLOCK
 62
     0
 10
284.216219
 20
34.241272
 30
0.0
  0
POINT
  8
DEFPOINTS
  6
BYBLOCK
 62
     0
 10
284.591219
 20
34.241272
 30
0.0
  0
POINT
  8
DEFPOINTS
  6
BYBLOCK
 62
     0
 10
284.291219
 20
34.241272
 30
0.0
  0
ENDBLK
  8
0
  0
BLOCK
  8
0
  2
*D11
 70
    65
 10
0.0
 20
0.0
 30
0.0
  3
*D
  0
LINE
  8
0
  6
BYBLOCK
 62
     0
 10
284.216219
 20
34.226272
 30
0.0
 11
284.216219
 21
33.782096
 31
0.0
  0
LINE
  8
0
  6
BYBLOCK
 62
     0
 10
284.591219
 20
34.226272
 30
0.0
 11
284.591219
 21
33.782096
 31
0.0
  0
LINE
  8
0
  6
BYBLOCK
 62
     0
 10
284.066219
 20
33.797096
 30
0.0
 11
283.916219
 21
33.797096
 31
0.0
  0
LINE
  8
0
  6
BYBLOCK
 62
     0
 10
284.741219
 20
33.797096
 30
0.0
 11
284.891219
 21
33.797096
 31
0.0
  0
SOLID
  8
0
  6
BYBLOCK
 62
     0
 10
284.066219
 20
33.822096
 30
0.0
 11
284.066219
 21
33.772096
 31
0.0
 12
284.216219
 22
33.797096
 32
0.0
 13
284.216219
 23
33.797096
 33
0.0
  0
SOLID
  8
0
  6
BYBLOCK
 62
     0
 10
284.741219
 20
33.822096
 30
0.0
 11
284.741219
 21
33.772096
 31
0.0
 12
284.591219
 22
33.797096
 32
0.0
 13
284.591219
 23
33.797096
 33
0.0
  0
LINE
  8
0
  6
BYBLOCK
 62
     0
 10
284.216219
 20
33.797096
 30
0.0
 11
284.591219
 21
33.797096
 31
0.0
  0
TEXT
  8
0
  6
BYBLOCK
 62
     0
 10
284.278719
 20
33.834596
 30
0.0
 40
0.075
  1
0.38
  7
ROMANC
 72
     1
 11
284.403719
 21
33.872096
 31
0.0
 73
     2
  0
POINT
  8
DEFPOINTS
  6
BYBLOCK
 62
     0
 10
284.216219
 20
34.241272
 30
0.0
  0
POINT
  8
DEFPOINTS
  6
BYBLOCK
 62
     0
 10
284.591219
 20
34.241272
 30
0.0
  0
POINT
  8
DEFPOINTS
  6
BYBLOCK
 62
     0
 10
284.591219
 20
33.797096
 30
0.0
  0
ENDBLK
  8
0
  0
BLOCK
  8
0
  2
*D12
 70
    65
 10
0.0
 20
0.0
 30
0.0
  3
*D
  0
LINE
  8
0
  6
BYBLOCK
 62
     0
 10
284.591219
 20
34.226272
 30
0.0
 11
284.591219
 21
33.868618
 31
0.0
  0
LINE
  8
0
  6
BYBLOCK
 62
     0
 10
284.991219
 20
34.226272
 30
0.0
 11
284.991219
 21
33.868618
 31
0.0
  0
LINE
  8
0
  6
BYBLOCK
 62
     0
 10
284.441219
 20
33.883618
 30
0.0
 11
284.291219
 21
33.883618
 31
0.0
  0
LINE
  8
0
  6
BYBLOCK
 62
     0
 10
285.141219
 20
33.883618
 30
0.0
 11
285.291219
 21
33.883618
 31
0.0
  0
SOLID
  8
0
  6
BYBLOCK
 62
     0
 10
284.441219
 20
33.908618
 30
0.0
 11
284.441219
 21
33.858618
 31
0.0
 12
284.591219
 22
33.883618
 32
0.0
 13
284.591219
 23
33.883618
 33
0.0
  0
SOLID
  8
0
  6
BYBLOCK
 62
     0
 10
285.141219
 20
33.908618
 30
0.0
 11
285.141219
 21
33.858618
 31
0.0
 12
284.991219
 22
33.883618
 32
0.0
 13
284.991219
 23
33.883618
 33
0.0
  0
LINE
  8
0
  6
BYBLOCK
 62
     0
 10
284.591219
 20
33.883618
 30
0.0
 11
284.991219
 21
33.883618
 31
0.0
  0
TEXT
  8
0
  6
BYBLOCK
 62
     0
 10
284.666219
 20
33.921118
 30
0.0
 40
0.075
  1
0.40
  7
ROMANC
 72
     1
 11
284.791219
 21
33.958618
 31
0.0
 73
     2
  0
POINT
  8
DEFPOINTS
  6
BYBLOCK
 62
     0
 10
284.591219
 20
34.241272
 30
0.0
  0
POINT
  8
DEFPOINTS
  6
BYBLOCK
 62
     0
 10
284.991219
 20
34.241272
 30
0.0
  0
POINT
  8
DEFPOINTS
  6
BYBLOCK
 62
     0
 10
284.991219
 20
33.883618
 30
0.0
  0
ENDBLK
  8
0
  0
BLOCK
  8
0
  2
*D13
 70
    65
 10
0.0
 20
0.0
 30
0.0
  3
*D
  0
LINE
  8
0
  6
BYBLOCK
 62
     0
 10
284.591219
 20
34.226272
 30
0.0
 11
284.591219
 21
33.810937
 31
0.0
  0
LINE
  8
0
  6
BYBLOCK
 62
     0
 10
284.991219
 20
34.226272
 30
0.0
 11
284.991219
 21
33.810937
 31
0.0
  0
LINE
  8
0
  6
BYBLOCK
 62
     0
 10
284.441219
 20
33.825937
 30
0.0
 11
284.291219
 21
33.825937
 31
0.0
  0
LINE
  8
0
  6
BYBLOCK
 62
     0
 10
285.141219
 20
33.825937
 30
0.0
 11
285.291219
 21
33.825937
 31
0.0
  0
SOLID
  8
0
  6
BYBLOCK
 62
     0
 10
284.441219
 20
33.850937
 30
0.0
 11
284.441219
 21
33.800937
 31
0.0
 12
284.591219
 22
33.825937
 32
0.0
 13
284.591219
 23
33.825937
 33
0.0
  0
SOLID
  8
0
  6
BYBLOCK
 62
     0
 10
285.141219
 20
33.850937
 30
0.0
 11
285.141219
 21
33.800937
 31
0.0
 12
284.991219
 22
33.825937
 32
0.0
 13
284.991219
 23
33.825937
 33
0.0
  0
LINE
  8
0
  6
BYBLOCK
 62
     0
 10
284.591219
 20
33.825937
 30
0.0
 11
284.991219
 21
33.825937
 31
0.0
  0
TEXT
  8
0
  6
BYBLOCK
 62
     0
 10
284.666219
 20
33.863437
 30
0.0
 40
0.075
  1
0.40
  7
ROMANC
 72
     1
 11
284.791219
 21
33.900937
 31
0.0
 73
     2
  0
POINT
  8
DEFPOINTS
  6
BYBLOCK
 62
     0
 10
284.591219
 20
34.241272
 30
0.0
  0
POINT
  8
DEFPOINTS
  6
BYBLOCK
 62
     0
 10
284.991219
 20
34.241272
 30
0.0
  0
POINT
  8
DEFPOINTS
  6
BYBLOCK
 62
     0
 10
284.991219
 20
33.825937
 30
0.0
  0
ENDBLK
  8
0
  0
BLOCK
  8
0
  2
*D14
 70
    65
 10
0.0
 20
0.0
 30
0.0
  3
*D
  0
LINE
  8
0
  6
BYBLOCK
 62
     0
 10
284.216219
 20
34.226272
 30
0.0
 11
284.216219
 21
33.499457
 31
0.0
  0
LINE
  8
0
  6
BYBLOCK
 62
     0
 10
285.366219
 20
34.226272
 30
0.0
 11
285.366219
 21
33.499457
 31
0.0
  0
LINE
  8
0
  6
BYBLOCK
 62
     0
 10
284.366219
 20
33.514457
 30
0.0
 11
285.216219
 21
33.514457
 31
0.0
  0
SOLID
  8
0
  6
BYBLOCK
 62
     0
 10
284.366219
 20
33.539457
 30
0.0
 11
284.366219
 21
33.489457
 31
0.0
 12
284.216219
 22
33.514457
 32
0.0
 13
284.216219
 23
33.514457
 33
0.0
  0
SOLID
  8
0
  6
BYBLOCK
 62
     0
 10
285.216219
 20
33.539457
 30
0.0
 11
285.216219
 21
33.489457
 31
0.0
 12
285.366219
 22
33.514457
 32
0.0
 13
285.366219
 23
33.514457
 33
0.0
  0
TEXT
  8
0
  6
BYBLOCK
 62
     0
 10
284.660862
 20
33.551957
 30
0.0
 40
0.075
  1
1.15
  7
ROMANC
 72
     1
 11
284.791219
 21
33.589457
 31
0.0
 73
     2
  0
POINT
  8
DEFPOINTS
  6
BYBLOCK
 62
     0
 10
284.216219
 20
34.241272
 30
0.0
  0
POINT
  8
DEFPOINTS
  6
BYBLOCK
 62
     0
 10
285.366219
 20
34.241272
 30
0.0
  0
POINT
  8
DEFPOINTS
  6
BYBLOCK
 62
     0
 10
285.366219
 20
33.514457
 30
0.0
  0
ENDBLK
  8
0
  0
BLOCK
  8
0
  2
*D15
 70
    65
 10
0.0
 20
0.0
 30
0.0
  3
*D
  0
LINE
  8
0
  6
BYBLOCK
 62
     0
 10
284.806219
 20
34.091272
 30
0.0
 11
285.650827
 21
34.091272
 31
0.0
  0
LINE
  8
0
  6
BYBLOCK
 62
     0
 10
285.006219
 20
34.241272
 30
0.0
 11
285.650827
 21
34.241272
 31
0.0
  0
LINE
  8
0
  6
BYBLOCK
 62
     0
 10
285.635827
 20
33.941272
 30
0.0
 11
285.635827
 21
33.791272
 31
0.0
  0
LINE
  8
0
  6
BYBLOCK
 62
     0
 10
285.635827
 20
34.391272
 30
0.0
 11
285.635827
 21
34.541272
 31
0.0
  0
SOLID
  8
0
  6
BYBLOCK
 62
     0
 10
285.610827
 20
33.941272
 30
0.0
 11
285.660827
 21
33.941272
 31
0.0
 12
285.635827
 22
34.091272
 32
0.0
 13
285.635827
 23
34.091272
 33
0.0
  0
SOLID
  8
0
  6
BYBLOCK
 62
     0
 10
285.610827
 20
34.391272
 30
0.0
 11
285.660827
 21
34.391272
 31
0.0
 12
285.635827
 22
34.241272
 32
0.0
 13
285.635827
 23
34.241272
 33
0.0
  0
LINE
  8
0
  6
BYBLOCK
 62
     0
 10
285.635827
 20
34.091272
 30
0.0
 11
285.635827
 21
34.241272
 31
0.0
  0
TEXT
  8
0
  6
BYBLOCK
 62
     0
 10
285.598327
 20
34.041272
 30
0.0
 40
0.075
  1
0.15
 50
90.0
  7
ROMANC
 72
     1
 11
285.560827
 21
34.166272
 31
0.0
 73
     2
  0
POINT
  8
DEFPOINTS
  6
BYBLOCK
 62
     0
 10
284.791219
 20
34.091272
 30
0.0
  0
POINT
  8
DEFPOINTS
  6
BYBLOCK
 62
     0
 10
284.991219
 20
34.241272
 30
0.0
  0
POINT
  8
DEFPOINTS
  6
BYBLOCK
 62
     0
 10
285.635827
 20
34.241272
 30
0.0
  0
ENDBLK
  8
0
  0
BLOCK
  8
0
  2
*D16
 70
    65
 10
0.0
 20
0.0
 30
0.0
  3
*D
  0
LINE
  8
0
  6
BYBLOCK
 62
     0
 10
284.806219
 20
34.091272
 30
0.0
 11
285.650827
 21
34.091272
 31
0.0
  0
LINE
  8
0
  6
BYBLOCK
 62
     0
 10
285.006219
 20
34.241272
 30
0.0
 11
285.650827
 21
34.241272
 31
0.0
  0
LINE
  8
0
  6
BYBLOCK
 62
     0
 10
285.635827
 20
33.941272
 30
0.0
 11
285.635827
 21
33.791272
 31
0.0
  0
LINE
  8
0
  6
BYBLOCK
 62
     0
 10
285.635827
 20
34.391272
 30
0.0
 11
285.635827
 21
34.541272
 31
0.0
  0
SOLID
  8
0
  6
BYBLOCK
 62
     0
 10
285.610827
 20
33.941272
 30
0.0
 11
285.660827
 21
33.941272
 31
0.0
 12
285.635827
 22
34.091272
 32
0.0
 13
285.635827
 23
34.091272
 33
0.0
  0
SOLID
  8
0
  6
BYBLOCK
 62
     0
 10
285.610827
 20
34.391272
 30
0.0
 11
285.660827
 21
34.391272
 31
0.0
 12
285.635827
 22
34.241272
 32
0.0
 13
285.635827
 23
34.241272
 33
0.0
  0
LINE
  8
0
  6
BYBLOCK
 62
     0
 10
285.635827
 20
34.091272
 30
0.0
 11
285.635827
 21
34.241272
 31
0.0
  0
TEXT
  8
0
  6
BYBLOCK
 62
     0
 10
285.598327
 20
33.798995
 30
0.0
 40
0.075
  1
0.15
 50
90.0
  7
ROMANC
 72
     1
 11
285.560827
 21
33.923995
 31
0.0
 73
     2
  0
POINT
  8
DEFPOINTS
  6
BYBLOCK
 62
     0
 10
284.791219
 20
34.091272
 30
0.0
  0
POINT
  8
DEFPOINTS
  6
BYBLOCK
 62
     0
 10
284.991219
 20
34.241272
 30
0.0
  0
POINT
  8
DEFPOINTS
  6
BYBLOCK
 62
     0
 10
285.635827
 20
34.241272
 30
0.0
  0
ENDBLK
  8
0
  0
BLOCK
  8
0
  2
*D17
 70
    65
 10
0.0
 20
0.0
 30
0.0
  3
*D
  0
LINE
  8
0
  6
BYBLOCK
 62
     0
 10
285.381219
 20
34.241272
 30
0.0
 11
285.650827
 21
34.241272
 31
0.0
  0
LINE
  8
0
  6
BYBLOCK
 62
     0
 10
285.406219
 20
35.491272
 30
0.0
 11
285.650827
 21
35.491272
 31
0.0
  0
LINE
  8
0
  6
BYBLOCK
 62
     0
 10
285.635827
 20
34.391272
 30
0.0
 11
285.635827
 21
35.341272
 31
0.0
  0
SOLID
  8
0
  6
BYBLOCK
 62
     0
 10
285.610827
 20
34.391272
 30
0.0
 11
285.660827
 21
34.391272
 31
0.0
 12
285.635827
 22
34.241272
 32
0.0
 13
285.635827
 23
34.241272
 33
0.0
  0
SOLID
  8
0
  6
BYBLOCK
 62
     0
 10
285.610827
 20
35.341272
 30
0.0
 11
285.660827
 21
35.341272
 31
0.0
 12
285.635827
 22
35.491272
 32
0.0
 13
285.635827
 23
35.491272
 33
0.0
  0
TEXT
  8
0
  6
BYBLOCK
 62
     0
 10
285.598327
 20
34.735914
 30
0.0
 40
0.075
  1
1.25
 50
90.0
  7
ROMANC
 72
     1
 11
285.560827
 21
34.866272
 31
0.0
 73
     2
  0
POINT
  8
DEFPOINTS
  6
BYBLOCK
 62
     0
 10
285.366219
 20
34.241272
 30
0.0
  0
POINT
  8
DEFPOINTS
  6
BYBLOCK
 62
     0
 10
285.391219
 20
35.491272
 30
0.0
  0
POINT
  8
DEFPOINTS
  6
BYBLOCK
 62
     0
 10
285.635827
 20
35.491272
 30
0.0
  0
ENDBLK
  8
0
  0
BLOCK
  8
0
  2
*D18
 70
    65
 10
0.0
 20
0.0
 30
0.0
  3
*D
  0
LINE
  8
0
  6
BYBLOCK
 62
     0
 10
284.806219
 20
36.291272
 30
0.0
 11
285.927824
 21
36.291272
 31
0.0
  0
LINE
  8
0
  6
BYBLOCK
 62
     0
 10
284.806219
 20
34.091272
 30
0.0
 11
285.927824
 21
34.091272
 31
0.0
  0
LINE
  8
0
  6
BYBLOCK
 62
     0
 10
285.912824
 20
36.141272
 30
0.0
 11
285.912824
 21
34.241272
 31
0.0
  0
SOLID
  8
0
  6
BYBLOCK
 62
     0
 10
285.887824
 20
36.141272
 30
0.0
 11
285.937824
 21
36.141272
 31
0.0
 12
285.912824
 22
36.291272
 32
0.0
 13
285.912824
 23
36.291272
 33
0.0
  0
SOLID
  8
0
  6
BYBLOCK
 62
     0
 10
285.887824
 20
34.241272
 30
0.0
 11
285.937824
 21
34.241272
 31
0.0
 12
285.912824
 22
34.091272
 32
0.0
 13
285.912824
 23
34.091272
 33
0.0
  0
TEXT
  8
0
  6
BYBLOCK
 62
     0
 10
285.875324
 20
35.066272
 30
0.0
 40
0.075
  1
2.20
 50
90.0
  7
ROMANC
 72
     1
 11
285.837824
 21
35.191272
 31
0.0
 73
     2
  0
POINT
  8
DEFPOINTS
  6
BYBLOCK
 62
     0
 10
284.791219
 20
36.291272
 30
0.0
  0
POINT
  8
DEFPOINTS
  6
BYBLOCK
 62
     0
 10
284.791219
 20
34.091272
 30
0.0
  0
POINT
  8
DEFPOINTS
  6
BYBLOCK
 62
     0
 10
285.912824
 20
34.091272
 30
0.0
  0
ENDBLK
  8
0
  0
ENDSEC
  0
SECTION
  2
ENTITIES
  0
LINE
  8
0
 10
291.895795
 20
29.897444
 30
0.0
 11
291.895795
 21
44.747444
 31
0.0
  0
TEXT
  8
0
 10
283.887846
 20
40.56142
 30
0.0
 40
0.3
  1
P = 60.1 dm
  7
ROMANC
  0
LINE
  8
0
 10
281.395795
 20
44.747444
 30
0.0
 11
281.395795
 21
29.897444
 31
0.0
  0
LINE
  8
0
 10
281.395795
 20
29.897444
 30
0.0
 11
291.895795
 21
29.897444
 31
0.0
  0
LINE
  8
0
 10
291.895795
 20
44.747444
 30
0.0
 11
281.395795
 21
44.747444
 31
0.0
  0
TEXT
  8
0
 10
287.122271
 20
41.564915
 30
0.0
 40
0.1
  1
2
  7
ROMANC
  0
TEXT
  8
0
 10
283.925768
 20
41.857589
 30
0.0
 40
0.3
  1
ESCALA  1:50
  7
ROMANC
  0
TEXT
  8
0
 10
283.925768
 20
42.343303
 30
0.0
 40
0.3
  1
TIPUS   NT227B
  7
ROMANC
  0
TEXT
  8
0
 10
283.938862
 20
41.258999
 30
0.0
 40
0.3
  1
S = 227 dm
  7
ROMANC
  0
ARC
  8
0
 10
285.133769
 20
35.491272
 30
0.0
 40
1.078173
 50
359.992002
 51
17.257939
  0
ARC
  8
0
 10
285.361139
 20
35.561906
 30
0.0
 40
0.840085
 50
17.257939
 51
36.869898
  0
ARC
  8
0
 10
285.505358
 20
35.670071
 30
0.0
 40
0.65981
 50
36.869898
 51
61.088799
  0
ARC
  8
0
 10
285.596943
 20
35.835899
 30
0.0
 40
0.470373
 50
61.088799
 51
90.0
  0
ARC
  8
0
 10
285.596943
 20
35.835899
 30
0.0
 40
0.470373
 50
90.0
 51
118.911201
  0
ARC
  8
0
 10
285.688527
 20
35.670071
 30
0.0
 40
0.65981
 50
118.911201
 51
143.130102
  0
ARC
  8
0
 10
285.832746
 20
35.561906
 30
0.0
 40
0.840085
 50
143.130102
 51
162.742061
  0
ARC
  8
0
 10
286.060116
 20
35.491272
 30
0.0
 40
1.078173
 50
162.742061
 51
180.007998
  0
LINE
  8
0
 10
284.981943
 20
35.491121
 30
0.0
 11
285.00724
 21
34.226272
 31
0.0
  0
LINE
  8
0
 10
285.00724
 20
34.226272
 30
0.0
 11
285.382819
 21
34.226272
 31
0.0
  0
ARC
  8
0
 10
285.510786
 20
34.241272
 30
0.0
 40
0.128843
 50
186.685569
 51
208.911201
  0
ARC
  8
0
 10
285.552243
 20
34.264168
 30
0.0
 40
0.176203
 50
208.911201
 51
233.130102
  0
ARC
  8
0
 10
285.579284
 20
34.300222
 30
0.0
 40
0.221271
 50
233.130102
 51
252.742061
  0
ARC
  8
0
 10
285.596943
 20
34.357065
 30
0.0
 40
0.280793
 50
252.742061
 51
270.0
  0
ARC
  8
0
 10
285.596943
 20
34.357065
 30
0.0
 40
0.280793
 50
270.0
 51
287.257939
  0
ARC
  8
0
 10
285.614601
 20
34.300222
 30
0.0
 40
0.221271
 50
287.257939
 51
306.869898
  0
ARC
  8
0
 10
285.641642
 20
34.264168
 30
0.0
 40
0.176203
 50
306.869898
 51
331.088799
  0
ARC
  8
0
 10
285.683099
 20
34.241272
 30
0.0
 40
0.128843
 50
331.088799
 51
353.314431
  0
LINE
  8
0
 10
285.811066
 20
34.226272
 30
0.0
 11
286.186646
 21
34.226272
 31
0.0
  0
LINE
  8
0
 10
286.186646
 20
34.226272
 30
0.0
 11
286.211943
 21
35.491121
 31
0.0
  0
ARC
  8
0
 10
285.133769
 20
35.491272
 30
0.0
 40
1.070673
 50
359.99598
 51
17.257939
  0
ARC
  8
0
 10
285.361139
 20
35.561906
 30
0.0
 40
0.832585
 50
17.257939
 51
36.869898
  0
ARC
  8
0
 10
285.505358
 20
35.670071
 30
0.0
 40
0.65231
 50
36.869898
 51
61.088799
  0
ARC
  8
0
 10
285.596943
 20
35.835899
 30
0.0
 40
0.462873
 50
61.088799
 51
90.0
  0
ARC
  8
0
 10
285.596943
 20
35.835899
 30
0.0
 40
0.462873
 50
90.0
 51
118.911201
  0
ARC
  8
0
 10
285.688527
 20
35.670071
 30
0.0
 40
0.65231
 50
118.911201
 51
143.130102
  0
ARC
  8
0
 10
285.832746
 20
35.561906
 30
0.0
 40
0.832585
 50
143.130102
 51
162.742061
  0
ARC
  8
0
 10
286.060116
 20
35.491272
 30
0.0
 40
1.070673
 50
162.742061
 51
180.00402
  0
LINE
  8
0
 10
284.989443
 20
35.491196
 30
0.0
 11
285.014591
 21
34.233772
 31
0.0
  0
LINE
  8
0
 10
285.014591
 20
34.233772
 30
0.0
 11
285.389675
 21
34.233772
 31
0.0
  0
ARC
  8
0
 10
285.510786
 20
34.241272
 30
0.0
 40
0.121343
 50
183.543605
 51
208.911201
  0
ARC
  8
0
 10
285.552243
 20
34.264168
 30
0.0
 40
0.168703
 50
208.911201
 51
233.130102
  0
ARC
  8
0
 10
285.579284
 20
34.300222
 30
0.0
 40
0.213771
 50
233.130102
 51
252.742061
  0
ARC
  8
0
 10
285.596943
 20
34.357065
 30
0.0
 40
0.273293
 50
252.742061
 51
270.0
  0
ARC
  8
0
 10
285.596943
 20
34.357065
 30
0.0
 40
0.273293
 50
270.0
 51
287.257939
  0
ARC
  8
0
 10
285.614601
 20
34.300222
 30
0.0
 40
0.213771
 50
287.257939
 51
306.869898
  0
ARC
  8
0
 10
285.641642
 20
34.264168
 30
0.0
 40
0.168703
 50
306.869898
 51
331.088799
  0
ARC
  8
0
 10
285.683099
 20
34.241272
 30
0.0
 40
0.121343
 50
331.088799
 51
356.456395
  0
LINE
  8
0
 10
285.804211
 20
34.233772
 30
0.0
 11
286.179294
 21
34.233772
 31
0.0
  0
LINE
  8
0
 10
286.179294
 20
34.233772
 30
0.0
 11
286.204443
 21
35.491196
 31
0.0
  0
LINE
  8
0
  6
BYBLOCK
 62
     0
 10
285.611943
 20
36.291272
 30
0.0
 11
286.733548
 21
36.291272
 31
0.0
  0
LINE
  8
0
  6
BYBLOCK
 62
     0
 10
285.611943
 20
34.091272
 30
0.0
 11
286.733548
 21
34.091272
 31
0.0
  0
LINE
  8
0
  6
BYBLOCK
 62
     0
 10
286.718548
 20
36.141272
 30
0.0
 11
286.718548
 21
34.241272
 31
0.0
  0
SOLID
  8
0
  6
BYBLOCK
 62
     0
 10
286.693548
 20
36.141272
 30
0.0
 11
286.743548
 21
36.141272
 31
0.0
 12
286.718548
 22
36.291272
 32
0.0
 13
286.718548
 23
36.291272
 33
0.0
  0
SOLID
  8
0
  6
BYBLOCK
 62
     0
 10
286.693548
 20
34.241272
 30
0.0
 11
286.743548
 21
34.241272
 31
0.0
 12
286.718548
 22
34.091272
 32
0.0
 13
286.718548
 23
34.091272
 33
0.0
  0
TEXT
  8
0
  6
BYBLOCK
 62
     0
 10
286.681048
 20
35.066272
 30
0.0
 40
0.075
  1
2.20
 50
90.0
  7
ROMANC
 72
     1
 11
286.643548
 21
35.191272
 31
0.0
 73
     2
  0
POINT
  8
DEFPOINTS
  6
BYBLOCK
 62
     0
 10
285.596943
 20
36.291272
 30
0.0
  0
POINT
  8
DEFPOINTS
  6
BYBLOCK
 62
     0
 10
285.596943
 20
34.091272
 30
0.0
  0
POINT
  8
DEFPOINTS
  6
BYBLOCK
 62
     0
 10
286.718548
 20
34.091272
 30
0.0
  0
LINE
  8
0
  6
BYBLOCK
 62
     0
 10
286.186943
 20
34.241272
 30
0.0
 11
286.456551
 21
34.241272
 31
0.0
  0
LINE
  8
0
  6
BYBLOCK
 62
     0
 10
286.211943
 20
35.491272
 30
0.0
 11
286.456551
 21
35.491272
 31
0.0
  0
LINE
  8
0
  6
BYBLOCK
 62
     0
 10
286.441551
 20
34.391272
 30
0.0
 11
286.441551
 21
35.341272
 31
0.0
  0
SOLID
  8
0
  6
BYBLOCK
 62
     0
 10
286.416551
 20
34.391272
 30
0.0
 11
286.466551
 21
34.391272
 31
0.0
 12
286.441551
 22
34.241272
 32
0.0
 13
286.441551
 23
34.241272
 33
0.0
  0
SOLID
  8
0
  6
BYBLOCK
 62
     0
 10
286.416551
 20
35.341272
 30
0.0
 11
286.466551
 21
35.341272
 31
0.0
 12
286.441551
 22
35.491272
 32
0.0
 13
286.441551
 23
35.491272
 33
0.0
  0
TEXT
  8
0
  6
BYBLOCK
 62
     0
 10
286.404051
 20
34.735914
 30
0.0
 40
0.075
  1
1.25
 50
90.0
  7
ROMANC
 72
     1
 11
286.366551
 21
34.866272
 31
0.0
 73
     2
  0
POINT
  8
DEFPOINTS
  6
BYBLOCK
 62
     0
 10
286.171943
 20
34.241272
 30
0.0
  0
POINT
  8
DEFPOINTS
  6
BYBLOCK
 62
     0
 10
286.196943
 20
35.491272
 30
0.0
  0
POINT
  8
DEFPOINTS
  6
BYBLOCK
 62
     0
 10
286.441551
 20
35.491272
 30
0.0
  0
LINE
  8
0
  6
BYBLOCK
 62
     0
 10
285.611943
 20
34.091272
 30
0.0
 11
286.456551
 21
34.091272
 31
0.0
  0
LINE
  8
0
  6
BYBLOCK
 62
     0
 10
285.811943
 20
34.241272
 30
0.0
 11
286.456551
 21
34.241272
 31
0.0
  0
LINE
  8
0
  6
BYBLOCK
 62
     0
 10
286.441551
 20
33.941272
 30
0.0
 11
286.441551
 21
33.791272
 31
0.0
  0
LINE
  8
0
  6
BYBLOCK
 62
     0
 10
286.441551
 20
34.391272
 30
0.0
 11
286.441551
 21
34.541272
 31
0.0
  0
SOLID
  8
0
  6
BYBLOCK
 62
     0
 10
286.416551
 20
33.941272
 30
0.0
 11
286.466551
 21
33.941272
 31
0.0
 12
286.441551
 22
34.091272
 32
0.0
 13
286.441551
 23
34.091272
 33
0.0
  0
SOLID
  8
0
  6
BYBLOCK
 62
     0
 10
286.416551
 20
34.391272
 30
0.0
 11
286.466551
 21
34.391272
 31
0.0
 12
286.441551
 22
34.241272
 32
0.0
 13
286.441551
 23
34.241272
 33
0.0
  0
LINE
  8
0
  6
BYBLOCK
 62
     0
 10
286.441551
 20
34.091272
 30
0.0
 11
286.441551
 21
34.241272
 31
0.0
  0
TEXT
  8
0
  6
BYBLOCK
 62
     0
 10
286.404051
 20
33.798995
 30
0.0
 40
0.075
  1
0.15
 50
90.0
  7
ROMANC
 72
     1
 11
286.366551
 21
33.923995
 31
0.0
 73
     2
  0
POINT
  8
DEFPOINTS
  6
BYBLOCK
 62
     0
 10
285.596943
 20
34.091272
 30
0.0
  0
POINT
  8
DEFPOINTS
  6
BYBLOCK
 62
     0
 10
285.796943
 20
34.241272
 30
0.0
  0
POINT
  8
DEFPOINTS
  6
BYBLOCK
 62
     0
 10
286.441551
 20
34.241272
 30
0.0
  0
LINE
  8
0
  6
BYBLOCK
 62
     0
 10
285.021943
 20
34.226272
 30
0.0
 11
285.021943
 21
33.499457
 31
0.0
  0
LINE
  8
0
  6
BYBLOCK
 62
     0
 10
286.171943
 20
34.226272
 30
0.0
 11
286.171943
 21
33.499457
 31
0.0
  0
LINE
  8
0
  6
BYBLOCK
 62
     0
 10
285.171943
 20
33.514457
 30
0.0
 11
286.021943
 21
33.514457
 31
0.0
  0
SOLID
  8
0
  6
BYBLOCK
 62
     0
 10
285.171943
 20
33.539457
 30
0.0
 11
285.171943
 21
33.489457
 31
0.0
 12
285.021943
 22
33.514457
 32
0.0
 13
285.021943
 23
33.514457
 33
0.0
  0
SOLID
  8
0
  6
BYBLOCK
 62
     0
 10
286.021943
 20
33.539457
 30
0.0
 11
286.021943
 21
33.489457
 31
0.0
 12
286.171943
 22
33.514457
 32
0.0
 13
286.171943
 23
33.514457
 33
0.0
  0
TEXT
  8
0
  6
BYBLOCK
 62
     0
 10
285.466585
 20
33.551957
 30
0.0
 40
0.075
  1
1.15
  7
ROMANC
 72
     1
 11
285.596943
 21
33.589457
 31
0.0
 73
     2
  0
POINT
  8
DEFPOINTS
  6
BYBLOCK
 62
     0
 10
285.021943
 20
34.241272
 30
0.0
  0
POINT
  8
DEFPOINTS
  6
BYBLOCK
 62
     0
 10
286.171943
 20
34.241272
 30
0.0
  0
POINT
  8
DEFPOINTS
  6
BYBLOCK
 62
     0
 10
286.171943
 20
33.514457
 30
0.0
  0
LINE
  8
0
  6
BYBLOCK
 62
     0
 10
285.396943
 20
34.226272
 30
0.0
 11
285.396943
 21
33.810937
 31
0.0
  0
LINE
  8
0
  6
BYBLOCK
 62
     0
 10
285.796943
 20
34.226272
 30
0.0
 11
285.796943
 21
33.810937
 31
0.0
  0
LINE
  8
0
  6
BYBLOCK
 62
     0
 10
285.246943
 20
33.825937
 30
0.0
 11
285.096943
 21
33.825937
 31
0.0
  0
LINE
  8
0
  6
BYBLOCK
 62
     0
 10
285.946943
 20
33.825937
 30
0.0
 11
286.096943
 21
33.825937
 31
0.0
  0
SOLID
  8
0
  6
BYBLOCK
 62
     0
 10
285.246943
 20
33.850937
 30
0.0
 11
285.246943
 21
33.800937
 31
0.0
 12
285.396943
 22
33.825937
 32
0.0
 13
285.396943
 23
33.825937
 33
0.0
  0
SOLID
  8
0
  6
BYBLOCK
 62
     0
 10
285.946943
 20
33.850937
 30
0.0
 11
285.946943
 21
33.800937
 31
0.0
 12
285.796943
 22
33.825937
 32
0.0
 13
285.796943
 23
33.825937
 33
0.0
  0
LINE
  8
0
  6
BYBLOCK
 62
     0
 10
285.396943
 20
33.825937
 30
0.0
 11
285.796943
 21
33.825937
 31
0.0
  0
TEXT
  8
0
  6
BYBLOCK
 62
     0
 10
285.471943
 20
33.863437
 30
0.0
 40
0.075
  1
0.40
  7
ROMANC
 72
     1
 11
285.596943
 21
33.900937
 31
0.0
 73
     2
  0
POINT
  8
DEFPOINTS
  6
BYBLOCK
 62
     0
 10
285.396943
 20
34.241272
 30
0.0
  0
POINT
  8
DEFPOINTS
  6
BYBLOCK
 62
     0
 10
285.796943
 20
34.241272
 30
0.0
  0
POINT
  8
DEFPOINTS
  6
BYBLOCK
 62
     0
 10
285.796943
 20
33.825937
 30
0.0
  0
LINE
  8
0
  6
BYBLOCK
 62
     0
 10
284.996943
 20
35.506272
 30
0.0
 11
284.996943
 21
35.506272
 31
0.0
  0
LINE
  8
0
  6
BYBLOCK
 62
     0
 10
286.196943
 20
35.506272
 30
0.0
 11
286.196943
 21
35.506272
 31
0.0
  0
LINE
  8
0
  6
BYBLOCK
 62
     0
 10
285.146943
 20
35.491272
 30
0.0
 11
286.046943
 21
35.491272
 31
0.0
  0
SOLID
  8
0
  6
BYBLOCK
 62
     0
 10
285.146943
 20
35.516272
 30
0.0
 11
285.146943
 21
35.466272
 31
0.0
 12
284.996943
 22
35.491272
 32
0.0
 13
284.996943
 23
35.491272
 33
0.0
  0
SOLID
  8
0
  6
BYBLOCK
 62
     0
 10
286.046943
 20
35.516272
 30
0.0
 11
286.046943
 21
35.466272
 31
0.0
 12
286.196943
 22
35.491272
 32
0.0
 13
286.196943
 23
35.491272
 33
0.0
  0
TEXT
  8
0
  6
BYBLOCK
 62
     0
 10
285.466585
 20
35.528772
 30
0.0
 40
0.075
  1
1.20
  7
ROMANC
 72
     1
 11
285.596943
 21
35.566272
 31
0.0
 73
     2
  0
POINT
  8
DEFPOINTS
  6
BYBLOCK
 62
     0
 10
284.996943
 20
35.491272
 30
0.0
  0
POINT
  8
DEFPOINTS
  6
BYBLOCK
 62
     0
 10
286.196943
 20
35.491272
 30
0.0
  0
POINT
  8
DEFPOINTS
  6
BYBLOCK
 62
     0
 10
286.196943
 20
35.491272
 30
0.0
  0
ARC
  8
0
 10
285.133769
 20
35.491272
 30
0.0
 40
1.063173
 50
0.0
 51
17.257939
  0
ARC
  8
0
 10
285.361139
 20
35.561906
 30
0.0
 40
0.825085
 50
17.257939
 51
36.869898
  0
ARC
  8
0
 10
285.505358
 20
35.670071
 30
0.0
 40
0.64481
 50
36.869898
 51
61.088799
  0
ARC
  8
0
 10
285.596943
 20
35.835899
 30
0.0
 40
0.455373
 50
61.088799
 51
90.0
  0
ARC
  8
0
 10
285.596943
 20
35.835899
 30
0.0
 40
0.455373
 50
90.0
 51
118.911201
  0
ARC
  8
0
 10
285.688527
 20
35.670071
 30
0.0
 40
0.64481
 50
118.911201
 51
143.130102
  0
ARC
  8
0
 10
285.832746
 20
35.561906
 30
0.0
 40
0.825085
 50
143.130102
 51
162.742061
  0
ARC
  8
0
 10
286.060116
 20
35.491272
 30
0.0
 40
1.063173
 50
162.742061
 51
180.0
  0
LINE
  8
0
 10
284.996943
 20
35.491272
 30
0.0
 11
285.021943
 21
34.241272
 31
0.0
  0
LINE
  8
0
 10
285.021943
 20
34.241272
 30
0.0
 11
285.396943
 21
34.241272
 31
0.0
  0
ARC
  8
0
 10
285.510786
 20
34.241272
 30
0.0
 40
0.113843
 50
180.0
 51
208.911201
  0
ARC
  8
0
 10
285.552243
 20
34.264168
 30
0.0
 40
0.161203
 50
208.911201
 51
233.130102
  0
ARC
  8
0
 10
285.579284
 20
34.300222
 30
0.0
 40
0.206271
 50
233.130102
 51
252.742061
  0
ARC
  8
0
 10
285.596943
 20
34.357065
 30
0.0
 40
0.265793
 50
252.742061
 51
270.0
  0
ARC
  8
0
 10
285.596943
 20
34.357065
 30
0.0
 40
0.265793
 50
270.0
 51
287.257939
  0
ARC
  8
0
 10
285.614601
 20
34.300222
 30
0.0
 40
0.206271
 50
287.257939
 51
306.869898
  0
ARC
  8
0
 10
285.641642
 20
34.264168
 30
0.0
 40
0.161203
 50
306.869898
 51
331.088799
  0
ARC
  8
0
 10
285.683099
 20
34.241272
 30
0.0
 40
0.113843
 50
331.088799
 51
360.0
  0
LINE
  8
0
 10
285.796943
 20
34.241272
 30
0.0
 11
286.171943
 21
34.241272
 31
0.0
  0
LINE
  8
0
 10
286.171943
 20
34.241272
 30
0.0
 11
286.196943
 21
35.491272
 31
0.0
  0
ENDSEC
  0
EOF
