  0
SECTION
  2
HEADER
  9
$ACADVER
  1
AC1009
  9
$INSBASE
 10
105.464027
 20
-4.528761
 30
0.0
  9
$EXTMIN
 10
281.395795
 20
29.897444
 30
0.0
  9
$EXTMAX
 10
291.895795
 20
44.747444
 30
0.0
  9
$LIMMIN
 10
0.0
 20
0.0
  9
$LIMMAX
 10
410.0
 20
287.0
  9
$ORTHOMODE
 70
     1
  9
$REGENMODE
 70
     1
  9
$FILLMODE
 70
     1
  9
$QTEXTMODE
 70
     0
  9
$MIRRTEXT
 70
     1
  9
$DRAGMODE
 70
     2
  9
$LTSCALE
 40
25.0
  9
$OSMODE
 70
     0
  9
$ATTMODE
 70
     1
  9
$TEXTSIZE
 40
0.1
  9
$TRACEWID
 40
1.0
  9
$TEXTSTYLE
  7
ROMANC
  9
$CLAYER
  8
0
  9
$CELTYPE
  6
BYLAYER
  9
$CECOLOR
 62
   256
  9
$DIMSCALE
 40
1.5
  9
$DIMASZ
 40
0.1
  9
$DIMEXO
 40
0.01
  9
$DIMDLI
 40
7.0
  9
$DIMRND
 40
0.0
  9
$DIMDLE
 40
0.0
  9
$DIMEXE
 40
0.01
  9
$DIMTP
 40
0.0
  9
$DIMTM
 40
0.0
  9
$DIMTXT
 40
0.05
  9
$DIMCEN
 40
0.1
  9
$DIMTSZ
 40
0.0
  9
$DIMTOL
 70
     0
  9
$DIMLIM
 70
     0
  9
$DIMTIH
 70
     0
  9
$DIMTOH
 70
     0
  9
$DIMSE1
 70
     0
  9
$DIMSE2
 70
     0
  9
$DIMTAD
 70
     1
  9
$DIMZIN
 70
     0
  9
$DIMBLK
  1

  9
$DIMASO
 70
     1
  9
$DIMSHO
 70
     0
  9
$DIMPOST
  1

  9
$DIMAPOST
  1

  9
$DIMALT
 70
     0
  9
$DIMALTD
 70
     2
  9
$DIMALTF
 40
25.4
  9
$DIMLFAC
 40
1.0
  9
$DIMTOFL
 70
     1
  9
$DIMTVP
 40
0.0
  9
$DIMTIX
 70
     1
  9
$DIMSOXD
 70
     0
  9
$DIMSAH
 70
     0
  9
$DIMBLK1
  1

  9
$DIMBLK2
  1

  9
$DIMSTYLE
  2
*UNNAMED
  9
$DIMCLRD
 70
     0
  9
$DIMCLRE
 70
     0
  9
$DIMCLRT
 70
     0
  9
$DIMTFAC
 40
70.0
  9
$DIMGAP
 40
0.09
  9
$LUNITS
 70
     2
  9
$LUPREC
 70
     2
  9
$SKETCHINC
 40
1.0
  9
$FILLETRAD
 40
0.0
  9
$AUNITS
 70
     0
  9
$AUPREC
 70
     0
  9
$MENU
  1
acad
  9
$ELEVATION
 40
0.0
  9
$PELEVATION
 40
0.0
  9
$THICKNESS
 40
0.0
  9
$LIMCHECK
 70
     0
  9
$BLIPMODE
 70
     0
  9
$CHAMFERA
 40
0.0
  9
$CHAMFERB
 40
0.0
  9
$SKPOLY
 70
     0
  9
$TDCREATE
 40
2450305.554557986
  9
$TDUPDATE
 40
2450827.743725462
  9
$TDINDWG
 40
0.0746288194
  9
$TDUSRTIMER
 40
0.0746288194
  9
$USRTIMER
 70
     1
  9
$ANGBASE
 50
0.0
  9
$ANGDIR
 70
     0
  9
$PDMODE
 70
     0
  9
$PDSIZE
 40
0.0
  9
$PLINEWID
 40
0.0
  9
$COORDS
 70
     2
  9
$SPLFRAME
 70
     0
  9
$SPLINETYPE
 70
     6
  9
$SPLINESEGS
 70
     8
  9
$ATTDIA
 70
     0
  9
$ATTREQ
 70
     1
  9
$HANDLING
 70
     0
  9
$HANDSEED
  5
0
  9
$SURFTAB1
 70
     6
  9
$SURFTAB2
 70
     6
  9
$SURFTYPE
 70
     6
  9
$SURFU
 70
     6
  9
$SURFV
 70
     6
  9
$UCSNAME
  2

  9
$UCSORG
 10
0.0
 20
0.0
 30
0.0
  9
$UCSXDIR
 10
1.0
 20
0.0
 30
0.0
  9
$UCSYDIR
 10
0.0
 20
1.0
 30
0.0
  9
$PUCSNAME
  2

  9
$PUCSORG
 10
0.0
 20
0.0
 30
0.0
  9
$PUCSXDIR
 10
1.0
 20
0.0
 30
0.0
  9
$PUCSYDIR
 10
0.0
 20
1.0
 30
0.0
  9
$USERI1
 70
     0
  9
$USERI2
 70
     0
  9
$USERI3
 70
     0
  9
$USERI4
 70
     0
  9
$USERI5
 70
     0
  9
$USERR1
 40
0.0
  9
$USERR2
 40
0.0
  9
$USERR3
 40
0.0
  9
$USERR4
 40
0.0
  9
$USERR5
 40
0.0
  9
$WORLDVIEW
 70
     1
  9
$SHADEDGE
 70
     3
  9
$SHADEDIF
 70
    70
  9
$TILEMODE
 70
     1
  9
$MAXACTVP
 70
    16
  9
$PINSBASE
 10
0.0
 20
0.0
 30
0.0
  9
$PLIMCHECK
 70
     0
  9
$PEXTMIN
 10
1.000000E+20
 20
1.000000E+20
 30
1.000000E+20
  9
$PEXTMAX
 10
-1.000000E+20
 20
-1.000000E+20
 30
-1.000000E+20
  9
$PLIMMIN
 10
0.0
 20
0.0
  9
$PLIMMAX
 10
12.0
 20
9.0
  9
$UNITMODE
 70
     0
  9
$VISRETAIN
 70
     0
  9
$PLINEGEN
 70
     0
  9
$PSLTSCALE
 70
     0
  9
$TREEDEPTH
 70
  3020
  9
$DWGCODEPAGE
  3
iso8859-1
  0
ENDSEC
  0
SECTION
  2
TABLES
  0
TABLE
  2
VPORT
 70
     2
  0
VPORT
  2
*ACTIVE
 70
     0
 10
0.0
 20
0.0
 11
1.0
 21
1.0
 12
293.357646
 22
37.322444
 13
0.0
 23
0.0
 14
1.0
 24
1.0
 15
10.0
 25
10.0
 16
0.0
 26
0.0
 36
1.0
 17
0.0
 27
0.0
 37
0.0
 40
14.85
 41
1.611024
 42
50.0
 43
0.0
 44
0.0
 50
0.0
 51
0.0
 71
     0
 72
   100
 73
     1
 74
     0
 75
     0
 76
     0
 77
     0
 78
     1
  0
ENDTAB
  0
TABLE
  2
LTYPE
 70
     1
  0
LTYPE
  2
CONTINUOUS
 70
    64
  3
Solid line
 72
    65
 73
     0
 40
0.0
  0
ENDTAB
  0
TABLE
  2
LAYER
 70
     3
  0
LAYER
  2
0
 70
    64
 62
     7
  6
CONTINUOUS
  0
LAYER
  2
MESURA
 70
     0
 62
     7
  6
CONTINUOUS
  0
LAYER
  2
DEFPOINTS
 70
     0
 62
     7
  6
CONTINUOUS
  0
ENDTAB
  0
TABLE
  2
STYLE
 70
     2
  0
STYLE
  2
STANDARD
 70
     0
 40
0.0
 41
1.0
 50
0.0
 71
     0
 42
0.1
  3
txt
  4

  0
STYLE
  2
ROMANC
 70
    64
 40
0.0
 41
1.0
 50
0.0
 71
     0
 42
0.1
  3
romanc
  4

  0
ENDTAB
  0
TABLE
  2
VIEW
 70
     0
  0
ENDTAB
  0
TABLE
  2
UCS
 70
     0
  0
ENDTAB
  0
TABLE
  2
APPID
 70
     1
  0
APPID
  2
ACAD
 70
    64
  0
ENDTAB
  0
TABLE
  2
DIMSTYLE
 70
     1
  0
DIMSTYLE
  2
SILVIA
 70
     0
  3

  4

  5

  6

  7

 40
1.5
 41
0.1
 42
0.01
 43
7.0
 44
0.01
 45
0.0
 46
0.0
 47
0.0
 48
0.0
140
0.05
141
0.1
142
0.0
143
25.4
144
1.0
145
0.0
146
70.0
147
0.09
 71
     0
 72
     0
 73
     0
 74
     0
 75
     0
 76
     0
 77
     1
 78
     0
170
     0
171
     2
172
     1
173
     0
174
     1
175
     0
176
     0
177
     0
178
     0
  0
ENDTAB
  0
ENDSEC
  0
SECTION
  2
BLOCKS
  0
BLOCK
  8
0
  2
*D0
 70
    65
 10
0.0
 20
0.0
 30
0.0
  3
*D
  0
LINE
  8
0
  6
BYBLOCK
 62
     0
 10
287.385205
 20
36.200466
 30
0.0
 11
287.385205
 21
34.237043
 31
0.0
  0
LINE
  8
0
  6
BYBLOCK
 62
     0
 10
285.335205
 20
36.200466
 30
0.0
 11
285.335205
 21
34.237043
 31
0.0
  0
LINE
  8
0
  6
BYBLOCK
 62
     0
 10
287.235205
 20
34.252043
 30
0.0
 11
285.485205
 21
34.252043
 31
0.0
  0
SOLID
  8
0
  6
BYBLOCK
 62
     0
 10
287.235205
 20
34.277043
 30
0.0
 11
287.235205
 21
34.227043
 31
0.0
 12
287.385205
 22
34.252043
 32
0.0
 13
287.385205
 23
34.252043
 33
0.0
  0
SOLID
  8
0
  6
BYBLOCK
 62
     0
 10
285.485205
 20
34.277043
 30
0.0
 11
285.485205
 21
34.227043
 31
0.0
 12
285.335205
 22
34.252043
 32
0.0
 13
285.335205
 23
34.252043
 33
0.0
  0
TEXT
  8
0
  6
BYBLOCK
 62
     0
 10
286.235205
 20
34.289543
 30
0.0
 40
0.075
  1
2.05
  7
ROMANC
 72
     1
 11
286.360205
 21
34.327043
 31
0.0
 73
     2
  0
POINT
  8
DEFPOINTS
  6
BYBLOCK
 62
     0
 10
287.385205
 20
36.215466
 30
0.0
  0
POINT
  8
DEFPOINTS
  6
BYBLOCK
 62
     0
 10
285.335205
 20
36.215466
 30
0.0
  0
POINT
  8
DEFPOINTS
  6
BYBLOCK
 62
     0
 10
285.335205
 20
34.252043
 30
0.0
  0
ENDBLK
  8
0
  0
BLOCK
  8
0
  2
*D1
 70
    65
 10
0.0
 20
0.0
 30
0.0
  3
*D
  0
LINE
  8
0
  6
BYBLOCK
 62
     0
 10
286.010205
 20
35.200466
 30
0.0
 11
286.010205
 21
34.567454
 31
0.0
  0
LINE
  8
0
  6
BYBLOCK
 62
     0
 10
286.710205
 20
35.200466
 30
0.0
 11
286.710205
 21
34.567454
 31
0.0
  0
LINE
  8
0
  6
BYBLOCK
 62
     0
 10
285.860205
 20
34.582454
 30
0.0
 11
285.710205
 21
34.582454
 31
0.0
  0
LINE
  8
0
  6
BYBLOCK
 62
     0
 10
286.860205
 20
34.582454
 30
0.0
 11
287.010205
 21
34.582454
 31
0.0
  0
SOLID
  8
0
  6
BYBLOCK
 62
     0
 10
285.860205
 20
34.607454
 30
0.0
 11
285.860205
 21
34.557454
 31
0.0
 12
286.010205
 22
34.582454
 32
0.0
 13
286.010205
 23
34.582454
 33
0.0
  0
SOLID
  8
0
  6
BYBLOCK
 62
     0
 10
286.860205
 20
34.607454
 30
0.0
 11
286.860205
 21
34.557454
 31
0.0
 12
286.710205
 22
34.582454
 32
0.0
 13
286.710205
 23
34.582454
 33
0.0
  0
LINE
  8
0
  6
BYBLOCK
 62
     0
 10
286.010205
 20
34.582454
 30
0.0
 11
286.710205
 21
34.582454
 31
0.0
  0
TEXT
  8
0
  6
BYBLOCK
 62
     0
 10
286.235205
 20
34.619954
 30
0.0
 40
0.075
  1
0.70
  7
ROMANC
 72
     1
 11
286.360205
 21
34.657454
 31
0.0
 73
     2
  0
POINT
  8
DEFPOINTS
  6
BYBLOCK
 62
     0
 10
286.010205
 20
35.215466
 30
0.0
  0
POINT
  8
DEFPOINTS
  6
BYBLOCK
 62
     0
 10
286.710205
 20
35.215466
 30
0.0
  0
POINT
  8
DEFPOINTS
  6
BYBLOCK
 62
     0
 10
286.710205
 20
34.582454
 30
0.0
  0
ENDBLK
  8
0
  0
BLOCK
  8
0
  2
*D2
 70
    65
 10
0.0
 20
0.0
 30
0.0
  3
*D
  0
LINE
  8
0
  6
BYBLOCK
 62
     0
 10
286.010205
 20
35.200466
 30
0.0
 11
286.010205
 21
34.53221
 31
0.0
  0
LINE
  8
0
  6
BYBLOCK
 62
     0
 10
286.710205
 20
35.200466
 30
0.0
 11
286.710205
 21
34.53221
 31
0.0
  0
LINE
  8
0
  6
BYBLOCK
 62
     0
 10
285.860205
 20
34.54721
 30
0.0
 11
285.710205
 21
34.54721
 31
0.0
  0
LINE
  8
0
  6
BYBLOCK
 62
     0
 10
286.860205
 20
34.54721
 30
0.0
 11
287.010205
 21
34.54721
 31
0.0
  0
SOLID
  8
0
  6
BYBLOCK
 62
     0
 10
285.860205
 20
34.57221
 30
0.0
 11
285.860205
 21
34.52221
 31
0.0
 12
286.010205
 22
34.54721
 32
0.0
 13
286.010205
 23
34.54721
 33
0.0
  0
SOLID
  8
0
  6
BYBLOCK
 62
     0
 10
286.860205
 20
34.57221
 30
0.0
 11
286.860205
 21
34.52221
 31
0.0
 12
286.710205
 22
34.54721
 32
0.0
 13
286.710205
 23
34.54721
 33
0.0
  0
LINE
  8
0
  6
BYBLOCK
 62
     0
 10
286.010205
 20
34.54721
 30
0.0
 11
286.710205
 21
34.54721
 31
0.0
  0
TEXT
  8
0
  6
BYBLOCK
 62
     0
 10
286.235205
 20
34.58471
 30
0.0
 40
0.075
  1
0.70
  7
ROMANC
 72
     1
 11
286.360205
 21
34.62221
 31
0.0
 73
     2
  0
POINT
  8
DEFPOINTS
  6
BYBLOCK
 62
     0
 10
286.010205
 20
35.215466
 30
0.0
  0
POINT
  8
DEFPOINTS
  6
BYBLOCK
 62
     0
 10
286.710205
 20
35.215466
 30
0.0
  0
POINT
  8
DEFPOINTS
  6
BYBLOCK
 62
     0
 10
286.710205
 20
34.54721
 30
0.0
  0
ENDBLK
  8
0
  0
BLOCK
  8
0
  2
*D3
 70
    65
 10
0.0
 20
0.0
 30
0.0
  3
*D
  0
LINE
  8
0
  6
BYBLOCK
 62
     0
 10
286.375205
 20
34.815466
 30
0.0
 11
287.700068
 21
34.815466
 31
0.0
  0
LINE
  8
0
  6
BYBLOCK
 62
     0
 10
286.725205
 20
35.215466
 30
0.0
 11
287.700068
 21
35.215466
 31
0.0
  0
LINE
  8
0
  6
BYBLOCK
 62
     0
 10
287.685068
 20
34.665466
 30
0.0
 11
287.685068
 21
34.515466
 31
0.0
  0
LINE
  8
0
  6
BYBLOCK
 62
     0
 10
287.685068
 20
35.365466
 30
0.0
 11
287.685068
 21
35.515466
 31
0.0
  0
SOLID
  8
0
  6
BYBLOCK
 62
     0
 10
287.660068
 20
34.665466
 30
0.0
 11
287.710068
 21
34.665466
 31
0.0
 12
287.685068
 22
34.815466
 32
0.0
 13
287.685068
 23
34.815466
 33
0.0
  0
SOLID
  8
0
  6
BYBLOCK
 62
     0
 10
287.660068
 20
35.365466
 30
0.0
 11
287.710068
 21
35.365466
 31
0.0
 12
287.685068
 22
35.215466
 32
0.0
 13
287.685068
 23
35.215466
 33
0.0
  0
LINE
  8
0
  6
BYBLOCK
 62
     0
 10
287.685068
 20
34.815466
 30
0.0
 11
287.685068
 21
35.215466
 31
0.0
  0
TEXT
  8
0
  6
BYBLOCK
 62
     0
 10
287.647568
 20
34.890466
 30
0.0
 40
0.075
  1
0.40
 50
90.0
  7
ROMANC
 72
     1
 11
287.610068
 21
35.015466
 31
0.0
 73
     2
  0
POINT
  8
DEFPOINTS
  6
BYBLOCK
 62
     0
 10
286.360205
 20
34.815466
 30
0.0
  0
POINT
  8
DEFPOINTS
  6
BYBLOCK
 62
     0
 10
286.710205
 20
35.215466
 30
0.0
  0
POINT
  8
DEFPOINTS
  6
BYBLOCK
 62
     0
 10
287.685068
 20
35.215466
 30
0.0
  0
ENDBLK
  8
0
  0
BLOCK
  8
0
  2
*D4
 70
    65
 10
0.0
 20
0.0
 30
0.0
  3
*D
  0
LINE
  8
0
  6
BYBLOCK
 62
     0
 10
286.010205
 20
35.200466
 30
0.0
 11
286.010205
 21
34.585076
 31
0.0
  0
LINE
  8
0
  6
BYBLOCK
 62
     0
 10
286.710205
 20
35.200466
 30
0.0
 11
286.710205
 21
34.585076
 31
0.0
  0
LINE
  8
0
  6
BYBLOCK
 62
     0
 10
285.860205
 20
34.600076
 30
0.0
 11
285.710205
 21
34.600076
 31
0.0
  0
LINE
  8
0
  6
BYBLOCK
 62
     0
 10
286.860205
 20
34.600076
 30
0.0
 11
287.010205
 21
34.600076
 31
0.0
  0
SOLID
  8
0
  6
BYBLOCK
 62
     0
 10
285.860205
 20
34.625076
 30
0.0
 11
285.860205
 21
34.575076
 31
0.0
 12
286.010205
 22
34.600076
 32
0.0
 13
286.010205
 23
34.600076
 33
0.0
  0
SOLID
  8
0
  6
BYBLOCK
 62
     0
 10
286.860205
 20
34.625076
 30
0.0
 11
286.860205
 21
34.575076
 31
0.0
 12
286.710205
 22
34.600076
 32
0.0
 13
286.710205
 23
34.600076
 33
0.0
  0
LINE
  8
0
  6
BYBLOCK
 62
     0
 10
286.010205
 20
34.600076
 30
0.0
 11
286.710205
 21
34.600076
 31
0.0
  0
TEXT
  8
0
  6
BYBLOCK
 62
     0
 10
286.235205
 20
34.637576
 30
0.0
 40
0.075
  1
0.70
  7
ROMANC
 72
     1
 11
286.360205
 21
34.675076
 31
0.0
 73
     2
  0
POINT
  8
DEFPOINTS
  6
BYBLOCK
 62
     0
 10
286.010205
 20
35.215466
 30
0.0
  0
POINT
  8
DEFPOINTS
  6
BYBLOCK
 62
     0
 10
286.710205
 20
35.215466
 30
0.0
  0
POINT
  8
DEFPOINTS
  6
BYBLOCK
 62
     0
 10
286.710205
 20
34.600076
 30
0.0
  0
ENDBLK
  8
0
  0
BLOCK
  8
0
  2
*D5
 70
    65
 10
0.0
 20
0.0
 30
0.0
  3
*D
  0
LINE
  8
0
  6
BYBLOCK
 62
     0
 10
287.385205
 20
36.200466
 30
0.0
 11
287.385205
 21
34.351585
 31
0.0
  0
LINE
  8
0
  6
BYBLOCK
 62
     0
 10
285.335205
 20
36.200466
 30
0.0
 11
285.335205
 21
34.351585
 31
0.0
  0
LINE
  8
0
  6
BYBLOCK
 62
     0
 10
287.235205
 20
34.366585
 30
0.0
 11
285.485205
 21
34.366585
 31
0.0
  0
SOLID
  8
0
  6
BYBLOCK
 62
     0
 10
287.235205
 20
34.391585
 30
0.0
 11
287.235205
 21
34.341585
 31
0.0
 12
287.385205
 22
34.366585
 32
0.0
 13
287.385205
 23
34.366585
 33
0.0
  0
SOLID
  8
0
  6
BYBLOCK
 62
     0
 10
285.485205
 20
34.391585
 30
0.0
 11
285.485205
 21
34.341585
 31
0.0
 12
285.335205
 22
34.366585
 32
0.0
 13
285.335205
 23
34.366585
 33
0.0
  0
TEXT
  8
0
  6
BYBLOCK
 62
     0
 10
286.235205
 20
34.404085
 30
0.0
 40
0.075
  1
2.05
  7
ROMANC
 72
     1
 11
286.360205
 21
34.441585
 31
0.0
 73
     2
  0
POINT
  8
DEFPOINTS
  6
BYBLOCK
 62
     0
 10
287.385205
 20
36.215466
 30
0.0
  0
POINT
  8
DEFPOINTS
  6
BYBLOCK
 62
     0
 10
285.335205
 20
36.215466
 30
0.0
  0
POINT
  8
DEFPOINTS
  6
BYBLOCK
 62
     0
 10
285.335205
 20
34.366585
 30
0.0
  0
ENDBLK
  8
0
  0
BLOCK
  8
0
  2
*D6
 70
    65
 10
0.0
 20
0.0
 30
0.0
  3
*D
  0
LINE
  8
0
  6
BYBLOCK
 62
     0
 10
287.400205
 20
35.215466
 30
0.0
 11
287.700068
 21
35.215466
 31
0.0
  0
LINE
  8
0
  6
BYBLOCK
 62
     0
 10
287.400205
 20
36.215466
 30
0.0
 11
287.700068
 21
36.215466
 31
0.0
  0
LINE
  8
0
  6
BYBLOCK
 62
     0
 10
287.685068
 20
35.365466
 30
0.0
 11
287.685068
 21
36.065466
 31
0.0
  0
SOLID
  8
0
  6
BYBLOCK
 62
     0
 10
287.660068
 20
35.365466
 30
0.0
 11
287.710068
 21
35.365466
 31
0.0
 12
287.685068
 22
35.215466
 32
0.0
 13
287.685068
 23
35.215466
 33
0.0
  0
SOLID
  8
0
  6
BYBLOCK
 62
     0
 10
287.660068
 20
36.065466
 30
0.0
 11
287.710068
 21
36.065466
 31
0.0
 12
287.685068
 22
36.215466
 32
0.0
 13
287.685068
 23
36.215466
 33
0.0
  0
TEXT
  8
0
  6
BYBLOCK
 62
     0
 10
287.647568
 20
35.585109
 30
0.0
 40
0.075
  1
1.00
 50
90.0
  7
ROMANC
 72
     1
 11
287.610068
 21
35.715466
 31
0.0
 73
     2
  0
POINT
  8
DEFPOINTS
  6
BYBLOCK
 62
     0
 10
287.385205
 20
35.215466
 30
0.0
  0
POINT
  8
DEFPOINTS
  6
BYBLOCK
 62
     0
 10
287.385205
 20
36.215466
 30
0.0
  0
POINT
  8
DEFPOINTS
  6
BYBLOCK
 62
     0
 10
287.685068
 20
36.215466
 30
0.0
  0
ENDBLK
  8
0
  0
BLOCK
  8
0
  2
*D7
 70
    65
 10
0.0
 20
0.0
 30
0.0
  3
*D
  0
LINE
  8
0
  6
BYBLOCK
 62
     0
 10
287.385205
 20
36.200466
 30
0.0
 11
287.385205
 21
34.351585
 31
0.0
  0
LINE
  8
0
  6
BYBLOCK
 62
     0
 10
285.335205
 20
35.200466
 30
0.0
 11
285.335205
 21
34.351585
 31
0.0
  0
LINE
  8
0
  6
BYBLOCK
 62
     0
 10
287.235205
 20
34.366585
 30
0.0
 11
285.485205
 21
34.366585
 31
0.0
  0
SOLID
  8
0
  6
BYBLOCK
 62
     0
 10
287.235205
 20
34.391585
 30
0.0
 11
287.235205
 21
34.341585
 31
0.0
 12
287.385205
 22
34.366585
 32
0.0
 13
287.385205
 23
34.366585
 33
0.0
  0
SOLID
  8
0
  6
BYBLOCK
 62
     0
 10
285.485205
 20
34.391585
 30
0.0
 11
285.485205
 21
34.341585
 31
0.0
 12
285.335205
 22
34.366585
 32
0.0
 13
285.335205
 23
34.366585
 33
0.0
  0
TEXT
  8
0
  6
BYBLOCK
 62
     0
 10
286.235205
 20
34.404085
 30
0.0
 40
0.075
  1
2.05
  7
ROMANC
 72
     1
 11
286.360205
 21
34.441585
 31
0.0
 73
     2
  0
POINT
  8
DEFPOINTS
  6
BYBLOCK
 62
     0
 10
287.385205
 20
36.215466
 30
0.0
  0
POINT
  8
DEFPOINTS
  6
BYBLOCK
 62
     0
 10
285.335205
 20
35.215466
 30
0.0
  0
POINT
  8
DEFPOINTS
  6
BYBLOCK
 62
     0
 10
285.335205
 20
34.366585
 30
0.0
  0
ENDBLK
  8
0
  0
BLOCK
  8
0
  2
*D8
 70
    65
 10
0.0
 20
0.0
 30
0.0
  3
*D
  0
LINE
  8
0
  6
BYBLOCK
 62
     0
 10
287.385205
 20
35.200466
 30
0.0
 11
287.385205
 21
34.351585
 31
0.0
  0
LINE
  8
0
  6
BYBLOCK
 62
     0
 10
285.335205
 20
35.200466
 30
0.0
 11
285.335205
 21
34.351585
 31
0.0
  0
LINE
  8
0
  6
BYBLOCK
 62
     0
 10
287.235205
 20
34.366585
 30
0.0
 11
285.485205
 21
34.366585
 31
0.0
  0
SOLID
  8
0
  6
BYBLOCK
 62
     0
 10
287.235205
 20
34.391585
 30
0.0
 11
287.235205
 21
34.341585
 31
0.0
 12
287.385205
 22
34.366585
 32
0.0
 13
287.385205
 23
34.366585
 33
0.0
  0
SOLID
  8
0
  6
BYBLOCK
 62
     0
 10
285.485205
 20
34.391585
 30
0.0
 11
285.485205
 21
34.341585
 31
0.0
 12
285.335205
 22
34.366585
 32
0.0
 13
285.335205
 23
34.366585
 33
0.0
  0
TEXT
  8
0
  6
BYBLOCK
 62
     0
 10
286.235205
 20
34.404085
 30
0.0
 40
0.075
  1
2.05
  7
ROMANC
 72
     1
 11
286.360205
 21
34.441585
 31
0.0
 73
     2
  0
POINT
  8
DEFPOINTS
  6
BYBLOCK
 62
     0
 10
287.385205
 20
35.215466
 30
0.0
  0
POINT
  8
DEFPOINTS
  6
BYBLOCK
 62
     0
 10
285.335205
 20
35.215466
 30
0.0
  0
POINT
  8
DEFPOINTS
  6
BYBLOCK
 62
     0
 10
285.335205
 20
34.366585
 30
0.0
  0
ENDBLK
  8
0
  0
BLOCK
  8
0
  2
*D9
 70
    65
 10
0.0
 20
0.0
 30
0.0
  3
*D
  0
LINE
  8
0
  6
BYBLOCK
 62
     0
 10
287.400205
 20
36.215466
 30
0.0
 11
287.991003
 21
36.215466
 31
0.0
  0
LINE
  8
0
  6
BYBLOCK
 62
     0
 10
286.375205
 20
34.815466
 30
0.0
 11
287.991003
 21
34.815466
 31
0.0
  0
LINE
  8
0
  6
BYBLOCK
 62
     0
 10
287.976003
 20
36.065466
 30
0.0
 11
287.976003
 21
34.965466
 31
0.0
  0
SOLID
  8
0
  6
BYBLOCK
 62
     0
 10
287.951003
 20
36.065466
 30
0.0
 11
288.001003
 21
36.065466
 31
0.0
 12
287.976003
 22
36.215466
 32
0.0
 13
287.976003
 23
36.215466
 33
0.0
  0
SOLID
  8
0
  6
BYBLOCK
 62
     0
 10
287.951003
 20
34.965466
 30
0.0
 11
288.001003
 21
34.965466
 31
0.0
 12
287.976003
 22
34.815466
 32
0.0
 13
287.976003
 23
34.815466
 33
0.0
  0
TEXT
  8
0
  6
BYBLOCK
 62
     0
 10
287.938503
 20
35.385109
 30
0.0
 40
0.075
  1
1.40
 50
90.0
  7
ROMANC
 72
     1
 11
287.901003
 21
35.515466
 31
0.0
 73
     2
  0
POINT
  8
DEFPOINTS
  6
BYBLOCK
 62
     0
 10
287.385205
 20
36.215466
 30
0.0
  0
POINT
  8
DEFPOINTS
  6
BYBLOCK
 62
     0
 10
286.360205
 20
34.815466
 30
0.0
  0
POINT
  8
DEFPOINTS
  6
BYBLOCK
 62
     0
 10
287.976003
 20
34.815466
 30
0.0
  0
ENDBLK
  8
0
  0
ENDSEC
  0
SECTION
  2
ENTITIES
  0
TEXT
  8
0
 10
283.887846
 20
40.56142
 30
0.0
 40
0.3
  1
P = 65.8 dm
  7
ROMANC
  0
TEXT
  8
0
 10
287.219419
 20
41.564915
 30
0.0
 40
0.1
  1
2
  7
ROMANC
  0
TEXT
  8
0
 10
283.925768
 20
41.857589
 30
0.0
 40
0.3
  1
ESCALA  1:50
  7
ROMANC
  0
TEXT
  8
0
 10
283.925768
 20
42.343303
 30
0.0
 40
0.3
  1
TIPUS   NT227A
  7
ROMANC
  0
TEXT
  8
0
 10
283.938862
 20
41.258999
 30
0.0
 40
0.3
  1
S = 227 dm
  7
ROMANC
  0
LINE
  8
0
 10
287.391205
 20
35.209466
 30
0.0
 11
286.716166
 21
35.209466
 31
0.0
  0
ARC
  8
0
 10
286.254064
 20
35.215466
 30
0.0
 40
0.462141
 50
340.077617
 51
359.256106
  0
ARC
  8
0
 10
286.305926
 20
35.19667
 30
0.0
 40
0.406978
 50
318.814075
 51
340.077617
  0
ARC
  8
0
 10
286.339005
 20
35.167725
 30
0.0
 40
0.363023
 50
295.332263
 51
318.814075
  0
ARC
  8
0
 10
286.360205
 20
35.122941
 30
0.0
 40
0.313475
 50
270.0
 51
295.332263
  0
ARC
  8
0
 10
286.360205
 20
35.122941
 30
0.0
 40
0.313475
 50
244.667737
 51
270.0
  0
ARC
  8
0
 10
286.381405
 20
35.167725
 30
0.0
 40
0.363023
 50
221.185925
 51
244.667737
  0
ARC
  8
0
 10
286.414485
 20
35.19667
 30
0.0
 40
0.406978
 50
199.922383
 51
221.185925
  0
ARC
  8
0
 10
286.466346
 20
35.215466
 30
0.0
 40
0.462141
 50
180.743894
 51
199.922383
  0
LINE
  8
0
 10
286.004244
 20
35.209466
 30
0.0
 11
285.329205
 21
35.209466
 31
0.0
  0
LINE
  8
0
 10
285.329205
 20
35.209466
 30
0.0
 11
285.329205
 21
36.221466
 31
0.0
  0
LINE
  8
0
 10
285.329205
 20
36.221466
 30
0.0
 11
287.391205
 21
36.221466
 31
0.0
  0
LINE
  8
0
 10
287.391205
 20
36.221466
 30
0.0
 11
287.391205
 21
35.209466
 31
0.0
  0
LINE
  8
0
 10
287.388205
 20
35.212466
 30
0.0
 11
286.713195
 21
35.212466
 31
0.0
  0
ARC
  8
0
 10
286.254064
 20
35.215466
 30
0.0
 40
0.459141
 50
340.077617
 51
359.62563
  0
ARC
  8
0
 10
286.305926
 20
35.19667
 30
0.0
 40
0.403978
 50
318.814075
 51
340.077617
  0
ARC
  8
0
 10
286.339005
 20
35.167725
 30
0.0
 40
0.360023
 50
295.332263
 51
318.814075
  0
ARC
  8
0
 10
286.360205
 20
35.122941
 30
0.0
 40
0.310475
 50
270.0
 51
295.332263
  0
ARC
  8
0
 10
286.360205
 20
35.122941
 30
0.0
 40
0.310475
 50
244.667737
 51
270.0
  0
ARC
  8
0
 10
286.381405
 20
35.167725
 30
0.0
 40
0.360023
 50
221.185925
 51
244.667737
  0
ARC
  8
0
 10
286.414485
 20
35.19667
 30
0.0
 40
0.403978
 50
199.922383
 51
221.185925
  0
ARC
  8
0
 10
286.466346
 20
35.215466
 30
0.0
 40
0.459141
 50
180.37437
 51
199.922383
  0
LINE
  8
0
 10
286.007215
 20
35.212466
 30
0.0
 11
285.332205
 21
35.212466
 31
0.0
  0
LINE
  8
0
 10
285.332205
 20
35.212466
 30
0.0
 11
285.332205
 21
36.218466
 31
0.0
  0
LINE
  8
0
 10
285.332205
 20
36.218466
 30
0.0
 11
287.388205
 21
36.218466
 31
0.0
  0
LINE
  8
0
 10
287.388205
 20
36.218466
 30
0.0
 11
287.388205
 21
35.212466
 31
0.0
  0
LINE
  8
0
 10
287.385205
 20
35.215466
 30
0.0
 11
286.710205
 21
35.215466
 31
0.0
  0
ARC
  8
0
 10
286.254064
 20
35.215466
 30
0.0
 40
0.456141
 50
340.077617
 51
0.0
  0
ARC
  8
0
 10
286.305926
 20
35.19667
 30
0.0
 40
0.400978
 50
318.814075
 51
340.077617
  0
ARC
  8
0
 10
286.339005
 20
35.167725
 30
0.0
 40
0.357023
 50
295.332263
 51
318.814075
  0
ARC
  8
0
 10
286.360205
 20
35.122941
 30
0.0
 40
0.307475
 50
270.0
 51
295.332263
  0
ARC
  8
0
 10
286.360205
 20
35.122941
 30
0.0
 40
0.307475
 50
244.667737
 51
270.0
  0
ARC
  8
0
 10
286.381405
 20
35.167725
 30
0.0
 40
0.357023
 50
221.185925
 51
244.667737
  0
ARC
  8
0
 10
286.414485
 20
35.19667
 30
0.0
 40
0.400978
 50
199.922383
 51
221.185925
  0
ARC
  8
0
 10
286.466346
 20
35.215466
 30
0.0
 40
0.456141
 50
180.0
 51
199.922383
  0
LINE
  8
0
 10
286.010205
 20
35.215466
 30
0.0
 11
285.335205
 21
35.215466
 31
0.0
  0
LINE
  8
0
 10
285.335205
 20
35.215466
 30
0.0
 11
285.335205
 21
36.215466
 31
0.0
  0
LINE
  8
0
 10
285.335205
 20
36.215466
 30
0.0
 11
287.385205
 21
36.215466
 31
0.0
  0
LINE
  8
0
 10
287.385205
 20
36.215466
 30
0.0
 11
287.385205
 21
35.215466
 31
0.0
  0
LINE
  8
0
  6
BYBLOCK
 62
     0
 10
287.400205
 20
36.215466
 30
0.0
 11
287.991003
 21
36.215466
 31
0.0
  0
LINE
  8
0
  6
BYBLOCK
 62
     0
 10
286.375205
 20
34.815466
 30
0.0
 11
287.991003
 21
34.815466
 31
0.0
  0
LINE
  8
0
  6
BYBLOCK
 62
     0
 10
287.976003
 20
36.065466
 30
0.0
 11
287.976003
 21
34.965466
 31
0.0
  0
SOLID
  8
0
  6
BYBLOCK
 62
     0
 10
287.951003
 20
36.065466
 30
0.0
 11
288.001003
 21
36.065466
 31
0.0
 12
287.976003
 22
36.215466
 32
0.0
 13
287.976003
 23
36.215466
 33
0.0
  0
SOLID
  8
0
  6
BYBLOCK
 62
     0
 10
287.951003
 20
34.965466
 30
0.0
 11
288.001003
 21
34.965466
 31
0.0
 12
287.976003
 22
34.815466
 32
0.0
 13
287.976003
 23
34.815466
 33
0.0
  0
TEXT
  8
0
  6
BYBLOCK
 62
     0
 10
287.938503
 20
35.385109
 30
0.0
 40
0.075
  1
1.40
 50
90.0
  7
ROMANC
 72
     1
 11
287.901003
 21
35.515466
 31
0.0
 73
     2
  0
POINT
  8
DEFPOINTS
  6
BYBLOCK
 62
     0
 10
287.385205
 20
36.215466
 30
0.0
  0
POINT
  8
DEFPOINTS
  6
BYBLOCK
 62
     0
 10
286.360205
 20
34.815466
 30
0.0
  0
POINT
  8
DEFPOINTS
  6
BYBLOCK
 62
     0
 10
287.976003
 20
34.815466
 30
0.0
  0
LINE
  8
0
  6
BYBLOCK
 62
     0
 10
287.400205
 20
35.215466
 30
0.0
 11
287.700068
 21
35.215466
 31
0.0
  0
LINE
  8
0
  6
BYBLOCK
 62
     0
 10
287.400205
 20
36.215466
 30
0.0
 11
287.700068
 21
36.215466
 31
0.0
  0
LINE
  8
0
  6
BYBLOCK
 62
     0
 10
287.685068
 20
35.365466
 30
0.0
 11
287.685068
 21
36.065466
 31
0.0
  0
SOLID
  8
0
  6
BYBLOCK
 62
     0
 10
287.660068
 20
35.365466
 30
0.0
 11
287.710068
 21
35.365466
 31
0.0
 12
287.685068
 22
35.215466
 32
0.0
 13
287.685068
 23
35.215466
 33
0.0
  0
SOLID
  8
0
  6
BYBLOCK
 62
     0
 10
287.660068
 20
36.065466
 30
0.0
 11
287.710068
 21
36.065466
 31
0.0
 12
287.685068
 22
36.215466
 32
0.0
 13
287.685068
 23
36.215466
 33
0.0
  0
TEXT
  8
0
  6
BYBLOCK
 62
     0
 10
287.647568
 20
35.585109
 30
0.0
 40
0.075
  1
1.00
 50
90.0
  7
ROMANC
 72
     1
 11
287.610068
 21
35.715466
 31
0.0
 73
     2
  0
POINT
  8
DEFPOINTS
  6
BYBLOCK
 62
     0
 10
287.385205
 20
35.215466
 30
0.0
  0
POINT
  8
DEFPOINTS
  6
BYBLOCK
 62
     0
 10
287.385205
 20
36.215466
 30
0.0
  0
POINT
  8
DEFPOINTS
  6
BYBLOCK
 62
     0
 10
287.685068
 20
36.215466
 30
0.0
  0
LINE
  8
0
  6
BYBLOCK
 62
     0
 10
286.375205
 20
34.815466
 30
0.0
 11
287.700068
 21
34.815466
 31
0.0
  0
LINE
  8
0
  6
BYBLOCK
 62
     0
 10
286.725205
 20
35.215466
 30
0.0
 11
287.700068
 21
35.215466
 31
0.0
  0
LINE
  8
0
  6
BYBLOCK
 62
     0
 10
287.685068
 20
34.665466
 30
0.0
 11
287.685068
 21
34.515466
 31
0.0
  0
LINE
  8
0
  6
BYBLOCK
 62
     0
 10
287.685068
 20
35.365466
 30
0.0
 11
287.685068
 21
35.515466
 31
0.0
  0
SOLID
  8
0
  6
BYBLOCK
 62
     0
 10
287.660068
 20
34.665466
 30
0.0
 11
287.710068
 21
34.665466
 31
0.0
 12
287.685068
 22
34.815466
 32
0.0
 13
287.685068
 23
34.815466
 33
0.0
  0
SOLID
  8
0
  6
BYBLOCK
 62
     0
 10
287.660068
 20
35.365466
 30
0.0
 11
287.710068
 21
35.365466
 31
0.0
 12
287.685068
 22
35.215466
 32
0.0
 13
287.685068
 23
35.215466
 33
0.0
  0
LINE
  8
0
  6
BYBLOCK
 62
     0
 10
287.685068
 20
34.815466
 30
0.0
 11
287.685068
 21
35.215466
 31
0.0
  0
TEXT
  8
0
  6
BYBLOCK
 62
     0
 10
287.647568
 20
34.890466
 30
0.0
 40
0.075
  1
0.40
 50
90.0
  7
ROMANC
 72
     1
 11
287.610068
 21
35.015466
 31
0.0
 73
     2
  0
POINT
  8
DEFPOINTS
  6
BYBLOCK
 62
     0
 10
286.360205
 20
34.815466
 30
0.0
  0
POINT
  8
DEFPOINTS
  6
BYBLOCK
 62
     0
 10
286.710205
 20
35.215466
 30
0.0
  0
POINT
  8
DEFPOINTS
  6
BYBLOCK
 62
     0
 10
287.685068
 20
35.215466
 30
0.0
  0
LINE
  8
0
  6
BYBLOCK
 62
     0
 10
286.010205
 20
35.200466
 30
0.0
 11
286.010205
 21
34.585076
 31
0.0
  0
LINE
  8
0
  6
BYBLOCK
 62
     0
 10
286.710205
 20
35.200466
 30
0.0
 11
286.710205
 21
34.585076
 31
0.0
  0
LINE
  8
0
  6
BYBLOCK
 62
     0
 10
285.860205
 20
34.600076
 30
0.0
 11
285.710205
 21
34.600076
 31
0.0
  0
LINE
  8
0
  6
BYBLOCK
 62
     0
 10
286.860205
 20
34.600076
 30
0.0
 11
287.010205
 21
34.600076
 31
0.0
  0
SOLID
  8
0
  6
BYBLOCK
 62
     0
 10
285.860205
 20
34.625076
 30
0.0
 11
285.860205
 21
34.575076
 31
0.0
 12
286.010205
 22
34.600076
 32
0.0
 13
286.010205
 23
34.600076
 33
0.0
  0
SOLID
  8
0
  6
BYBLOCK
 62
     0
 10
286.860205
 20
34.625076
 30
0.0
 11
286.860205
 21
34.575076
 31
0.0
 12
286.710205
 22
34.600076
 32
0.0
 13
286.710205
 23
34.600076
 33
0.0
  0
LINE
  8
0
  6
BYBLOCK
 62
     0
 10
286.010205
 20
34.600076
 30
0.0
 11
286.710205
 21
34.600076
 31
0.0
  0
TEXT
  8
0
  6
BYBLOCK
 62
     0
 10
286.235205
 20
34.637576
 30
0.0
 40
0.075
  1
0.70
  7
ROMANC
 72
     1
 11
286.360205
 21
34.675076
 31
0.0
 73
     2
  0
POINT
  8
DEFPOINTS
  6
BYBLOCK
 62
     0
 10
286.010205
 20
35.215466
 30
0.0
  0
POINT
  8
DEFPOINTS
  6
BYBLOCK
 62
     0
 10
286.710205
 20
35.215466
 30
0.0
  0
POINT
  8
DEFPOINTS
  6
BYBLOCK
 62
     0
 10
286.710205
 20
34.600076
 30
0.0
  0
LINE
  8
0
  6
BYBLOCK
 62
     0
 10
287.385205
 20
35.200466
 30
0.0
 11
287.385205
 21
34.351585
 31
0.0
  0
LINE
  8
0
  6
BYBLOCK
 62
     0
 10
285.335205
 20
35.200466
 30
0.0
 11
285.335205
 21
34.351585
 31
0.0
  0
LINE
  8
0
  6
BYBLOCK
 62
     0
 10
287.235205
 20
34.366585
 30
0.0
 11
285.485205
 21
34.366585
 31
0.0
  0
SOLID
  8
0
  6
BYBLOCK
 62
     0
 10
287.235205
 20
34.391585
 30
0.0
 11
287.235205
 21
34.341585
 31
0.0
 12
287.385205
 22
34.366585
 32
0.0
 13
287.385205
 23
34.366585
 33
0.0
  0
SOLID
  8
0
  6
BYBLOCK
 62
     0
 10
285.485205
 20
34.391585
 30
0.0
 11
285.485205
 21
34.341585
 31
0.0
 12
285.335205
 22
34.366585
 32
0.0
 13
285.335205
 23
34.366585
 33
0.0
  0
TEXT
  8
0
  6
BYBLOCK
 62
     0
 10
286.235205
 20
34.404085
 30
0.0
 40
0.075
  1
2.05
  7
ROMANC
 72
     1
 11
286.360205
 21
34.441585
 31
0.0
 73
     2
  0
POINT
  8
DEFPOINTS
  6
BYBLOCK
 62
     0
 10
287.385205
 20
35.215466
 30
0.0
  0
POINT
  8
DEFPOINTS
  6
BYBLOCK
 62
     0
 10
285.335205
 20
35.215466
 30
0.0
  0
POINT
  8
DEFPOINTS
  6
BYBLOCK
 62
     0
 10
285.335205
 20
34.366585
 30
0.0
  0
LINE
  8
0
 10
281.395795
 20
29.897444
 30
0.0
 11
281.395795
 21
44.747444
 31
0.0
  0
LINE
  8
0
 10
281.395795
 20
44.747444
 30
0.0
 11
291.895795
 21
44.747444
 31
0.0
  0
LINE
  8
0
 10
291.895795
 20
44.747444
 30
0.0
 11
291.895795
 21
29.897444
 31
0.0
  0
LINE
  8
0
 10
291.895795
 20
29.897444
 30
0.0
 11
281.395795
 21
29.897444
 31
0.0
  0
ENDSEC
  0
EOF
