  0
SECTION
  2
HEADER
  9
$ACADVER
  1
AC1009
  9
$INSBASE
 10
0.0
 20
0.0
 30
0.0
  9
$EXTMIN
 10
318.829805
 20
29.85788
 30
0.0
  9
$EXTMAX
 10
329.371339
 20
44.72551
 30
0.0
  9
$LIMMIN
 10
0.0
 20
0.0
  9
$LIMMAX
 10
410.0
 20
287.0
  9
$ORTHOMODE
 70
     1
  9
$REGENMODE
 70
     1
  9
$FILLMODE
 70
     1
  9
$QTEXTMODE
 70
     0
  9
$MIRRTEXT
 70
     1
  9
$DRAGMODE
 70
     2
  9
$LTSCALE
 40
25.0
  9
$OSMODE
 70
     0
  9
$ATTMODE
 70
     1
  9
$TEXTSIZE
 40
0.1
  9
$TRACEWID
 40
1.0
  9
$TEXTSTYLE
  7
ROMANC
  9
$CLAYER
  8
0
  9
$CELTYPE
  6
BYLAYER
  9
$CECOLOR
 62
   256
  9
$DIMSCALE
 40
1.5
  9
$DIMASZ
 40
0.1
  9
$DIMEXO
 40
0.01
  9
$DIMDLI
 40
7.0
  9
$DIMRND
 40
0.0
  9
$DIMDLE
 40
0.0
  9
$DIMEXE
 40
0.01
  9
$DIMTP
 40
0.0
  9
$DIMTM
 40
0.0
  9
$DIMTXT
 40
0.05
  9
$DIMCEN
 40
0.0
  9
$DIMTSZ
 40
0.0
  9
$DIMTOL
 70
     0
  9
$DIMLIM
 70
     0
  9
$DIMTIH
 70
     0
  9
$DIMTOH
 70
     0
  9
$DIMSE1
 70
     0
  9
$DIMSE2
 70
     0
  9
$DIMTAD
 70
     1
  9
$DIMZIN
 70
     0
  9
$DIMBLK
  1

  9
$DIMASO
 70
     1
  9
$DIMSHO
 70
     0
  9
$DIMPOST
  1

  9
$DIMAPOST
  1

  9
$DIMALT
 70
     0
  9
$DIMALTD
 70
     2
  9
$DIMALTF
 40
25.4
  9
$DIMLFAC
 40
1.0
  9
$DIMTOFL
 70
     1
  9
$DIMTVP
 40
0.0
  9
$DIMTIX
 70
     1
  9
$DIMSOXD
 70
     0
  9
$DIMSAH
 70
     0
  9
$DIMBLK1
  1

  9
$DIMBLK2
  1

  9
$DIMSTYLE
  2
MERITXELL
  9
$DIMCLRD
 70
     0
  9
$DIMCLRE
 70
     0
  9
$DIMCLRT
 70
     0
  9
$DIMTFAC
 40
70.0
  9
$DIMGAP
 40
0.025
  9
$LUNITS
 70
     2
  9
$LUPREC
 70
     2
  9
$SKETCHINC
 40
1.0
  9
$FILLETRAD
 40
0.0
  9
$AUNITS
 70
     0
  9
$AUPREC
 70
     0
  9
$MENU
  1
acad
  9
$ELEVATION
 40
0.0
  9
$PELEVATION
 40
0.0
  9
$THICKNESS
 40
0.0
  9
$LIMCHECK
 70
     0
  9
$BLIPMODE
 70
     0
  9
$CHAMFERA
 40
0.0
  9
$CHAMFERB
 40
0.0
  9
$SKPOLY
 70
     0
  9
$TDCREATE
 40
2450927.46195
  9
$TDUPDATE
 40
2450996.518474
  9
$TDINDWG
 40
0.179157
  9
$TDUSRTIMER
 40
0.179157
  9
$USRTIMER
 70
     1
  9
$ANGBASE
 50
0.0
  9
$ANGDIR
 70
     0
  9
$PDMODE
 70
     0
  9
$PDSIZE
 40
0.0
  9
$PLINEWID
 40
0.0
  9
$COORDS
 70
     2
  9
$SPLFRAME
 70
     0
  9
$SPLINETYPE
 70
     6
  9
$SPLINESEGS
 70
     8
  9
$ATTDIA
 70
     0
  9
$ATTREQ
 70
     1
  9
$HANDLING
 70
     1
  9
$HANDSEED
  5
283
  9
$SURFTAB1
 70
     6
  9
$SURFTAB2
 70
     6
  9
$SURFTYPE
 70
     6
  9
$SURFU
 70
     6
  9
$SURFV
 70
     6
  9
$UCSNAME
  2

  9
$UCSORG
 10
0.0
 20
0.0
 30
0.0
  9
$UCSXDIR
 10
1.0
 20
0.0
 30
0.0
  9
$UCSYDIR
 10
0.0
 20
1.0
 30
0.0
  9
$PUCSNAME
  2

  9
$PUCSORG
 10
0.0
 20
0.0
 30
0.0
  9
$PUCSXDIR
 10
1.0
 20
0.0
 30
0.0
  9
$PUCSYDIR
 10
0.0
 20
1.0
 30
0.0
  9
$USERI1
 70
     0
  9
$USERI2
 70
     0
  9
$USERI3
 70
     0
  9
$USERI4
 70
     0
  9
$USERI5
 70
     0
  9
$USERR1
 40
0.0
  9
$USERR2
 40
0.0
  9
$USERR3
 40
0.0
  9
$USERR4
 40
0.0
  9
$USERR5
 40
0.0
  9
$WORLDVIEW
 70
     1
  9
$SHADEDGE
 70
     3
  9
$SHADEDIF
 70
    70
  9
$TILEMODE
 70
     1
  9
$MAXACTVP
 70
    16
  9
$PLIMCHECK
 70
     0
  9
$PEXTMIN
 10
1.000000E+020
 20
1.000000E+020
 30
1.000000E+020
  9
$PEXTMAX
 10
-1.000000E+020
 20
-1.000000E+020
 30
-1.000000E+020
  9
$PLIMMIN
 10
0.0
 20
0.0
  9
$PLIMMAX
 10
12.0
 20
9.0
  9
$UNITMODE
 70
     0
  9
$VISRETAIN
 70
     0
  9
$PLINEGEN
 70
     0
  9
$PSLTSCALE
 70
     0
  0
ENDSEC
  0
SECTION
  2
TABLES
  0
TABLE
  2
VPORT
 70
     4
  0
VPORT
  2
*ACTIVE
 70
     0
 10
0.0
 20
0.0
 11
1.0
 21
1.0
 12
324.100572
 22
37.291695
 13
0.0
 23
0.0
 14
1.0
 24
1.0
 15
10.0
 25
10.0
 16
0.0
 26
0.0
 36
1.0
 17
0.0
 27
0.0
 37
0.0
 40
14.996726
 41
1.662319
 42
50.0
 43
0.0
 44
0.0
 50
0.0
 51
0.0
 71
     0
 72
   100
 73
     1
 74
     0
 75
     0
 76
     0
 77
     0
 78
     1
  0
ENDTAB
  0
TABLE
  2
LTYPE
 70
     1
  0
LTYPE
  2
CONTINUOUS
 70
     0
  3
Solid line
 72
    65
 73
     0
 40
0.0
  0
ENDTAB
  0
TABLE
  2
LAYER
 70
     2
  0
LAYER
  2
0
 70
     0
 62
     7
  6
CONTINUOUS
  0
LAYER
  2
DEFPOINTS
 70
     0
 62
     7
  6
CONTINUOUS
  0
ENDTAB
  0
TABLE
  2
STYLE
 70
     2
  0
STYLE
  2
STANDARD
 70
     0
 40
0.0
 41
1.0
 50
0.0
 71
     0
 42
0.1
  3
txt
  4

  0
STYLE
  2
ROMANC
 70
     0
 40
0.0
 41
1.0
 50
0.0
 71
     0
 42
0.1
  3
romanc
  4

  0
ENDTAB
  0
TABLE
  2
VIEW
 70
     0
  0
ENDTAB
  0
TABLE
  2
UCS
 70
     0
  0
ENDTAB
  0
TABLE
  2
APPID
 70
     1
  0
APPID
  2
ACAD
 70
     0
  0
ENDTAB
  0
TABLE
  2
DIMSTYLE
 70
     1
  0
DIMSTYLE
  2
MERITXELL
 70
     0
  3

  4

  5

  6

  7

 40
1.5
 41
0.1
 42
0.01
 43
7.0
 44
0.01
 45
0.0
 46
0.0
 47
0.0
 48
0.0
140
0.05
141
0.1
142
0.0
143
25.4
144
1.0
145
0.0
146
70.0
147
0.09
 71
     0
 72
     0
 73
     0
 74
     0
 75
     0
 76
     0
 77
     1
 78
     0
170
     0
171
     2
172
     1
173
     0
174
     1
175
     0
176
     0
177
     0
178
     0
  0
ENDTAB
  0
ENDSEC
  0
SECTION
  2
BLOCKS
  0
BLOCK
  8
0
  2
$MODEL_SPACE
 70
     0
 10
0.0
 20
0.0
 30
0.0
  3
$MODEL_SPACE
  1

  0
ENDBLK
  5
24
  8
0
  0
BLOCK
 67
     1
  8
0
  2
$PAPER_SPACE
 70
     0
 10
0.0
 20
0.0
 30
0.0
  3
$PAPER_SPACE
  1

  0
ENDBLK
  5
22
 67
     1
  8
0
  0
BLOCK
  8
0
  2
*D4
 70
     1
 10
0.0
 20
0.0
 30
0.0
  3
*D4
  1

  0
LINE
  5
22E
  8
0
  6
BYBLOCK
 62
     0
 10
323.973091
 20
33.801488
 30
0.0
 11
324.389068
 21
33.801488
 31
0.0
  0
LINE
  5
22F
  8
0
  6
BYBLOCK
 62
     0
 10
323.973091
 20
36.361488
 30
0.0
 11
324.389068
 21
36.361488
 31
0.0
  0
LINE
  5
230
  8
0
  6
BYBLOCK
 62
     0
 10
324.374068
 20
33.951488
 30
0.0
 11
324.374068
 21
36.211488
 31
0.0
  0
SOLID
  5
231
  8
0
  6
BYBLOCK
 62
     0
 10
324.349068
 20
33.951488
 30
0.0
 11
324.399068
 21
33.951488
 31
0.0
 12
324.374068
 22
33.801488
 32
0.0
 13
324.374068
 23
33.801488
 33
0.0
  0
SOLID
  5
232
  8
0
  6
BYBLOCK
 62
     0
 10
324.349068
 20
36.211488
 30
0.0
 11
324.399068
 21
36.211488
 31
0.0
 12
324.374068
 22
36.361488
 32
0.0
 13
324.374068
 23
36.361488
 33
0.0
  0
TEXT
  8
0
  40
0.075
  5
279
  62
0
  72
0
  71
0
 10
324.149
 20
34.9487
 30
0.000000
  1
2.56
  7
ROMANC
  0
POINT
  5
234
  8
DEFPOINTS
  6
BYBLOCK
 62
     0
 10
323.958091
 20
33.801488
 30
0.0
  0
POINT
  5
235
  8
DEFPOINTS
  6
BYBLOCK
 62
     0
 10
323.958091
 20
36.361488
 30
0.0
  0
POINT
  5
236
  8
DEFPOINTS
  6
BYBLOCK
 62
     0
 10
324.374068
 20
36.361488
 30
0.0
  0
ENDBLK
  5
237
  8
0
  0
BLOCK
  8
0
  2
*D5
 70
     1
 10
0.0
 20
0.0
 30
0.0
  3
*D5
  1

  0
LINE
  5
195
  8
0
  6
BYBLOCK
 62
     0
 10
323.377254
 20
34.286488
 30
0.0
 11
323.377254
 21
33.44004
 31
0.0
  0
LINE
  5
196
  8
0
  6
BYBLOCK
 62
     0
 10
323.097254
 20
34.286488
 30
0.0
 11
323.097254
 21
33.44004
 31
0.0
  0
LINE
  5
197
  8
0
  6
BYBLOCK
 62
     0
 10
323.527254
 20
33.45504
 30
0.0
 11
323.677254
 21
33.45504
 31
0.0
  0
LINE
  5
198
  8
0
  6
BYBLOCK
 62
     0
 10
322.947254
 20
33.45504
 30
0.0
 11
322.797254
 21
33.45504
 31
0.0
  0
LINE
  5
199
  8
0
  6
BYBLOCK
 62
     0
 10
323.377254
 20
33.45504
 30
0.0
 11
323.097254
 21
33.45504
 31
0.0
  0
SOLID
  5
19A
  8
0
  6
BYBLOCK
 62
     0
 10
323.527254
 20
33.48004
 30
0.0
 11
323.527254
 21
33.43004
 31
0.0
 12
323.377254
 22
33.45504
 32
0.0
 13
323.377254
 23
33.45504
 33
0.0
  0
SOLID
  5
19B
  8
0
  6
BYBLOCK
 62
     0
 10
322.947254
 20
33.48004
 30
0.0
 11
322.947254
 21
33.43004
 31
0.0
 12
323.097254
 22
33.45504
 32
0.0
 13
323.097254
 23
33.45504
 33
0.0
  0
TEXT
  8
0
  40
0.075
  5
27A
  62
0
  72
0
  71
0
 10
323.087
 20
33.3973
 30
0.000000
  1
0.28
  7
ROMANC
  0
POINT
  5
19D
  8
DEFPOINTS
  6
BYBLOCK
 62
     0
 10
323.377254
 20
34.301488
 30
0.0
  0
POINT
  5
19E
  8
DEFPOINTS
  6
BYBLOCK
 62
     0
 10
323.097254
 20
34.301488
 30
0.0
  0
POINT
  5
19F
  8
DEFPOINTS
  6
BYBLOCK
 62
     0
 10
323.097254
 20
33.45504
 30
0.0
  0
ENDBLK
  5
1A0
  8
0
  0
BLOCK
  8
0
  2
*D6
 70
     1
 10
0.0
 20
0.0
 30
0.0
  3
*D6
  1

  0
LINE
  5
1BC
  8
0
  6
BYBLOCK
 62
     0
 10
323.053568
 20
34.301488
 30
0.0
 11
322.694766
 21
34.301488
 31
0.0
  0
LINE
  5
1BD
  8
0
  6
BYBLOCK
 62
     0
 10
323.362254
 20
33.801488
 30
0.0
 11
322.694766
 21
33.801488
 31
0.0
  0
LINE
  5
1BE
  8
0
  6
BYBLOCK
 62
     0
 10
322.709766
 20
34.151488
 30
0.0
 11
322.709766
 21
33.951488
 31
0.0
  0
SOLID
  5
1BF
  8
0
  6
BYBLOCK
 62
     0
 10
322.684766
 20
34.151488
 30
0.0
 11
322.734766
 21
34.151488
 31
0.0
 12
322.709766
 22
34.301488
 32
0.0
 13
322.709766
 23
34.301488
 33
0.0
  0
SOLID
  5
1C0
  8
0
  6
BYBLOCK
 62
     0
 10
322.684766
 20
33.951488
 30
0.0
 11
322.734766
 21
33.951488
 31
0.0
 12
322.709766
 22
33.801488
 32
0.0
 13
322.709766
 23
33.801488
 33
0.0
  0
TEXT
  8
0
  40
0.075
  5
27B
  62
0
  72
0
  71
0
 10
322.485
 20
33.9187
 30
0.000000
  1
0.50
  7
ROMANC
  0
POINT
  5
1C2
  8
DEFPOINTS
  6
BYBLOCK
 62
     0
 10
323.068568
 20
34.301488
 30
0.0
  0
POINT
  5
1C3
  8
DEFPOINTS
  6
BYBLOCK
 62
     0
 10
323.377254
 20
33.801488
 30
0.0
  0
POINT
  5
1C4
  8
DEFPOINTS
  6
BYBLOCK
 62
     0
 10
322.709766
 20
33.801488
 30
0.0
  0
ENDBLK
  5
1C5
  8
0
  0
BLOCK
  8
0
  2
*D7
 70
     1
 10
0.0
 20
0.0
 30
0.0
  3
*D7
  1

  0
LINE
  5
221
  8
0
  6
BYBLOCK
 62
     0
 10
323.958091
 20
33.786488
 30
0.0
 11
323.958091
 21
33.44004
 31
0.0
  0
LINE
  5
222
  8
0
  6
BYBLOCK
 62
     0
 10
323.008091
 20
33.786488
 30
0.0
 11
323.008091
 21
33.44004
 31
0.0
  0
LINE
  5
223
  8
0
  6
BYBLOCK
 62
     0
 10
323.808091
 20
33.45504
 30
0.0
 11
323.158091
 21
33.45504
 31
0.0
  0
SOLID
  5
224
  8
0
  6
BYBLOCK
 62
     0
 10
323.808091
 20
33.48004
 30
0.0
 11
323.808091
 21
33.43004
 31
0.0
 12
323.958091
 22
33.45504
 32
0.0
 13
323.958091
 23
33.45504
 33
0.0
  0
SOLID
  5
225
  8
0
  6
BYBLOCK
 62
     0
 10
323.158091
 20
33.48004
 30
0.0
 11
323.158091
 21
33.43004
 31
0.0
 12
323.008091
 22
33.45504
 32
0.0
 13
323.008091
 23
33.45504
 33
0.0
  0
TEXT
  8
0
  40
0.075
  5
27C
  62
0
  72
0
  71
0
 10
323.333
 20
33.3973
 30
0.000000
  1
0.95
  7
ROMANC
  0
POINT
  5
227
  8
DEFPOINTS
  6
BYBLOCK
 62
     0
 10
323.958091
 20
33.801488
 30
0.0
  0
POINT
  5
228
  8
DEFPOINTS
  6
BYBLOCK
 62
     0
 10
323.008091
 20
33.801488
 30
0.0
  0
POINT
  5
229
  8
DEFPOINTS
  6
BYBLOCK
 62
     0
 10
323.008091
 20
33.45504
 30
0.0
  0
ENDBLK
  5
22A
  8
0
  0
BLOCK
  8
0
  2
*D8
 70
     1
 10
0.0
 20
0.0
 30
0.0
  3
*D8
  1

  0
LINE
  5
216
  8
0
  6
BYBLOCK
 62
     0
 10
322.728091
 20
34.286488
 30
0.0
 11
322.728091
 21
33.113144
 31
0.0
  0
LINE
  5
217
  8
0
  6
BYBLOCK
 62
     0
 10
323.958091
 20
33.786488
 30
0.0
 11
323.958091
 21
33.113144
 31
0.0
  0
LINE
  5
218
  8
0
  6
BYBLOCK
 62
     0
 10
322.878091
 20
33.128144
 30
0.0
 11
323.808091
 21
33.128144
 31
0.0
  0
SOLID
  5
219
  8
0
  6
BYBLOCK
 62
     0
 10
322.878091
 20
33.153144
 30
0.0
 11
322.878091
 21
33.103144
 31
0.0
 12
322.728091
 22
33.128144
 32
0.0
 13
322.728091
 23
33.128144
 33
0.0
  0
SOLID
  5
21A
  8
0
  6
BYBLOCK
 62
     0
 10
323.808091
 20
33.153144
 30
0.0
 11
323.808091
 21
33.103144
 31
0.0
 12
323.958091
 22
33.128144
 32
0.0
 13
323.958091
 23
33.128144
 33
0.0
  0
TEXT
  8
0
  40
0.075
  5
27D
  62
0
  72
0
  71
0
 10
323.193
 20
33.0704
 30
0.000000
  1
1.23
  7
ROMANC
  0
POINT
  5
21C
  8
DEFPOINTS
  6
BYBLOCK
 62
     0
 10
322.728091
 20
34.301488
 30
0.0
  0
POINT
  5
21D
  8
DEFPOINTS
  6
BYBLOCK
 62
     0
 10
323.958091
 20
33.801488
 30
0.0
  0
POINT
  5
21E
  8
DEFPOINTS
  6
BYBLOCK
 62
     0
 10
323.958091
 20
33.128144
 30
0.0
  0
ENDBLK
  5
21F
  8
0
  0
ENDSEC
  0
SECTION
  2
ENTITIES
  0
LINE
  5
27
  8
0
 10
329.348696
 20
29.863623
 30
0.0
 11
329.348696
 21
44.713623
 31
0.0
  0
LINE
  5
28
  8
0
 10
318.848696
 20
44.713623
 30
0.0
 11
318.848696
 21
29.863623
 31
0.0
  0
LINE
  5
29
  8
0
 10
318.848696
 20
29.863623
 30
0.0
 11
329.348696
 21
29.863623
 31
0.0
  0
TEXT
  5
2A
  8
0
 10
321.378668
 20
42.309482
 30
0.0
 40
0.3
  1
TIPUS   NT225A
  7
ROMANC
  0
TEXT
  5
2D
  8
0
 10
321.340746
 20
40.527599
 30
0.0
 40
0.3
  1
P = 68 dm
  7
ROMANC
  0
TEXT
  5
2E
  8
0
 10
321.391762
 20
41.225178
 30
0.0
 40
0.3
  1
S = 225 dm
  7
ROMANC
  0
TEXT
  5
2F
  8
0
 10
321.378668
 20
41.823768
 30
0.0
 40
0.3
  1
ESCALA  1:50
  7
ROMANC
  0
TEXT
  5
30
  8
0
 10
324.546276
 20
41.531094
 30
0.0
 40
0.1
  1
2
  7
ROMANC
  0
LINE
  5
31
  8
0
 10
329.348696
 20
44.713623
 30
0.0
 11
318.848696
 21
44.713623
 31
0.0
  0
LINE
  5
23A
  8
0
 10
323.973091
 20
33.786488
 30
0.0
 11
322.993091
 21
33.786488
 31
0.0
  0
LINE
  5
23B
  8
0
 10
322.993091
 20
33.786488
 30
0.0
 11
322.993091
 21
34.286488
 31
0.0
  0
LINE
  5
23C
  8
0
 10
322.993091
 20
34.286488
 30
0.0
 11
322.712724
 21
34.286488
 31
0.0
  0
ARC
  5
23D
  8
0
 10
325.153546
 20
34.245971
 30
0.0
 40
2.441158
 50
118.918394
 51
179.048979
  0
LINE
  5
23E
  8
0
 10
323.973091
 20
36.382739
 30
0.0
 11
323.973091
 21
33.786488
 31
0.0
  0
LINE
  5
23F
  8
0
 10
323.965591
 20
33.793988
 30
0.0
 11
323.000591
 21
33.793988
 31
0.0
  0
LINE
  5
240
  8
0
 10
323.000591
 20
33.793988
 30
0.0
 11
323.000591
 21
34.293988
 31
0.0
  0
LINE
  5
241
  8
0
 10
323.000591
 20
34.293988
 30
0.0
 11
322.720391
 21
34.293988
 31
0.0
  0
ARC
  5
242
  8
0
 10
325.159851
 20
34.244434
 30
0.0
 40
2.439963
 50
119.304976
 51
178.836269
  0
LINE
  5
243
  8
0
 10
323.965591
 20
36.372147
 30
0.0
 11
323.965591
 21
33.793988
 31
0.0
  0
LINE
  5
244
  8
0
 10
323.958091
 20
33.801488
 30
0.0
 11
323.008091
 21
33.801488
 31
0.0
  0
LINE
  5
245
  8
0
 10
323.008091
 20
33.801488
 30
0.0
 11
323.008091
 21
34.301488
 31
0.0
  0
LINE
  5
246
  8
0
 10
323.008091
 20
34.301488
 30
0.0
 11
322.728091
 21
34.301488
 31
0.0
  0
ARC
  5
247
  8
0
 10
325.166331
 20
34.242855
 30
0.0
 40
2.438945
 50
119.695773
 51
178.622443
  0
LINE
  5
248
  8
0
 10
323.958091
 20
36.361488
 30
0.0
 11
323.958091
 21
33.801488
 31
0.0
  0
LINE
  5
249
  8
0
  6
BYBLOCK
 62
     0
 10
322.728091
 20
34.286488
 30
0.0
 11
322.728091
 21
33.113144
 31
0.0
  0
LINE
  5
24A
  8
0
  6
BYBLOCK
 62
     0
 10
323.958091
 20
33.786488
 30
0.0
 11
323.958091
 21
33.113144
 31
0.0
  0
LINE
  5
24B
  8
0
  6
BYBLOCK
 62
     0
 10
322.878091
 20
33.128144
 30
0.0
 11
323.808091
 21
33.128144
 31
0.0
  0
SOLID
  5
24C
  8
0
  6
BYBLOCK
 62
     0
 10
322.878091
 20
33.153144
 30
0.0
 11
322.878091
 21
33.103144
 31
0.0
 12
322.728091
 22
33.128144
 32
0.0
 13
322.728091
 23
33.128144
 33
0.0
  0
SOLID
  5
24D
  8
0
  6
BYBLOCK
 62
     0
 10
323.808091
 20
33.153144
 30
0.0
 11
323.808091
 21
33.103144
 31
0.0
 12
323.958091
 22
33.128144
 32
0.0
 13
323.958091
 23
33.128144
 33
0.0
  0
TEXT
  8
0
  40
0.075
  5
27E
  62
0
  72
0
  71
0
 10
323.193
 20
33.0704
 30
0.000000
  1
1.23
  7
ROMANC
  0
POINT
  5
24F
  8
DEFPOINTS
  6
BYBLOCK
 62
     0
 10
322.728091
 20
34.301488
 30
0.0
  0
POINT
  5
250
  8
DEFPOINTS
  6
BYBLOCK
 62
     0
 10
323.958091
 20
33.801488
 30
0.0
  0
POINT
  5
251
  8
DEFPOINTS
  6
BYBLOCK
 62
     0
 10
323.958091
 20
33.128144
 30
0.0
  0
LINE
  5
252
  8
0
  6
BYBLOCK
 62
     0
 10
323.958091
 20
33.786488
 30
0.0
 11
323.958091
 21
33.44004
 31
0.0
  0
LINE
  5
253
  8
0
  6
BYBLOCK
 62
     0
 10
323.008091
 20
33.786488
 30
0.0
 11
323.008091
 21
33.44004
 31
0.0
  0
LINE
  5
254
  8
0
  6
BYBLOCK
 62
     0
 10
323.808091
 20
33.45504
 30
0.0
 11
323.158091
 21
33.45504
 31
0.0
  0
SOLID
  5
255
  8
0
  6
BYBLOCK
 62
     0
 10
323.808091
 20
33.48004
 30
0.0
 11
323.808091
 21
33.43004
 31
0.0
 12
323.958091
 22
33.45504
 32
0.0
 13
323.958091
 23
33.45504
 33
0.0
  0
SOLID
  5
256
  8
0
  6
BYBLOCK
 62
     0
 10
323.158091
 20
33.48004
 30
0.0
 11
323.158091
 21
33.43004
 31
0.0
 12
323.008091
 22
33.45504
 32
0.0
 13
323.008091
 23
33.45504
 33
0.0
  0
TEXT
  8
0
  40
0.075
  5
27F
  62
0
  72
0
  71
0
 10
323.333
 20
33.3973
 30
0.000000
  1
0.95
  7
ROMANC
  0
POINT
  5
258
  8
DEFPOINTS
  6
BYBLOCK
 62
     0
 10
323.958091
 20
33.801488
 30
0.0
  0
POINT
  5
259
  8
DEFPOINTS
  6
BYBLOCK
 62
     0
 10
323.008091
 20
33.801488
 30
0.0
  0
POINT
  5
25A
  8
DEFPOINTS
  6
BYBLOCK
 62
     0
 10
323.008091
 20
33.45504
 30
0.0
  0
LINE
  5
25B
  8
0
  6
BYBLOCK
 62
     0
 10
322.684406
 20
34.301488
 30
0.0
 11
322.325603
 21
34.301488
 31
0.0
  0
LINE
  5
25C
  8
0
  6
BYBLOCK
 62
     0
 10
322.993091
 20
33.801488
 30
0.0
 11
322.325603
 21
33.801488
 31
0.0
  0
LINE
  5
25D
  8
0
  6
BYBLOCK
 62
     0
 10
322.340603
 20
34.151488
 30
0.0
 11
322.340603
 21
33.951488
 31
0.0
  0
SOLID
  5
25E
  8
0
  6
BYBLOCK
 62
     0
 10
322.315603
 20
34.151488
 30
0.0
 11
322.365603
 21
34.151488
 31
0.0
 12
322.340603
 22
34.301488
 32
0.0
 13
322.340603
 23
34.301488
 33
0.0
  0
SOLID
  5
25F
  8
0
  6
BYBLOCK
 62
     0
 10
322.315603
 20
33.951488
 30
0.0
 11
322.365603
 21
33.951488
 31
0.0
 12
322.340603
 22
33.801488
 32
0.0
 13
322.340603
 23
33.801488
 33
0.0
  0
TEXT
  8
0
  40
0.075
  5
280
  62
0
  72
0
  71
0
 10
322.116
 20
33.9187
 30
0.000000
  1
0.50
  7
ROMANC
  0
POINT
  5
261
  8
DEFPOINTS
  6
BYBLOCK
 62
     0
 10
322.699406
 20
34.301488
 30
0.0
  0
POINT
  5
262
  8
DEFPOINTS
  6
BYBLOCK
 62
     0
 10
323.008091
 20
33.801488
 30
0.0
  0
POINT
  5
263
  8
DEFPOINTS
  6
BYBLOCK
 62
     0
 10
322.340603
 20
33.801488
 30
0.0
  0
LINE
  5
264
  8
0
  6
BYBLOCK
 62
     0
 10
323.008091
 20
34.286488
 30
0.0
 11
323.008091
 21
33.44004
 31
0.0
  0
LINE
  5
265
  8
0
  6
BYBLOCK
 62
     0
 10
322.728091
 20
34.286488
 30
0.0
 11
322.728091
 21
33.44004
 31
0.0
  0
LINE
  5
266
  8
0
  6
BYBLOCK
 62
     0
 10
323.158091
 20
33.45504
 30
0.0
 11
323.308091
 21
33.45504
 31
0.0
  0
LINE
  5
267
  8
0
  6
BYBLOCK
 62
     0
 10
322.578091
 20
33.45504
 30
0.0
 11
322.428091
 21
33.45504
 31
0.0
  0
LINE
  5
268
  8
0
  6
BYBLOCK
 62
     0
 10
323.008091
 20
33.45504
 30
0.0
 11
322.728091
 21
33.45504
 31
0.0
  0
SOLID
  5
269
  8
0
  6
BYBLOCK
 62
     0
 10
323.158091
 20
33.48004
 30
0.0
 11
323.158091
 21
33.43004
 31
0.0
 12
323.008091
 22
33.45504
 32
0.0
 13
323.008091
 23
33.45504
 33
0.0
  0
SOLID
  5
26A
  8
0
  6
BYBLOCK
 62
     0
 10
322.578091
 20
33.48004
 30
0.0
 11
322.578091
 21
33.43004
 31
0.0
 12
322.728091
 22
33.45504
 32
0.0
 13
322.728091
 23
33.45504
 33
0.0
  0
TEXT
  8
0
  40
0.075
  5
281
  62
0
  72
0
  71
0
 10
322.718
 20
33.3973
 30
0.000000
  1
0.28
  7
ROMANC
  0
POINT
  5
26C
  8
DEFPOINTS
  6
BYBLOCK
 62
     0
 10
323.008091
 20
34.301488
 30
0.0
  0
POINT
  5
26D
  8
DEFPOINTS
  6
BYBLOCK
 62
     0
 10
322.728091
 20
34.301488
 30
0.0
  0
POINT
  5
26E
  8
DEFPOINTS
  6
BYBLOCK
 62
     0
 10
322.728091
 20
33.45504
 30
0.0
  0
LINE
  5
26F
  8
0
  6
BYBLOCK
 62
     0
 10
323.973091
 20
33.801488
 30
0.0
 11
324.389068
 21
33.801488
 31
0.0
  0
LINE
  5
270
  8
0
  6
BYBLOCK
 62
     0
 10
323.973091
 20
36.361488
 30
0.0
 11
324.389068
 21
36.361488
 31
0.0
  0
LINE
  5
271
  8
0
  6
BYBLOCK
 62
     0
 10
324.374068
 20
33.951488
 30
0.0
 11
324.374068
 21
36.211488
 31
0.0
  0
SOLID
  5
272
  8
0
  6
BYBLOCK
 62
     0
 10
324.349068
 20
33.951488
 30
0.0
 11
324.399068
 21
33.951488
 31
0.0
 12
324.374068
 22
33.801488
 32
0.0
 13
324.374068
 23
33.801488
 33
0.0
  0
SOLID
  5
273
  8
0
  6
BYBLOCK
 62
     0
 10
324.349068
 20
36.211488
 30
0.0
 11
324.399068
 21
36.211488
 31
0.0
 12
324.374068
 22
36.361488
 32
0.0
 13
324.374068
 23
36.361488
 33
0.0
  0
TEXT
  8
0
  40
0.075
  5
282
  62
0
  72
0
  71
0
 10
324.149
 20
34.9487
 30
0.000000
  1
2.56
  7
ROMANC
  0
POINT
  5
275
  8
DEFPOINTS
  6
BYBLOCK
 62
     0
 10
323.958091
 20
33.801488
 30
0.0
  0
POINT
  5
276
  8
DEFPOINTS
  6
BYBLOCK
 62
     0
 10
323.958091
 20
36.361488
 30
0.0
  0
POINT
  5
277
  8
DEFPOINTS
  6
BYBLOCK
 62
     0
 10
324.374068
 20
36.361488
 30
0.0
  0
ENDSEC
  0
EOF
