  0
SECTION
  2
HEADER
  9
$ACADVER
  1
AC1009
  9
$INSBASE
 10
219.026464
 20
199.269792
 30
0.0
  9
$EXTMIN
 10
219.026464
 20
199.269792
 30
0.0
  9
$EXTMAX
 10
229.526464
 20
214.119792
 30
0.0
  9
$LIMMIN
 10
0.0
 20
0.0
  9
$LIMMAX
 10
410.0
 20
287.0
  9
$ORTHOMODE
 70
     1
  9
$REGENMODE
 70
     1
  9
$FILLMODE
 70
     1
  9
$QTEXTMODE
 70
     0
  9
$MIRRTEXT
 70
     1
  9
$DRAGMODE
 70
     2
  9
$LTSCALE
 40
25.0
  9
$OSMODE
 70
    32
  9
$ATTMODE
 70
     1
  9
$TEXTSIZE
 40
0.1
  9
$TRACEWID
 40
0.3
  9
$TEXTSTYLE
  7
STANDARD
  9
$CLAYER
  8
0
  9
$CELTYPE
  6
BYLAYER
  9
$CECOLOR
 62
   256
  9
$DIMSCALE
 40
1.0
  9
$DIMASZ
 40
3.5
  9
$DIMEXO
 40
0.1
  9
$DIMDLI
 40
7.0
  9
$DIMRND
 40
0.0
  9
$DIMDLE
 40
0.0
  9
$DIMEXE
 40
1.8
  9
$DIMTP
 40
0.0
  9
$DIMTM
 40
0.0
  9
$DIMTXT
 40
3.5
  9
$DIMCEN
 40
1.5
  9
$DIMTSZ
 40
0.0
  9
$DIMTOL
 70
     0
  9
$DIMLIM
 70
     0
  9
$DIMTIH
 70
     0
  9
$DIMTOH
 70
     0
  9
$DIMSE1
 70
     0
  9
$DIMSE2
 70
     0
  9
$DIMTAD
 70
     0
  9
$DIMZIN
 70
     0
  9
$DIMBLK
  1

  9
$DIMASO
 70
     1
  9
$DIMSHO
 70
     0
  9
$DIMPOST
  1

  9
$DIMAPOST
  1

  9
$DIMALT
 70
     0
  9
$DIMALTD
 70
     2
  9
$DIMALTF
 40
25.4
  9
$DIMLFAC
 40
1.0
  9
$DIMTOFL
 70
     0
  9
$DIMTVP
 40
0.0
  9
$DIMTIX
 70
     0
  9
$DIMSOXD
 70
     0
  9
$DIMSAH
 70
     0
  9
$DIMBLK1
  1

  9
$DIMBLK2
  1

  9
$DIMSTYLE
  2
*UNNAMED
  9
$DIMCLRD
 70
     0
  9
$DIMCLRE
 70
     0
  9
$DIMCLRT
 70
     0
  9
$DIMTFAC
 40
1.0
  9
$DIMGAP
 40
0.09
  9
$LUNITS
 70
     2
  9
$LUPREC
 70
     2
  9
$SKETCHINC
 40
1.0
  9
$FILLETRAD
 40
0.0
  9
$AUNITS
 70
     0
  9
$AUPREC
 70
     0
  9
$MENU
  1
acad
  9
$ELEVATION
 40
0.0
  9
$PELEVATION
 40
0.0
  9
$THICKNESS
 40
0.0
  9
$LIMCHECK
 70
     0
  9
$BLIPMODE
 70
     0
  9
$CHAMFERA
 40
0.0
  9
$CHAMFERB
 40
0.0
  9
$SKPOLY
 70
     0
  9
$TDCREATE
 40
2449961.521683448
  9
$TDUPDATE
 40
2450723.720701851
  9
$TDINDWG
 40
0.0013094907
  9
$TDUSRTIMER
 40
0.0013094907
  9
$USRTIMER
 70
     1
  9
$ANGBASE
 50
0.0
  9
$ANGDIR
 70
     0
  9
$PDMODE
 70
     0
  9
$PDSIZE
 40
0.0
  9
$PLINEWID
 40
0.0
  9
$COORDS
 70
     2
  9
$SPLFRAME
 70
     0
  9
$SPLINETYPE
 70
     6
  9
$SPLINESEGS
 70
     8
  9
$ATTDIA
 70
     0
  9
$ATTREQ
 70
     1
  9
$HANDLING
 70
     0
  9
$HANDSEED
  5
0
  9
$SURFTAB1
 70
     6
  9
$SURFTAB2
 70
     6
  9
$SURFTYPE
 70
     6
  9
$SURFU
 70
     6
  9
$SURFV
 70
     6
  9
$UCSNAME
  2

  9
$UCSORG
 10
0.0
 20
0.0
 30
0.0
  9
$UCSXDIR
 10
1.0
 20
0.0
 30
0.0
  9
$UCSYDIR
 10
0.0
 20
1.0
 30
0.0
  9
$PUCSNAME
  2

  9
$PUCSORG
 10
0.0
 20
0.0
 30
0.0
  9
$PUCSXDIR
 10
1.0
 20
0.0
 30
0.0
  9
$PUCSYDIR
 10
0.0
 20
1.0
 30
0.0
  9
$USERI1
 70
     0
  9
$USERI2
 70
     0
  9
$USERI3
 70
     0
  9
$USERI4
 70
     0
  9
$USERI5
 70
     0
  9
$USERR1
 40
0.0
  9
$USERR2
 40
0.0
  9
$USERR3
 40
0.0
  9
$USERR4
 40
0.0
  9
$USERR5
 40
0.0
  9
$WORLDVIEW
 70
     1
  9
$SHADEDGE
 70
     3
  9
$SHADEDIF
 70
    70
  9
$TILEMODE
 70
     1
  9
$MAXACTVP
 70
    16
  9
$PINSBASE
 10
0.0
 20
0.0
 30
0.0
  9
$PLIMCHECK
 70
     0
  9
$PEXTMIN
 10
1.000000E+20
 20
1.000000E+20
 30
1.000000E+20
  9
$PEXTMAX
 10
-1.000000E+20
 20
-1.000000E+20
 30
-1.000000E+20
  9
$PLIMMIN
 10
0.0
 20
0.0
  9
$PLIMMAX
 10
12.0
 20
9.0
  9
$UNITMODE
 70
     0
  9
$VISRETAIN
 70
     0
  9
$PLINEGEN
 70
     0
  9
$PSLTSCALE
 70
     0
  9
$TREEDEPTH
 70
  3020
  9
$DWGCODEPAGE
  3
iso8859-1
  0
ENDSEC
  0
SECTION
  2
TABLES
  0
TABLE
  2
VPORT
 70
     1
  0
VPORT
  2
*ACTIVE
 70
     0
 10
0.0
 20
0.0
 11
1.0
 21
1.0
 12
230.988314
 22
206.694792
 13
0.0
 23
0.0
 14
1.0
 24
1.0
 15
10.0
 25
10.0
 16
0.0
 26
0.0
 36
1.0
 17
0.0
 27
0.0
 37
0.0
 40
14.85
 41
1.611024
 42
50.0
 43
0.0
 44
0.0
 50
0.0
 51
0.0
 71
     0
 72
   100
 73
     1
 74
     0
 75
     0
 76
     0
 77
     0
 78
     0
  0
ENDTAB
  0
TABLE
  2
LTYPE
 70
     1
  0
LTYPE
  2
CONTINUOUS
 70
    64
  3
Solid Line
 72
    65
 73
     0
 40
0.0
  0
ENDTAB
  0
TABLE
  2
LAYER
 70
     5
  0
LAYER
  2
0
 70
    64
 62
     7
  6
CONTINUOUS
  0
LAYER
  2
SECCIO
 70
    64
 62
     7
  6
CONTINUOUS
  0
LAYER
  2
MESURA
 70
    64
 62
     7
  6
CONTINUOUS
  0
LAYER
  2
TEXTEP
 70
    64
 62
     7
  6
CONTINUOUS
  0
LAYER
  2
TEXTEG
 70
    64
 62
     7
  6
CONTINUOUS
  0
ENDTAB
  0
TABLE
  2
STYLE
 70
     2
  0
STYLE
  2
STANDARD
 70
    64
 40
0.0
 41
1.0
 50
0.0
 71
     0
 42
0.1
  3
txt
  4

  0
STYLE
  2
ROMANC
 70
    64
 40
0.0
 41
1.0
 50
0.0
 71
     0
 42
0.1
  3
romanc
  4

  0
ENDTAB
  0
TABLE
  2
VIEW
 70
     0
  0
ENDTAB
  0
TABLE
  2
UCS
 70
     0
  0
ENDTAB
  0
TABLE
  2
APPID
 70
     1
  0
APPID
  2
ACAD
 70
    64
  0
ENDTAB
  0
TABLE
  2
DIMSTYLE
 70
     0
  0
ENDTAB
  0
ENDSEC
  0
SECTION
  2
BLOCKS
  0
ENDSEC
  0
SECTION
  2
ENTITIES
  0
TEXT
  8
0
 10
220.615109
 20
210.4267
 30
0.0
 40
0.3
  1
P = 194.7 dm
  7
ROMANC
  0
LINE
  8
0
 10
219.026464
 20
214.119792
 30
0.0
 11
219.026464
 21
199.269792
 31
0.0
  0
LINE
  8
0
 10
229.526464
 20
214.119792
 30
0.0
 11
229.526464
 21
199.269792
 31
0.0
  0
LINE
  8
0
 10
219.026464
 20
199.269792
 30
0.0
 11
229.526464
 21
199.269792
 31
0.0
  0
TEXT
  8
TEXTEP
 10
227.09993
 20
208.537921
 30
0.0
 40
0.1
  1
0.5
 50
0.5
  0
LINE
  8
MESURA
 10
226.936345
 20
208.480959
 30
0.0
 11
227.522454
 21
208.480959
 31
0.0
  0
LINE
  8
MESURA
 10
226.956345
 20
208.180959
 30
0.0
 11
228.056345
 21
208.180959
 31
0.0
  0
LINE
  8
MESURA
 10
221.140423
 20
204.030959
 30
0.0
 11
227.440423
 21
204.030959
 31
0.0
  0
LINE
  8
MESURA
 10
221.140423
 20
205.030959
 30
0.0
 11
221.140423
 21
203.963903
 31
0.0
  0
LINE
  8
MESURA
 10
220.715419
 20
205.067425
 30
0.0
 11
220.715419
 21
204.501659
 31
0.0
  0
LINE
  8
0
 10
222.082007
 20
204.075205
 30
0.0
 11
222.040423
 21
204.030959
 31
0.0
  0
LINE
  8
MESURA
 10
222.040423
 20
204.530959
 30
0.0
 11
222.040423
 21
203.963903
 31
0.0
  0
LINE
  8
MESURA
 10
220.715419
 20
204.530959
 30
0.0
 11
220.683952
 21
204.494648
 31
0.0
  0
LINE
  8
MESURA
 10
221.140423
 20
204.530959
 30
0.0
 11
220.665483
 21
204.530959
 31
0.0
  0
TEXT
  8
MESURA
 10
220.449095
 20
204.692956
 30
0.0
 40
0.1
  1
0.5
  0
TEXT
  8
MESURA
 10
221.47278
 20
203.844595
 30
0.0
 40
0.1
  1
0.9
  0
LINE
  8
0
 10
220.757003
 20
204.575205
 30
0.0
 11
220.715419
 21
204.530959
 31
0.0
  0
LINE
  8
0
 10
221.182007
 20
204.075205
 30
0.0
 11
221.140423
 21
204.030959
 31
0.0
  0
LINE
  8
MESURA
 10
221.140423
 20
204.030959
 30
0.0
 11
221.108955
 21
203.994648
 31
0.0
  0
LINE
  8
MESURA
 10
222.040423
 20
204.030959
 30
0.0
 11
222.008955
 21
203.994648
 31
0.0
  0
LINE
  8
MESURA
 10
222.040423
 20
204.530959
 30
0.0
 11
221.140423
 21
204.530959
 31
0.0
  0
TEXT
  8
TEXTEP
 10
224.057414
 20
203.861293
 30
0.0
 40
0.1
  1
5.4
  0
LINE
  8
MESURA
 10
220.715419
 20
205.030959
 30
0.0
 11
220.683952
 21
204.994648
 31
0.0
  0
LINE
  8
MESURA
 10
221.140423
 20
205.030959
 30
0.0
 11
220.665483
 21
205.030959
 31
0.0
  0
LINE
  8
0
 10
220.757003
 20
205.075205
 30
0.0
 11
220.715419
 21
205.030959
 31
0.0
  0
LINE
  8
MESURA
 10
226.91348
 20
208.45024
 30
0.0
 11
226.99687
 21
208.51085
 31
0.0
  0
LINE
  8
MESURA
 10
226.955494
 20
208.171916
 30
0.0
 11
226.956483
 21
208.530959
 31
0.0
  0
LINE
  8
MESURA
 10
227.940423
 20
208.229064
 30
0.0
 11
227.940423
 21
204.530959
 31
0.0
  0
LINE
  8
MESURA
 10
227.440423
 20
204.530959
 30
0.0
 11
228.040423
 21
204.530959
 31
0.0
  0
LINE
  8
MESURA
 10
227.440423
 20
204.530959
 30
0.0
 11
227.440423
 21
203.963903
 31
0.0
  0
LINE
  8
0
 10
227.478462
 20
204.074685
 30
0.0
 11
227.440423
 21
204.030959
 31
0.0
  0
LINE
  8
MESURA
 10
227.440423
 20
204.030959
 30
0.0
 11
227.397635
 21
203.991666
 31
0.0
  0
LINE
  8
MESURA
 10
227.904211
 20
204.503406
 30
0.0
 11
227.987601
 21
204.564016
 31
0.0
  0
LINE
  8
MESURA
 10
227.900705
 20
207.850034
 30
0.0
 11
227.984095
 21
207.910644
 31
0.0
  0
TEXT
  8
TEXTEP
 10
227.98915
 20
207.976118
 30
0.0
 40
0.1
  1
0.3
  0
LINE
  8
MESURA
 10
227.899025
 20
208.150552
 30
0.0
 11
227.982415
 21
208.211161
 31
0.0
  0
LINE
  8
MESURA
 10
227.44345
 20
207.888402
 30
0.0
 11
227.44345
 21
208.530959
 31
0.0
  0
LINE
  8
MESURA
 10
227.402759
 20
208.45024
 30
0.0
 11
227.486149
 21
208.51085
 31
0.0
  0
LINE
  8
MESURA
 10
227.440423
 20
207.880959
 30
0.0
 11
228.040423
 21
207.880959
 31
0.0
  0
TEXT
  8
TEXTEP
 10
228.0039
 20
206.023421
 30
0.0
 40
0.1
  1
3.35
  0
LINE
  8
0
 10
219.026464
 20
214.119792
 30
0.0
 11
229.526464
 21
214.119792
 31
0.0
  0
TEXT
  8
0
 10
220.617937
 20
211.100198
 30
0.0
 40
0.3
  1
S = 2240 dm
  7
ROMANC
  0
TEXT
  8
TEXTEG
 10
220.634275
 20
211.755702
 30
0.0
 40
0.3
  1
ESCALA    1:50
  0
TEXT
  8
TEXTEG
 10
220.566874
 20
212.520269
 30
0.0
 40
0.3
  1
TIPUS     NT2240
  0
TEXT
  8
0
 10
224.125768
 20
211.406114
 30
0.0
 40
0.1
  1
2
  7
ROMANC
  0
LINE
  8
MESURA
 10
227.485979
 20
208.180959
 30
0.0
 11
228.585979
 21
208.180959
 31
0.0
  0
LINE
  8
MESURA
 10
228.470056
 20
208.229064
 30
0.0
 11
228.470056
 21
204.530959
 31
0.0
  0
LINE
  8
MESURA
 10
228.433845
 20
204.503406
 30
0.0
 11
228.517235
 21
204.564016
 31
0.0
  0
LINE
  8
MESURA
 10
227.970056
 20
204.530959
 30
0.0
 11
228.570056
 21
204.530959
 31
0.0
  0
TEXT
  8
TEXTEP
 10
228.533534
 20
206.312341
 30
0.0
 40
0.1
  1
3.65
  0
LINE
  8
MESURA
 10
228.428659
 20
208.150552
 30
0.0
 11
228.512049
 21
208.211161
 31
0.0
  0
LINE
  8
MESURA
 10
221.140423
 20
203.687882
 30
0.0
 11
227.440423
 21
203.687882
 31
0.0
  0
LINE
  8
MESURA
 10
221.140423
 20
204.687882
 30
0.0
 11
221.140423
 21
203.620826
 31
0.0
  0
LINE
  8
MESURA
 10
222.040423
 20
203.687882
 30
0.0
 11
222.008955
 21
203.651571
 31
0.0
  0
LINE
  8
MESURA
 10
221.140423
 20
203.687882
 30
0.0
 11
221.108955
 21
203.651571
 31
0.0
  0
LINE
  8
0
 10
221.182007
 20
203.732128
 30
0.0
 11
221.140423
 21
203.687882
 31
0.0
  0
TEXT
  8
TEXTEP
 10
224.057414
 20
203.518216
 30
0.0
 40
0.1
  1
6.30
  0
LINE
  8
MESURA
 10
227.440423
 20
203.687882
 30
0.0
 11
227.397635
 21
203.648589
 31
0.0
  0
LINE
  8
0
 10
227.478462
 20
203.731608
 30
0.0
 11
227.440423
 21
203.687882
 31
0.0
  0
LINE
  8
MESURA
 10
227.440423
 20
204.187882
 30
0.0
 11
227.440423
 21
203.620826
 31
0.0
  0
LINE
  8
SECCIO
 10
221.150423
 20
205.040959
 30
0.0
 11
221.150423
 21
207.875297
 31
0.0
  0
LINE
  8
SECCIO
 10
221.150423
 20
207.875297
 30
0.0
 11
221.643192
 21
208.170959
 31
0.0
  0
LINE
  8
SECCIO
 10
221.643192
 20
208.170959
 30
0.0
 11
226.937653
 21
208.170959
 31
0.0
  0
LINE
  8
SECCIO
 10
226.937653
 20
208.170959
 30
0.0
 11
227.430423
 21
207.875297
 31
0.0
  0
LINE
  8
SECCIO
 10
227.430423
 20
207.875297
 30
0.0
 11
227.430423
 21
204.540959
 31
0.0
  0
LINE
  8
SECCIO
 10
227.430423
 20
204.540959
 30
0.0
 11
222.050423
 21
204.540959
 31
0.0
  0
LINE
  8
SECCIO
 10
222.050423
 20
204.540959
 30
0.0
 11
222.050423
 21
205.040959
 31
0.0
  0
LINE
  8
SECCIO
 10
222.050423
 20
205.040959
 30
0.0
 11
221.150423
 21
205.040959
 31
0.0
  0
LINE
  8
SECCIO
 10
221.130423
 20
205.020959
 30
0.0
 11
221.130423
 21
207.886621
 31
0.0
  0
LINE
  8
SECCIO
 10
221.130423
 20
207.886621
 30
0.0
 11
221.637653
 21
208.190959
 31
0.0
  0
LINE
  8
SECCIO
 10
221.637653
 20
208.190959
 30
0.0
 11
226.943192
 21
208.190959
 31
0.0
  0
LINE
  8
SECCIO
 10
226.943192
 20
208.190959
 30
0.0
 11
227.450423
 21
207.886621
 31
0.0
  0
LINE
  8
SECCIO
 10
227.450423
 20
207.886621
 30
0.0
 11
227.450423
 21
204.520959
 31
0.0
  0
LINE
  8
SECCIO
 10
227.450423
 20
204.520959
 30
0.0
 11
222.030423
 21
204.520959
 31
0.0
  0
LINE
  8
SECCIO
 10
222.030423
 20
204.520959
 30
0.0
 11
222.030423
 21
205.020959
 31
0.0
  0
LINE
  8
SECCIO
 10
222.030423
 20
205.020959
 30
0.0
 11
221.130423
 21
205.020959
 31
0.0
  0
LINE
  8
SECCIO
 10
221.140423
 20
205.030959
 30
0.0
 11
221.140423
 21
207.880959
 31
0.0
  0
LINE
  8
SECCIO
 10
221.140423
 20
207.880959
 30
0.0
 11
221.640423
 21
208.180959
 31
0.0
  0
LINE
  8
SECCIO
 10
221.640423
 20
208.180959
 30
0.0
 11
226.940423
 21
208.180959
 31
0.0
  0
LINE
  8
SECCIO
 10
226.940423
 20
208.180959
 30
0.0
 11
227.440423
 21
207.880959
 31
0.0
  0
LINE
  8
SECCIO
 10
227.440423
 20
207.880959
 30
0.0
 11
227.440423
 21
204.530959
 31
0.0
  0
LINE
  8
SECCIO
 10
227.440423
 20
204.530959
 30
0.0
 11
222.040423
 21
204.530959
 31
0.0
  0
LINE
  8
SECCIO
 10
222.040423
 20
204.530959
 30
0.0
 11
222.040423
 21
205.030959
 31
0.0
  0
LINE
  8
SECCIO
 10
222.040423
 20
205.030959
 30
0.0
 11
221.140423
 21
205.030959
 31
0.0
  0
ENDSEC
  0
EOF
