  0
SECTION
  2
HEADER
  9
$ACADVER
  1
AC1009
  9
$INSBASE
 10
0.0
 20
0.0
 30
0.0
  9
$EXTMIN
 10
281.396000
 20
29.897000
 30
-2147483.648000
  9
$EXTMAX
 10
291.896000
 20
44.747000
 30
0.000000
  9
$LIMMIN
 10
280.396000
 20
28.897000
  9
$LIMMAX
 10
292.896000
 20
43.747000
  9
$ORTHOMODE
 70
     0
  9
$REGENMODE
 70
     1
  9
$FILLMODE
 70
     1
  9
$QTEXTMODE
 70
     0
  9
$MIRRTEXT
 70
     1
  9
$DRAGMODE
 70
     2
  9
$LTSCALE
 40
1.0
  9
$OSMODE
 70
     0
  9
$ATTMODE
 70
     1
  9
$TEXTSIZE
 40
0.2
  9
$TRACEWID
 40
0.05
  9
$TEXTSTYLE
  7
STANDARD
  9
$CLAYER
  8
0
  9
$CELTYPE
  6
BYLAYER
  9
$CECOLOR
 62
   256
  9
$DIMSCALE
 40
1.0
  9
$DIMASZ
 40
0.18
  9
$DIMEXO
 40
0.0625
  9
$DIMDLI
 40
0.38
  9
$DIMRND
 40
0.0
  9
$DIMDLE
 40
0.0
  9
$DIMEXE
 40
0.18
  9
$DIMTP
 40
0.0
  9
$DIMTM
 40
0.0
  9
$DIMTXT
 40
0.18
  9
$DIMCEN
 40
0.09
  9
$DIMTSZ
 40
0.0
  9
$DIMTOL
 70
     0
  9
$DIMLIM
 70
     0
  9
$DIMTIH
 70
     1
  9
$DIMTOH
 70
     1
  9
$DIMSE1
 70
     0
  9
$DIMSE2
 70
     0
  9
$DIMTAD
 70
     0
  9
$DIMZIN
 70
     0
  9
$DIMBLK
  1

  9
$DIMASO
 70
     1
  9
$DIMSHO
 70
     1
  9
$DIMPOST
  1

  9
$DIMAPOST
  1

  9
$DIMALT
 70
     0
  9
$DIMALTD
 70
     2
  9
$DIMALTF
 40
25.4
  9
$DIMLFAC
 40
1.0
  9
$DIMTOFL
 70
     0
  9
$DIMTVP
 40
0.0
  9
$DIMTIX
 70
     0
  9
$DIMSOXD
 70
     0
  9
$DIMSAH
 70
     0
  9
$DIMBLK1
  1

  9
$DIMBLK2
  1

  9
$DIMSTYLE
  2
*UNNAMED
  9
$DIMCLRD
 70
     0
  9
$DIMCLRE
 70
     0
  9
$DIMCLRT
 70
     0
  9
$DIMTFAC
 40
1.0
  9
$DIMGAP
 40
0.09
  9
$LUNITS
 70
     2
  9
$LUPREC
 70
     4
  9
$AXISMODE
 70
     0
  9
$AXISUNIT
 10
0.0
 20
0.0
  9
$SKETCHINC
 40
0.1
  9
$FILLETRAD
 40
0.0
  9
$AUNITS
 70
     0
  9
$AUPREC
 70
     0
  9
$MENU
  1
acad
  9
$ELEVATION
 40
0.0
  9
$PELEVATION
 40
0.0
  9
$THICKNESS
 40
0.0
  9
$LIMCHECK
 70
     0
  9
$BLIPMODE
 70
     1
  9
$CHAMFERA
 40
0.0
  9
$CHAMFERB
 40
0.0
  9
$SKPOLY
 70
     0
  9
$TDCREATE
 40
2448315.373408102
  9
$TDUPDATE
 40
2448315.373408102
  9
$TDINDWG
 40
0.0000000000
  9
$TDUSRTIMER
 40
0.0000000000
  9
$USRTIMER
 70
     1
  9
$ANGBASE
 50
0.0
  9
$ANGDIR
 70
     0
  9
$PDMODE
 70
     0
  9
$PDSIZE
 40
0.0
  9
$PLINEWID
 40
0.0
  9
$COORDS
 70
     0
  9
$SPLFRAME
 70
     0
  9
$SPLINETYPE
 70
     6
  9
$SPLINESEGS
 70
     8
  9
$ATTDIA
 70
     0
  9
$ATTREQ
 70
     1
  9
$HANDLING
 70
     0
  9
$HANDSEED
  5
0
  9
$SURFTAB1
 70
     6
  9
$SURFTAB2
 70
     6
  9
$SURFTYPE
 70
     6
  9
$SURFU
 70
     6
  9
$SURFV
 70
     6
  9
$UCSNAME
  2

  9
$UCSORG
 10
0.0
 20
0.0
 30
0.0
  9
$UCSXDIR
 10
1.0
 20
0.0
 30
0.0
  9
$UCSYDIR
 10
0.0
 20
1.0
 30
0.0
  9
$PUCSNAME
  2

  9
$PUCSORG
 10
0.0
 20
0.0
 30
0.0
  9
$PUCSXDIR
 10
1.0
 20
0.0
 30
0.0
  9
$PUCSYDIR
 10
0.0
 20
1.0
 30
0.0
  9
$USERI1
 70
     0
  9
$USERI2
 70
     0
  9
$USERI3
 70
     0
  9
$USERI4
 70
     0
  9
$USERI5
 70
     0
  9
$USERR1
 40
0.0
  9
$USERR2
 40
0.0
  9
$USERR3
 40
0.0
  9
$USERR4
 40
0.0
  9
$USERR5
 40
0.0
  9
$WORLDVIEW
 70
     1
  9
$SHADEDGE
 70
     3
  9
$SHADEDIF
 70
    70
  9
$TILEMODE
 70
     1
  9
$MAXACTVP
 70
    16
  9
$PINSBASE
 10
0.0
 20
0.0
 30
0.0
  9
$PLIMCHECK
 70
     0
  9
$PEXTMIN
 10
1.000000E+20
 20
1.000000E+20
 30
1.000000E+20
  9
$PEXTMAX
 10
-1.000000E+20
 20
-1.000000E+20
 30
-1.000000E+20
  9
$PLIMMIN
 10
0.0
 20
0.0
  9
$PLIMMAX
 10
12.0
 20
9.0
  9
$UNITMODE
 70
     0
  9
$VISRETAIN
 70
     0
  0
ENDSEC
  0
SECTION
  2
TABLES
  0
TABLE
  2
LTYPE
 70
    1
  0
LTYPE
  2
CONTINUOUS
 70
    64
3
Solid line
 72
    65
 73
0
 40
0.000000
  0
ENDTAB
  0
TABLE
  2
LAYER
 70
    8
  0
LAYER
  2
0
 70
    64
 62
7
  6
CONTINUOUS
  0
LAYER
  2
1
 70
    64
 62
7
  6
CONTINUOUS
  0
LAYER
  2
7
 70
    64
 62
7
  6
CONTINUOUS
  0
LAYER
  2
8
 70
    64
 62
7
  6
CONTINUOUS
  0
LAYER
  2
9
 70
    64
 62
7
  6
CONTINUOUS
  0
LAYER
  2
22
 70
    64
 62
7
  6
CONTINUOUS
  0
LAYER
  2
25
 70
    64
 62
7
  6
CONTINUOUS
  0
LAYER
  2
0
 70
    64
 62
7
  6
CONTINUOUS
  0
ENDTAB
  0
TABLE
  2
STYLE
 70
    1
  0
STYLE
  2
ROMANC
70
     0
 40
0.0
 41
1.0
 50
0.0
 71
     0
 42
0.2
  3
ROMANC
  4

  0
ENDTAB
  0
ENDSEC
  0
SECTION
  2
BLOCKS
  0
ENDSEC
  0
SECTION
  2
ENTITIES
  0
TEXT
  8
0
  6
CONTINUOUS
 40
0.100000
 10
287.008000
 20
41.338000
  1
2
  7
ROMANC
  0
TEXT
  8
0
  6
CONTINUOUS
 40
0.300000
 10
283.926000
 20
41.768000
  1
ESCALA  1:50
  7
ROMANC
  0
POLYLINE
  8
0
  6
CONTINUOUS
 66
     1
 70
     1
  0
VERTEX
  8
0
  6
CONTINUOUS
 10
281.396000
 20
44.747000
  0
VERTEX
  8
0
  6
CONTINUOUS
 10
291.896000
 20
44.747000
  0
VERTEX
  8
0
  6
CONTINUOUS
 10
291.896000
 20
29.897000
  0
VERTEX
  8
0
  6
CONTINUOUS
 10
281.396000
 20
29.897000
  0
SEQEND
  8
0
  0
TEXT
  8
0
  6
CONTINUOUS
 40
0.300000
 10
283.945000
 20
41.099000
  1
S = 220 dm
  7
ROMANC
  0
TEXT
  8
0
  6
CONTINUOUS
 40
0.300000
 10
283.922000
 20
40.529000
  1
P = 58 dm
  7
ROMANC
  0
TEXT
  8
0
  6
CONTINUOUS
 40
0.300000
 10
283.926000
 20
42.381000
  1
TIPUS   NT220A
  7
ROMANC
  0
LINE
  8
1
  6
CONTINUOUS
 10
285.858000
 20
35.996000
 11
286.658000
 21
35.996000
  0
LINE
  8
1
  6
CONTINUOUS
 10
285.849000
 20
35.986000
 11
286.648000
 21
35.986000
  0
ARC
  8
1
  6
CONTINUOUS
 10
286.867472
 20
36.005987
 40
0.210000
 50
182.725856
 51
357.274144
  0
ARC
  8
1
  6
CONTINUOUS
 10
286.867472
 20
36.005987
 40
0.220000
 50
185.212511
 51
354.787489
  0
LINE
  8
1
  6
CONTINUOUS
 10
287.077000
 20
35.996000
 11
287.176000
 21
35.996000
  0
LINE
  8
1
  6
CONTINUOUS
 10
287.087000
 20
35.986000
 11
287.185000
 21
35.986000
  0
LINE
  8
1
  6
CONTINUOUS
 10
287.176000
 20
35.996000
 11
287.302000
 21
37.205000
  0
LINE
  8
1
  6
CONTINUOUS
 10
287.185000
 20
35.986000
 11
287.312000
 21
37.204000
  0
LINE
  8
1
  6
CONTINUOUS
 10
285.732000
 20
37.205000
 11
285.858000
 21
35.996000
  0
LINE
  8
1
  6
CONTINUOUS
 10
285.722000
 20
37.204000
 11
285.849000
 21
35.986000
  0
POLYLINE
  8
1
  6
CONTINUOUS
 66
     1
 70
     0
  0
VERTEX
  8
1
  6
CONTINUOUS
 10
287.302472
 20
37.205987
 42
0.071571
  0
VERTEX
  8
1
  6
CONTINUOUS
 10
287.295211
 20
37.254229
 42
0.060262
  0
VERTEX
  8
1
  6
CONTINUOUS
 10
287.275724
 20
37.299162
 42
0.053930
  0
VERTEX
  8
1
  6
CONTINUOUS
 10
287.240587
 20
37.346106
 42
0.038649
  0
VERTEX
  8
1
  6
CONTINUOUS
 10
287.197302
 20
37.385987
 42
0.034613
  0
VERTEX
  8
1
  6
CONTINUOUS
 10
287.137214
 20
37.426993
 42
0.025677
  0
VERTEX
  8
1
  6
CONTINUOUS
 10
287.072551
 20
37.460545
 42
0.023653
  0
VERTEX
  8
1
  6
CONTINUOUS
 10
286.992505
 20
37.492617
 42
0.019122
  0
VERTEX
  8
1
  6
CONTINUOUS
 10
286.909972
 20
37.517756
 42
0.018128
  0
VERTEX
  8
1
  6
CONTINUOUS
 10
286.815931
 20
37.538966
 42
0.016007
  0
VERTEX
  8
1
  6
CONTINUOUS
 10
286.720645
 20
37.553720
 42
0.015593
  0
VERTEX
  8
1
  6
CONTINUOUS
 10
286.619249
 20
37.562957
 42
0.014969
  0
VERTEX
  8
1
  6
CONTINUOUS
 10
286.517472
 20
37.565987
 42
0.014969
  0
VERTEX
  8
1
  6
CONTINUOUS
 10
286.415696
 20
37.562957
 42
0.015593
  0
VERTEX
  8
1
  6
CONTINUOUS
 10
286.314299
 20
37.553720
 42
0.016007
  0
VERTEX
  8
1
  6
CONTINUOUS
 10
286.219013
 20
37.538966
 42
0.018128
  0
VERTEX
  8
1
  6
CONTINUOUS
 10
286.124972
 20
37.517756
 42
0.019122
  0
VERTEX
  8
1
  6
CONTINUOUS
 10
286.042439
 20
37.492617
 42
0.023653
  0
VERTEX
  8
1
  6
CONTINUOUS
 10
285.962393
 20
37.460545
 42
0.025677
  0
VERTEX
  8
1
  6
CONTINUOUS
 10
285.897730
 20
37.426993
 42
0.034613
  0
VERTEX
  8
1
  6
CONTINUOUS
 10
285.837642
 20
37.385987
 42
0.038649
  0
VERTEX
  8
1
  6
CONTINUOUS
 10
285.794358
 20
37.346106
 42
0.053930
  0
VERTEX
  8
1
  6
CONTINUOUS
 10
285.759220
 20
37.299162
 42
0.060262
  0
VERTEX
  8
1
  6
CONTINUOUS
 10
285.739733
 20
37.254229
 42
0.071571
  0
VERTEX
  8
1
  6
CONTINUOUS
 10
285.732472
 20
37.205987
  0
SEQEND
  8
0
  0
POLYLINE
  8
1
  6
CONTINUOUS
 66
     1
 70
     0
  0
VERTEX
  8
1
  6
CONTINUOUS
 10
287.312472
 20
37.205987
 42
0.070523
  0
VERTEX
  8
1
  6
CONTINUOUS
 10
287.305135
 20
37.255528
 42
0.059723
  0
VERTEX
  8
1
  6
CONTINUOUS
 10
287.285383
 20
37.301750
 42
0.053632
  0
VERTEX
  8
1
  6
CONTINUOUS
 10
287.249848
 20
37.349938
 42
0.038749
  0
VERTEX
  8
1
  6
CONTINUOUS
 10
287.205962
 20
37.390987
 42
0.034767
  0
VERTEX
  8
1
  6
CONTINUOUS
 10
287.145158
 20
37.433100
 42
0.025916
  0
VERTEX
  8
1
  6
CONTINUOUS
 10
287.079622
 20
37.467617
 42
0.023895
  0
VERTEX
  8
1
  6
CONTINUOUS
 10
286.998589
 20
37.500567
 42
0.019365
  0
VERTEX
  8
1
  6
CONTINUOUS
 10
286.914972
 20
37.526416
 42
0.018367
  0
VERTEX
  8
1
  6
CONTINUOUS
 10
286.819751
 20
37.548212
 42
0.016236
  0
VERTEX
  8
1
  6
CONTINUOUS
 10
286.723233
 20
37.563380
 42
0.015819
  0
VERTEX
  8
1
  6
CONTINUOUS
 10
286.620551
 20
37.572872
 42
0.015192
  0
VERTEX
  8
1
  6
CONTINUOUS
 10
286.517472
 20
37.575987
 42
0.015192
  0
VERTEX
  8
1
  6
CONTINUOUS
 10
286.414394
 20
37.572872
 42
0.015819
  0
VERTEX
  8
1
  6
CONTINUOUS
 10
286.311711
 20
37.563380
 42
0.016236
  0
VERTEX
  8
1
  6
CONTINUOUS
 10
286.215193
 20
37.548212
 42
0.018367
  0
VERTEX
  8
1
  6
CONTINUOUS
 10
286.119972
 20
37.526416
 42
0.019365
  0
VERTEX
  8
1
  6
CONTINUOUS
 10
286.036355
 20
37.500567
 42
0.023895
  0
VERTEX
  8
1
  6
CONTINUOUS
 10
285.955322
 20
37.467617
 42
0.025916
  0
VERTEX
  8
1
  6
CONTINUOUS
 10
285.889787
 20
37.433100
 42
0.034767
  0
VERTEX
  8
1
  6
CONTINUOUS
 10
285.828982
 20
37.390987
 42
0.038749
  0
VERTEX
  8
1
  6
CONTINUOUS
 10
285.785096
 20
37.349938
 42
0.053632
  0
VERTEX
  8
1
  6
CONTINUOUS
 10
285.749561
 20
37.301750
 42
0.059723
  0
VERTEX
  8
1
  6
CONTINUOUS
 10
285.729810
 20
37.255528
 42
0.070523
  0
VERTEX
  8
1
  6
CONTINUOUS
 10
285.722472
 20
37.205987
  0
SEQEND
  8
0
  0
LINE
  8
1
  6
CONTINUOUS
 10
285.867000
 20
36.006000
 11
286.667000
 21
36.006000
  0
TEXT
  8
1
  6
CONTINUOUS
 40
0.075000
 10
286.130000
 20
35.486000
  1
0.80
  7
ROMANC
  0
LINE
  8
1
  6
CONTINUOUS
 10
286.092000
 20
35.523000
 11
285.867000
 21
35.523000
  0
LINE
  8
1
  6
CONTINUOUS
 10
286.441000
 20
35.523000
 11
286.667000
 21
35.523000
  0
LINE
  8
1
  6
CONTINUOUS
 10
285.830000
 20
35.504000
 11
285.904000
 21
35.542000
  0
LINE
  8
1
  6
CONTINUOUS
 10
286.704000
 20
35.542000
 11
286.630000
 21
35.504000
  0
LINE
  8
1
  6
CONTINUOUS
 10
285.867000
 20
35.968000
 11
285.867000
 21
35.485000
  0
LINE
  8
1
  6
CONTINUOUS
 10
286.667000
 20
35.968000
 11
286.667000
 21
35.485000
  0
LINE
  8
1
  6
CONTINUOUS
 10
287.067000
 20
36.006000
 11
287.167000
 21
36.006000
  0
TEXT
  8
1
  6
CONTINUOUS
 40
0.075000
 10
286.207000
 20
35.160000
  1
0.40
  7
ROMANC
  0
LINE
  8
1
  6
CONTINUOUS
 10
286.594000
 20
35.198000
 11
286.667000
 21
35.198000
  0
LINE
  8
1
  6
CONTINUOUS
 10
287.217000
 20
35.198000
 11
287.067000
 21
35.198000
  0
LINE
  8
1
  6
CONTINUOUS
 10
286.704000
 20
35.217000
 11
286.630000
 21
35.179000
  0
LINE
  8
1
  6
CONTINUOUS
 10
287.030000
 20
35.179000
 11
287.104000
 21
35.217000
  0
LINE
  8
1
  6
CONTINUOUS
 10
286.667000
 20
35.968000
 11
286.667000
 21
35.160000
  0
LINE
  8
1
  6
CONTINUOUS
 10
287.067000
 20
35.968000
 11
287.067000
 21
35.160000
  0
TEXT
  8
1
  6
CONTINUOUS
 40
0.075000
 10
287.373000
 20
35.486000
  1
0.10
  7
ROMANC
  0
LINE
  8
1
  6
CONTINUOUS
 10
286.917000
 20
35.523000
 11
287.067000
 21
35.523000
  0
LINE
  8
1
  6
CONTINUOUS
 10
287.335000
 20
35.523000
 11
287.167000
 21
35.523000
  0
LINE
  8
1
  6
CONTINUOUS
 10
287.104000
 20
35.542000
 11
287.030000
 21
35.504000
  0
LINE
  8
1
  6
CONTINUOUS
 10
287.130000
 20
35.504000
 11
287.204000
 21
35.542000
  0
LINE
  8
1
  6
CONTINUOUS
 10
287.067000
 20
35.968000
 11
287.067000
 21
35.485000
  0
LINE
  8
1
  6
CONTINUOUS
 10
287.167000
 20
35.968000
 11
287.167000
 21
35.485000
  0
LINE
  8
1
  6
CONTINUOUS
 10
287.167000
 20
36.006000
 11
287.292000
 21
37.206000
  0
ARC
  8
1
  6
CONTINUOUS
 10
286.867472
 20
36.005987
 40
0.200000
 50
180.000000
 51
360.000000
  0
TEXT
  8
1
  6
CONTINUOUS
 40
0.075000
 10
287.552000
 20
36.236000
  1
0.20
 50
90.000000
  7
ROMANC
  0
LINE
  8
1
  6
CONTINUOUS
 10
287.514000
 20
36.122000
 11
287.514000
 21
36.006000
  0
LINE
  8
1
  6
CONTINUOUS
 10
287.514000
 20
35.656000
 11
287.514000
 21
35.806000
  0
LINE
  8
1
  6
CONTINUOUS
 10
287.533000
 20
35.968000
 11
287.495000
 21
36.044000
  0
LINE
  8
1
  6
CONTINUOUS
 10
287.495000
 20
35.844000
 11
287.533000
 21
35.768000
  0
LINE
  8
1
  6
CONTINUOUS
 10
287.205000
 20
36.006000
 11
287.552000
 21
36.006000
  0
LINE
  8
1
  6
CONTINUOUS
 10
286.905000
 20
35.806000
 11
287.552000
 21
35.806000
  0
LINE
  8
1
  6
CONTINUOUS
 10
285.742000
 20
37.206000
 11
285.867000
 21
36.006000
  0
TEXT
  8
1
  6
CONTINUOUS
 40
0.075000
 10
285.346000
 20
36.469000
  1
1.20
 50
90.000000
  7
ROMANC
  0
LINE
  8
1
  6
CONTINUOUS
 10
285.308000
 20
36.431000
 11
285.308000
 21
36.006000
  0
LINE
  8
1
  6
CONTINUOUS
 10
285.308000
 20
36.780000
 11
285.308000
 21
37.206000
  0
LINE
  8
1
  6
CONTINUOUS
 10
285.327000
 20
35.968000
 11
285.289000
 21
36.044000
  0
LINE
  8
1
  6
CONTINUOUS
 10
285.289000
 20
37.244000
 11
285.327000
 21
37.168000
  0
LINE
  8
1
  6
CONTINUOUS
 10
285.829000
 20
36.006000
 11
285.270000
 21
36.006000
  0
LINE
  8
1
  6
CONTINUOUS
 10
285.704000
 20
37.206000
 11
285.270000
 21
37.206000
  0
POLYLINE
  8
1
  6
CONTINUOUS
 66
     1
 70
     0
  0
VERTEX
  8
1
  6
CONTINUOUS
 10
287.292472
 20
37.205987
 42
0.072680
  0
VERTEX
  8
1
  6
CONTINUOUS
 10
287.285287
 20
37.252931
 42
0.060818
  0
VERTEX
  8
1
  6
CONTINUOUS
 10
287.266065
 20
37.296574
 42
0.054232
  0
VERTEX
  8
1
  6
CONTINUOUS
 10
287.231325
 20
37.342272
 42
0.038537
  0
VERTEX
  8
1
  6
CONTINUOUS
 10
287.188642
 20
37.380987
 42
0.034445
  0
VERTEX
  8
1
  6
CONTINUOUS
 10
287.129271
 20
37.420884
 42
0.025427
  0
VERTEX
  8
1
  6
CONTINUOUS
 10
287.065480
 20
37.453474
 42
0.023401
  0
VERTEX
  8
1
  6
CONTINUOUS
 10
286.986421
 20
37.484667
 42
0.018871
  0
VERTEX
  8
1
  6
CONTINUOUS
 10
286.904972
 20
37.509096
 42
0.017882
  0
VERTEX
  8
1
  6
CONTINUOUS
 10
286.812111
 20
37.529720
 42
0.015771
  0
VERTEX
  8
1
  6
CONTINUOUS
 10
286.718057
 20
37.544061
 42
0.015360
  0
VERTEX
  8
1
  6
CONTINUOUS
 10
286.617947
 20
37.553041
 42
0.014741
  0
VERTEX
  8
1
  6
CONTINUOUS
 10
286.517472
 20
37.555987
 42
0.014741
  0
VERTEX
  8
1
  6
CONTINUOUS
 10
286.416998
 20
37.553041
 42
0.015360
  0
VERTEX
  8
1
  6
CONTINUOUS
 10
286.316887
 20
37.544061
 42
0.015771
  0
VERTEX
  8
1
  6
CONTINUOUS
 10
286.222833
 20
37.529720
 42
0.017882
  0
VERTEX
  8
1
  6
CONTINUOUS
 10
286.129972
 20
37.509096
 42
0.018871
  0
VERTEX
  8
1
  6
CONTINUOUS
 10
286.048523
 20
37.484667
 42
0.023401
  0
VERTEX
  8
1
  6
CONTINUOUS
 10
285.969464
 20
37.453474
 42
0.025427
  0
VERTEX
  8
1
  6
CONTINUOUS
 10
285.905673
 20
37.420884
 42
0.034445
  0
VERTEX
  8
1
  6
CONTINUOUS
 10
285.846303
 20
37.380987
 42
0.038537
  0
VERTEX
  8
1
  6
CONTINUOUS
 10
285.803619
 20
37.342272
 42
0.054232
  0
VERTEX
  8
1
  6
CONTINUOUS
 10
285.768880
 20
37.296574
 42
0.060818
  0
VERTEX
  8
1
  6
CONTINUOUS
 10
285.749658
 20
37.252931
 42
0.072680
  0
VERTEX
  8
1
  6
CONTINUOUS
 10
285.742472
 20
37.205987
  0
SEQEND
  8
0
  0
TEXT
  8
1
  6
CONTINUOUS
 40
0.075000
 10
287.912000
 20
36.544000
  1
1.75
 50
90.000000
  7
ROMANC
  0
LINE
  8
1
  6
CONTINUOUS
 10
287.874000
 20
36.506000
 11
287.874000
 21
35.806000
  0
LINE
  8
1
  6
CONTINUOUS
 10
287.874000
 20
36.855000
 11
287.874000
 21
37.556000
  0
LINE
  8
1
  6
CONTINUOUS
 10
287.893000
 20
35.768000
 11
287.855000
 21
35.844000
  0
LINE
  8
1
  6
CONTINUOUS
 10
287.855000
 20
37.594000
 11
287.893000
 21
37.518000
  0
LINE
  8
1
  6
CONTINUOUS
 10
287.590000
 20
35.806000
 11
287.912000
 21
35.806000
  0
LINE
  8
1
  6
CONTINUOUS
 10
286.555000
 20
37.556000
 11
287.912000
 21
37.556000
  0
TEXT
  8
1
  6
CONTINUOUS
 40
0.075000
 10
286.380000
 20
37.960000
  1
1.55
  7
ROMANC
  0
LINE
  8
1
  6
CONTINUOUS
 10
286.342000
 20
37.998000
 11
285.742000
 21
37.998000
  0
LINE
  8
1
  6
CONTINUOUS
 10
286.691000
 20
37.998000
 11
287.292000
 21
37.998000
  0
LINE
  8
1
  6
CONTINUOUS
 10
285.704000
 20
37.979000
 11
285.780000
 21
38.017000
  0
LINE
  8
1
  6
CONTINUOUS
 10
287.330000
 20
38.017000
 11
287.254000
 21
37.979000
  0
LINE
  8
1
  6
CONTINUOUS
 10
285.742000
 20
37.244000
 11
285.742000
 21
38.036000
  0
LINE
  8
1
  6
CONTINUOUS
 10
287.292000
 20
37.244000
 11
287.292000
 21
38.036000
  0
TEXT
  8
1
  6
CONTINUOUS
 40
0.075000
 10
286.380000
 20
34.788000
  1
1.30
  7
ROMANC
  0
LINE
  8
1
  6
CONTINUOUS
 10
286.342000
 20
34.826000
 11
285.867000
 21
34.826000
  0
LINE
  8
1
  6
CONTINUOUS
 10
286.691000
 20
34.826000
 11
287.167000
 21
34.826000
  0
LINE
  8
1
  6
CONTINUOUS
 10
285.830000
 20
34.807000
 11
285.904000
 21
34.845000
  0
LINE
  8
1
  6
CONTINUOUS
 10
287.204000
 20
34.845000
 11
287.130000
 21
34.807000
  0
LINE
  8
1
  6
CONTINUOUS
 10
285.867000
 20
35.968000
 11
285.867000
 21
34.788000
  0
LINE
  8
1
  6
CONTINUOUS
 10
287.167000
 20
35.447000
 11
287.167000
 21
34.788000
  0
ENDSEC
  0
EOF
