  0
SECTION
  2
HEADER
  9
$ACADVER
  1
AC1009
  9
$INSBASE
 10
0.0
 20
0.0
 30
0.0
  9
$EXTMIN
 10
294.812807
 20
13.344896
 30
0.0
  9
$EXTMAX
 10
305.312807
 20
28.194896
 30
0.0
  9
$LIMMIN
 10
0.0
 20
0.0
  9
$LIMMAX
 10
410.0
 20
287.0
  9
$ORTHOMODE
 70
     0
  9
$REGENMODE
 70
     1
  9
$FILLMODE
 70
     1
  9
$QTEXTMODE
 70
     0
  9
$MIRRTEXT
 70
     1
  9
$DRAGMODE
 70
     2
  9
$LTSCALE
 40
25.0
  9
$OSMODE
 70
    32
  9
$ATTMODE
 70
     1
  9
$TEXTSIZE
 40
0.1
  9
$TRACEWID
 40
1.0
  9
$TEXTSTYLE
  7
ROMANC
  9
$CLAYER
  8
0
  9
$CELTYPE
  6
BYLAYER
  9
$CECOLOR
 62
   256
  9
$DIMSCALE
 40
1.5
  9
$DIMASZ
 40
0.1
  9
$DIMEXO
 40
0.01
  9
$DIMDLI
 40
7.0
  9
$DIMRND
 40
0.0
  9
$DIMDLE
 40
0.0
  9
$DIMEXE
 40
0.01
  9
$DIMTP
 40
0.0
  9
$DIMTM
 40
0.0
  9
$DIMTXT
 40
0.05
  9
$DIMCEN
 40
0.1
  9
$DIMTSZ
 40
0.0
  9
$DIMTOL
 70
     0
  9
$DIMLIM
 70
     0
  9
$DIMTIH
 70
     0
  9
$DIMTOH
 70
     0
  9
$DIMSE1
 70
     0
  9
$DIMSE2
 70
     0
  9
$DIMTAD
 70
     1
  9
$DIMZIN
 70
     0
  9
$DIMBLK
  1

  9
$DIMASO
 70
     1
  9
$DIMSHO
 70
     0
  9
$DIMPOST
  1

  9
$DIMAPOST
  1

  9
$DIMALT
 70
     0
  9
$DIMALTD
 70
     2
  9
$DIMALTF
 40
25.4
  9
$DIMLFAC
 40
1.0
  9
$DIMTOFL
 70
     1
  9
$DIMTVP
 40
0.0
  9
$DIMTIX
 70
     1
  9
$DIMSOXD
 70
     0
  9
$DIMSAH
 70
     0
  9
$DIMBLK1
  1

  9
$DIMBLK2
  1

  9
$DIMSTYLE
  2
SILVIA
  9
$DIMCLRD
 70
     0
  9
$DIMCLRE
 70
     0
  9
$DIMCLRT
 70
     0
  9
$DIMTFAC
 40
70.0
  9
$DIMGAP
 40
0.09
  9
$LUNITS
 70
     2
  9
$LUPREC
 70
     2
  9
$SKETCHINC
 40
1.0
  9
$FILLETRAD
 40
0.0
  9
$AUNITS
 70
     0
  9
$AUPREC
 70
     0
  9
$MENU
  1
acad
  9
$ELEVATION
 40
0.0
  9
$PELEVATION
 40
0.0
  9
$THICKNESS
 40
0.0
  9
$LIMCHECK
 70
     0
  9
$BLIPMODE
 70
     0
  9
$CHAMFERA
 40
0.0
  9
$CHAMFERB
 40
0.0
  9
$SKPOLY
 70
     0
  9
$TDCREATE
 40
2450081.367368865
  9
$TDUPDATE
 40
2450725.557747338
  9
$TDINDWG
 40
0.0200726852
  9
$TDUSRTIMER
 40
0.0200726852
  9
$USRTIMER
 70
     1
  9
$ANGBASE
 50
0.0
  9
$ANGDIR
 70
     0
  9
$PDMODE
 70
     0
  9
$PDSIZE
 40
0.0
  9
$PLINEWID
 40
0.0
  9
$COORDS
 70
     2
  9
$SPLFRAME
 70
     0
  9
$SPLINETYPE
 70
     6
  9
$SPLINESEGS
 70
     8
  9
$ATTDIA
 70
     0
  9
$ATTREQ
 70
     1
  9
$HANDLING
 70
     0
  9
$HANDSEED
  5
0
  9
$SURFTAB1
 70
     6
  9
$SURFTAB2
 70
     6
  9
$SURFTYPE
 70
     6
  9
$SURFU
 70
     6
  9
$SURFV
 70
     6
  9
$UCSNAME
  2

  9
$UCSORG
 10
0.0
 20
0.0
 30
0.0
  9
$UCSXDIR
 10
1.0
 20
0.0
 30
0.0
  9
$UCSYDIR
 10
0.0
 20
1.0
 30
0.0
  9
$PUCSNAME
  2

  9
$PUCSORG
 10
0.0
 20
0.0
 30
0.0
  9
$PUCSXDIR
 10
1.0
 20
0.0
 30
0.0
  9
$PUCSYDIR
 10
0.0
 20
1.0
 30
0.0
  9
$USERI1
 70
     0
  9
$USERI2
 70
     0
  9
$USERI3
 70
     0
  9
$USERI4
 70
     0
  9
$USERI5
 70
     0
  9
$USERR1
 40
0.0
  9
$USERR2
 40
0.0
  9
$USERR3
 40
0.0
  9
$USERR4
 40
0.0
  9
$USERR5
 40
0.0
  9
$WORLDVIEW
 70
     1
  9
$SHADEDGE
 70
     3
  9
$SHADEDIF
 70
    70
  9
$TILEMODE
 70
     1
  9
$MAXACTVP
 70
    16
  9
$PINSBASE
 10
0.0
 20
0.0
 30
0.0
  9
$PLIMCHECK
 70
     0
  9
$PEXTMIN
 10
1.000000E+20
 20
1.000000E+20
 30
1.000000E+20
  9
$PEXTMAX
 10
-1.000000E+20
 20
-1.000000E+20
 30
-1.000000E+20
  9
$PLIMMIN
 10
0.0
 20
0.0
  9
$PLIMMAX
 10
12.0
 20
9.0
  9
$UNITMODE
 70
     0
  9
$VISRETAIN
 70
     0
  9
$PLINEGEN
 70
     0
  9
$PSLTSCALE
 70
     0
  9
$TREEDEPTH
 70
  3020
  9
$DWGCODEPAGE
  3
iso8859-1
  0
ENDSEC
  0
SECTION
  2
TABLES
  0
TABLE
  2
VPORT
 70
     2
  0
VPORT
  2
*ACTIVE
 70
     0
 10
0.0
 20
0.0
 11
1.0
 21
1.0
 12
306.966047
 22
20.769896
 13
0.0
 23
0.0
 14
1.0
 24
1.0
 15
10.0
 25
10.0
 16
0.0
 26
0.0
 36
1.0
 17
0.0
 27
0.0
 37
0.0
 40
14.85
 41
1.6368
 42
50.0
 43
0.0
 44
0.0
 50
0.0
 51
0.0
 71
     0
 72
   100
 73
     1
 74
     0
 75
     0
 76
     0
 77
     0
 78
     1
  0
ENDTAB
  0
TABLE
  2
LTYPE
 70
     1
  0
LTYPE
  2
CONTINUOUS
 70
    64
  3
Solid line
 72
    65
 73
     0
 40
0.0
  0
ENDTAB
  0
TABLE
  2
LAYER
 70
     2
  0
LAYER
  2
0
 70
    64
 62
     7
  6
CONTINUOUS
  0
LAYER
  2
DEFPOINTS
 70
    64
 62
     7
  6
CONTINUOUS
  0
ENDTAB
  0
TABLE
  2
STYLE
 70
     2
  0
STYLE
  2
STANDARD
 70
     0
 40
0.0
 41
1.0
 50
0.0
 71
     0
 42
0.1
  3
txt
  4

  0
STYLE
  2
ROMANC
 70
    64
 40
0.0
 41
1.0
 50
0.0
 71
     0
 42
0.1
  3
romanc
  4

  0
ENDTAB
  0
TABLE
  2
VIEW
 70
     0
  0
ENDTAB
  0
TABLE
  2
UCS
 70
     0
  0
ENDTAB
  0
TABLE
  2
APPID
 70
     1
  0
APPID
  2
ACAD
 70
    64
  0
ENDTAB
  0
TABLE
  2
DIMSTYLE
 70
     1
  0
DIMSTYLE
  2
SILVIA
 70
     0
  3

  4

  5

  6

  7

 40
1.5
 41
0.1
 42
0.01
 43
7.0
 44
0.01
 45
0.0
 46
0.0
 47
0.0
 48
0.0
140
0.05
141
0.1
142
0.0
143
25.4
144
1.0
145
0.0
146
70.0
147
0.09
 71
     0
 72
     0
 73
     0
 74
     0
 75
     0
 76
     0
 77
     1
 78
     0
170
     0
171
     2
172
     1
173
     0
174
     1
175
     0
176
     0
177
     0
178
     0
  0
ENDTAB
  0
ENDSEC
  0
SECTION
  2
BLOCKS
  0
BLOCK
  8
0
  2
*D10
 70
    65
 10
0.0
 20
0.0
 30
0.0
  3
*D
  0
LINE
  8
0
  6
BYBLOCK
 62
     0
 10
297.055934
 20
17.398227
 30
0.0
 11
297.055934
 21
16.473067
 31
0.0
  0
LINE
  8
0
  6
BYBLOCK
 62
     0
 10
301.855934
 20
17.398227
 30
0.0
 11
301.855934
 21
16.473067
 31
0.0
  0
LINE
  8
0
  6
BYBLOCK
 62
     0
 10
297.205934
 20
16.488067
 30
0.0
 11
301.705934
 21
16.488067
 31
0.0
  0
SOLID
  8
0
  6
BYBLOCK
 62
     0
 10
297.205934
 20
16.513067
 30
0.0
 11
297.205934
 21
16.463067
 31
0.0
 12
297.055934
 22
16.488067
 32
0.0
 13
297.055934
 23
16.488067
 33
0.0
  0
SOLID
  8
0
  6
BYBLOCK
 62
     0
 10
301.705934
 20
16.513067
 30
0.0
 11
301.705934
 21
16.463067
 31
0.0
 12
301.855934
 22
16.488067
 32
0.0
 13
301.855934
 23
16.488067
 33
0.0
  0
TEXT
  8
0
  6
BYBLOCK
 62
     0
 10
299.33272
 20
16.525567
 30
0.0
 40
0.075
  1
4.80
  7
ROMANC
 72
     1
 11
299.455934
 21
16.563067
 31
0.0
 73
     2
  0
POINT
  8
DEFPOINTS
  6
BYBLOCK
 62
     0
 10
297.055934
 20
17.413227
 30
0.0
  0
POINT
  8
DEFPOINTS
  6
BYBLOCK
 62
     0
 10
301.855934
 20
17.413227
 30
0.0
  0
POINT
  8
DEFPOINTS
  6
BYBLOCK
 62
     0
 10
301.855934
 20
16.488067
 30
0.0
  0
ENDBLK
  8
0
  0
BLOCK
  8
0
  2
*D11
 70
    65
 10
0.0
 20
0.0
 30
0.0
  3
*D
  0
LINE
  8
0
  6
BYBLOCK
 62
     0
 10
301.870934
 20
20.363227
 30
0.0
 11
302.744029
 21
20.363227
 31
0.0
  0
LINE
  8
0
  6
BYBLOCK
 62
     0
 10
301.870934
 20
17.413227
 30
0.0
 11
302.744029
 21
17.413227
 31
0.0
  0
LINE
  8
0
  6
BYBLOCK
 62
     0
 10
302.729029
 20
20.213227
 30
0.0
 11
302.729029
 21
17.563227
 31
0.0
  0
SOLID
  8
0
  6
BYBLOCK
 62
     0
 10
302.704029
 20
20.213227
 30
0.0
 11
302.754029
 21
20.213227
 31
0.0
 12
302.729029
 22
20.363227
 32
0.0
 13
302.729029
 23
20.363227
 33
0.0
  0
SOLID
  8
0
  6
BYBLOCK
 62
     0
 10
302.704029
 20
17.563227
 30
0.0
 11
302.754029
 21
17.563227
 31
0.0
 12
302.729029
 22
17.413227
 32
0.0
 13
302.729029
 23
17.413227
 33
0.0
  0
TEXT
  8
0
  6
BYBLOCK
 62
     0
 10
302.691529
 20
18.763227
 30
0.0
 40
0.075
  1
2.95
 50
90.0
  7
ROMANC
 72
     1
 11
302.654029
 21
18.888227
 31
0.0
 73
     2
  0
POINT
  8
DEFPOINTS
  6
BYBLOCK
 62
     0
 10
301.855934
 20
20.363227
 30
0.0
  0
POINT
  8
DEFPOINTS
  6
BYBLOCK
 62
     0
 10
301.855934
 20
17.413227
 30
0.0
  0
POINT
  8
DEFPOINTS
  6
BYBLOCK
 62
     0
 10
302.729029
 20
17.413227
 30
0.0
  0
ENDBLK
  8
0
  0
BLOCK
  8
0
  2
*D12
 70
    65
 10
0.0
 20
0.0
 30
0.0
  3
*D
  0
LINE
  8
0
  6
BYBLOCK
 62
     0
 10
298.796532
 20
18.298148
 30
0.0
 11
298.796532
 21
18.138404
 31
0.0
  0
LINE
  8
0
  6
BYBLOCK
 62
     0
 10
299.196532
 20
18.298148
 30
0.0
 11
299.196532
 21
18.138404
 31
0.0
  0
LINE
  8
0
  6
BYBLOCK
 62
     0
 10
298.646532
 20
18.153404
 30
0.0
 11
298.496532
 21
18.153404
 31
0.0
  0
LINE
  8
0
  6
BYBLOCK
 62
     0
 10
299.346532
 20
18.153404
 30
0.0
 11
299.496532
 21
18.153404
 31
0.0
  0
SOLID
  8
0
  6
BYBLOCK
 62
     0
 10
298.646532
 20
18.178404
 30
0.0
 11
298.646532
 21
18.128404
 31
0.0
 12
298.796532
 22
18.153404
 32
0.0
 13
298.796532
 23
18.153404
 33
0.0
  0
SOLID
  8
0
  6
BYBLOCK
 62
     0
 10
299.346532
 20
18.178404
 30
0.0
 11
299.346532
 21
18.128404
 31
0.0
 12
299.196532
 22
18.153404
 32
0.0
 13
299.196532
 23
18.153404
 33
0.0
  0
LINE
  8
0
  6
BYBLOCK
 62
     0
 10
298.796532
 20
18.153404
 30
0.0
 11
299.196532
 21
18.153404
 31
0.0
  0
TEXT
  8
0
  6
BYBLOCK
 62
     0
 10
298.871532
 20
18.190904
 30
0.0
 40
0.075
  1
0.40
  7
ROMANC
 72
     1
 11
298.996532
 21
18.228404
 31
0.0
 73
     2
  0
POINT
  8
DEFPOINTS
  6
BYBLOCK
 62
     0
 10
298.796532
 20
18.313148
 30
0.0
  0
POINT
  8
DEFPOINTS
  6
BYBLOCK
 62
     0
 10
299.196532
 20
18.313148
 30
0.0
  0
POINT
  8
DEFPOINTS
  6
BYBLOCK
 62
     0
 10
299.196532
 20
18.153404
 30
0.0
  0
ENDBLK
  8
0
  0
BLOCK
  8
0
  2
*D13
 70
    65
 10
0.0
 20
0.0
 30
0.0
  3
*D
  0
LINE
  8
0
  6
BYBLOCK
 62
     0
 10
298.796532
 20
18.298148
 30
0.0
 11
298.796532
 21
17.990425
 31
0.0
  0
LINE
  8
0
  6
BYBLOCK
 62
     0
 10
299.196532
 20
18.298148
 30
0.0
 11
299.196532
 21
17.990425
 31
0.0
  0
LINE
  8
0
  6
BYBLOCK
 62
     0
 10
298.646532
 20
18.005425
 30
0.0
 11
298.496532
 21
18.005425
 31
0.0
  0
LINE
  8
0
  6
BYBLOCK
 62
     0
 10
299.346532
 20
18.005425
 30
0.0
 11
299.496532
 21
18.005425
 31
0.0
  0
SOLID
  8
0
  6
BYBLOCK
 62
     0
 10
298.646532
 20
18.030425
 30
0.0
 11
298.646532
 21
17.980425
 31
0.0
 12
298.796532
 22
18.005425
 32
0.0
 13
298.796532
 23
18.005425
 33
0.0
  0
SOLID
  8
0
  6
BYBLOCK
 62
     0
 10
299.346532
 20
18.030425
 30
0.0
 11
299.346532
 21
17.980425
 31
0.0
 12
299.196532
 22
18.005425
 32
0.0
 13
299.196532
 23
18.005425
 33
0.0
  0
LINE
  8
0
  6
BYBLOCK
 62
     0
 10
298.796532
 20
18.005425
 30
0.0
 11
299.196532
 21
18.005425
 31
0.0
  0
TEXT
  8
0
  6
BYBLOCK
 62
     0
 10
298.871532
 20
18.042925
 30
0.0
 40
0.075
  1
0.40
  7
ROMANC
 72
     1
 11
298.996532
 21
18.080425
 31
0.0
 73
     2
  0
POINT
  8
DEFPOINTS
  6
BYBLOCK
 62
     0
 10
298.796532
 20
18.313148
 30
0.0
  0
POINT
  8
DEFPOINTS
  6
BYBLOCK
 62
     0
 10
299.196532
 20
18.313148
 30
0.0
  0
POINT
  8
DEFPOINTS
  6
BYBLOCK
 62
     0
 10
299.196532
 20
18.005425
 30
0.0
  0
ENDBLK
  8
0
  0
BLOCK
  8
0
  2
*D14
 70
    65
 10
0.0
 20
0.0
 30
0.0
  3
*D
  0
LINE
  8
0
  6
BYBLOCK
 62
     0
 10
299.211532
 20
18.313148
 30
0.0
 11
299.555354
 21
18.313148
 31
0.0
  0
LINE
  8
0
  6
BYBLOCK
 62
     0
 10
299.211532
 20
18.863148
 30
0.0
 11
299.555354
 21
18.863148
 31
0.0
  0
LINE
  8
0
  6
BYBLOCK
 62
     0
 10
299.540354
 20
18.163148
 30
0.0
 11
299.540354
 21
18.013148
 31
0.0
  0
LINE
  8
0
  6
BYBLOCK
 62
     0
 10
299.540354
 20
19.013148
 30
0.0
 11
299.540354
 21
19.163148
 31
0.0
  0
SOLID
  8
0
  6
BYBLOCK
 62
     0
 10
299.515354
 20
18.163148
 30
0.0
 11
299.565354
 21
18.163148
 31
0.0
 12
299.540354
 22
18.313148
 32
0.0
 13
299.540354
 23
18.313148
 33
0.0
  0
SOLID
  8
0
  6
BYBLOCK
 62
     0
 10
299.515354
 20
19.013148
 30
0.0
 11
299.565354
 21
19.013148
 31
0.0
 12
299.540354
 22
18.863148
 32
0.0
 13
299.540354
 23
18.863148
 33
0.0
  0
LINE
  8
0
  6
BYBLOCK
 62
     0
 10
299.540354
 20
18.313148
 30
0.0
 11
299.540354
 21
18.863148
 31
0.0
  0
TEXT
  8
0
  6
BYBLOCK
 62
     0
 10
299.502854
 20
18.463148
 30
0.0
 40
0.075
  1
0.55
 50
90.0
  7
ROMANC
 72
     1
 11
299.465354
 21
18.588148
 31
0.0
 73
     2
  0
POINT
  8
DEFPOINTS
  6
BYBLOCK
 62
     0
 10
299.196532
 20
18.313148
 30
0.0
  0
POINT
  8
DEFPOINTS
  6
BYBLOCK
 62
     0
 10
299.196532
 20
18.863148
 30
0.0
  0
POINT
  8
DEFPOINTS
  6
BYBLOCK
 62
     0
 10
299.540354
 20
18.863148
 30
0.0
  0
ENDBLK
  8
0
  0
ENDSEC
  0
SECTION
  2
ENTITIES
  0
TEXT
  8
0
 10
297.355874
 20
24.706451
 30
0.0
 40
0.3
  1
S = 22 dm
  7
ROMANC
  0
TEXT
  8
0
 10
297.34278
 20
25.790755
 30
0.0
 40
0.3
  1
TIPUS   NT22
  7
ROMANC
  0
LINE
  8
0
 10
294.812807
 20
13.344896
 30
0.0
 11
305.312807
 21
13.344896
 31
0.0
  0
LINE
  8
0
 10
305.312807
 20
28.194896
 30
0.0
 11
294.812807
 21
28.194896
 31
0.0
  0
LINE
  8
0
 10
294.812807
 20
28.194896
 30
0.0
 11
294.812807
 21
13.344896
 31
0.0
  0
TEXT
  8
0
 10
297.304857
 20
24.008872
 30
0.0
 40
0.3
  1
P = 19 dm
  7
ROMANC
  0
TEXT
  8
0
 10
297.34278
 20
25.305041
 30
0.0
 40
0.3
  1
ESCALA  1:50
  7
ROMANC
  0
LINE
  8
0
 10
305.312807
 20
13.344896
 30
0.0
 11
305.312807
 21
28.194896
 31
0.0
  0
TEXT
  8
0
 10
300.190491
 20
25.059811
 30
0.0
 40
0.1
  1
2
  7
ROMANC
  0
LINE
  8
0
 10
299.186532
 20
18.323148
 30
0.0
 11
299.186532
 21
18.853148
 31
0.0
  0
LINE
  8
0
 10
299.186532
 20
18.853148
 30
0.0
 11
298.806532
 21
18.853148
 31
0.0
  0
LINE
  8
0
 10
298.806532
 20
18.853148
 30
0.0
 11
298.806532
 21
18.323148
 31
0.0
  0
LINE
  8
0
 10
298.806532
 20
18.323148
 30
0.0
 11
299.186532
 21
18.323148
 31
0.0
  0
LINE
  8
0
 10
299.206532
 20
18.303148
 30
0.0
 11
299.206532
 21
18.873148
 31
0.0
  0
LINE
  8
0
 10
299.206532
 20
18.873148
 30
0.0
 11
298.786532
 21
18.873148
 31
0.0
  0
LINE
  8
0
 10
298.786532
 20
18.873148
 30
0.0
 11
298.786532
 21
18.303148
 31
0.0
  0
LINE
  8
0
 10
298.786532
 20
18.303148
 30
0.0
 11
299.206532
 21
18.303148
 31
0.0
  0
LINE
  8
0
 10
299.196532
 20
18.313148
 30
0.0
 11
299.196532
 21
18.863148
 31
0.0
  0
LINE
  8
0
 10
299.196532
 20
18.863148
 30
0.0
 11
298.796532
 21
18.863148
 31
0.0
  0
LINE
  8
0
 10
298.796532
 20
18.863148
 30
0.0
 11
298.796532
 21
18.313148
 31
0.0
  0
LINE
  8
0
 10
298.796532
 20
18.313148
 30
0.0
 11
299.196532
 21
18.313148
 31
0.0
  0
LINE
  8
0
  6
BYBLOCK
 62
     0
 10
299.211532
 20
18.313148
 30
0.0
 11
299.555354
 21
18.313148
 31
0.0
  0
LINE
  8
0
  6
BYBLOCK
 62
     0
 10
299.211532
 20
18.863148
 30
0.0
 11
299.555354
 21
18.863148
 31
0.0
  0
LINE
  8
0
  6
BYBLOCK
 62
     0
 10
299.540354
 20
18.163148
 30
0.0
 11
299.540354
 21
18.013148
 31
0.0
  0
LINE
  8
0
  6
BYBLOCK
 62
     0
 10
299.540354
 20
19.013148
 30
0.0
 11
299.540354
 21
19.163148
 31
0.0
  0
SOLID
  8
0
  6
BYBLOCK
 62
     0
 10
299.515354
 20
18.163148
 30
0.0
 11
299.565354
 21
18.163148
 31
0.0
 12
299.540354
 22
18.313148
 32
0.0
 13
299.540354
 23
18.313148
 33
0.0
  0
SOLID
  8
0
  6
BYBLOCK
 62
     0
 10
299.515354
 20
19.013148
 30
0.0
 11
299.565354
 21
19.013148
 31
0.0
 12
299.540354
 22
18.863148
 32
0.0
 13
299.540354
 23
18.863148
 33
0.0
  0
LINE
  8
0
  6
BYBLOCK
 62
     0
 10
299.540354
 20
18.313148
 30
0.0
 11
299.540354
 21
18.863148
 31
0.0
  0
TEXT
  8
0
  6
BYBLOCK
 62
     0
 10
299.502854
 20
18.463148
 30
0.0
 40
0.075
  1
0.55
 50
90.0
  7
ROMANC
 72
     1
 11
299.465354
 21
18.588148
 31
0.0
 73
     2
  0
POINT
  8
DEFPOINTS
  6
BYBLOCK
 62
     0
 10
299.196532
 20
18.313148
 30
0.0
  0
POINT
  8
DEFPOINTS
  6
BYBLOCK
 62
     0
 10
299.196532
 20
18.863148
 30
0.0
  0
POINT
  8
DEFPOINTS
  6
BYBLOCK
 62
     0
 10
299.540354
 20
18.863148
 30
0.0
  0
LINE
  8
0
  6
BYBLOCK
 62
     0
 10
298.796532
 20
18.298148
 30
0.0
 11
298.796532
 21
17.990425
 31
0.0
  0
LINE
  8
0
  6
BYBLOCK
 62
     0
 10
299.196532
 20
18.298148
 30
0.0
 11
299.196532
 21
17.990425
 31
0.0
  0
LINE
  8
0
  6
BYBLOCK
 62
     0
 10
298.646532
 20
18.005425
 30
0.0
 11
298.496532
 21
18.005425
 31
0.0
  0
LINE
  8
0
  6
BYBLOCK
 62
     0
 10
299.346532
 20
18.005425
 30
0.0
 11
299.496532
 21
18.005425
 31
0.0
  0
SOLID
  8
0
  6
BYBLOCK
 62
     0
 10
298.646532
 20
18.030425
 30
0.0
 11
298.646532
 21
17.980425
 31
0.0
 12
298.796532
 22
18.005425
 32
0.0
 13
298.796532
 23
18.005425
 33
0.0
  0
SOLID
  8
0
  6
BYBLOCK
 62
     0
 10
299.346532
 20
18.030425
 30
0.0
 11
299.346532
 21
17.980425
 31
0.0
 12
299.196532
 22
18.005425
 32
0.0
 13
299.196532
 23
18.005425
 33
0.0
  0
LINE
  8
0
  6
BYBLOCK
 62
     0
 10
298.796532
 20
18.005425
 30
0.0
 11
299.196532
 21
18.005425
 31
0.0
  0
TEXT
  8
0
  6
BYBLOCK
 62
     0
 10
298.871532
 20
18.042925
 30
0.0
 40
0.075
  1
0.40
  7
ROMANC
 72
     1
 11
298.996532
 21
18.080425
 31
0.0
 73
     2
  0
POINT
  8
DEFPOINTS
  6
BYBLOCK
 62
     0
 10
298.796532
 20
18.313148
 30
0.0
  0
POINT
  8
DEFPOINTS
  6
BYBLOCK
 62
     0
 10
299.196532
 20
18.313148
 30
0.0
  0
POINT
  8
DEFPOINTS
  6
BYBLOCK
 62
     0
 10
299.196532
 20
18.005425
 30
0.0
  0
ENDSEC
  0
EOF
