  0
SECTION
  2
HEADER
  9
$ACADVER
  1
AC1009
  9
$INSBASE
 10
0.0
 20
0.0
 30
0.0
  9
$EXTMIN
 10
281.396000
 20
29.897000
 30
-2147483.648000
  9
$EXTMAX
 10
291.896000
 20
44.747000
 30
0.000000
  9
$LIMMIN
 10
280.396000
 20
28.897000
  9
$LIMMAX
 10
292.896000
 20
43.747000
  9
$ORTHOMODE
 70
     0
  9
$REGENMODE
 70
     1
  9
$FILLMODE
 70
     1
  9
$QTEXTMODE
 70
     0
  9
$MIRRTEXT
 70
     1
  9
$DRAGMODE
 70
     2
  9
$LTSCALE
 40
1.0
  9
$OSMODE
 70
     0
  9
$ATTMODE
 70
     1
  9
$TEXTSIZE
 40
0.2
  9
$TRACEWID
 40
0.05
  9
$TEXTSTYLE
  7
STANDARD
  9
$CLAYER
  8
0
  9
$CELTYPE
  6
BYLAYER
  9
$CECOLOR
 62
   256
  9
$DIMSCALE
 40
1.0
  9
$DIMASZ
 40
0.18
  9
$DIMEXO
 40
0.0625
  9
$DIMDLI
 40
0.38
  9
$DIMRND
 40
0.0
  9
$DIMDLE
 40
0.0
  9
$DIMEXE
 40
0.18
  9
$DIMTP
 40
0.0
  9
$DIMTM
 40
0.0
  9
$DIMTXT
 40
0.18
  9
$DIMCEN
 40
0.09
  9
$DIMTSZ
 40
0.0
  9
$DIMTOL
 70
     0
  9
$DIMLIM
 70
     0
  9
$DIMTIH
 70
     1
  9
$DIMTOH
 70
     1
  9
$DIMSE1
 70
     0
  9
$DIMSE2
 70
     0
  9
$DIMTAD
 70
     0
  9
$DIMZIN
 70
     0
  9
$DIMBLK
  1

  9
$DIMASO
 70
     1
  9
$DIMSHO
 70
     1
  9
$DIMPOST
  1

  9
$DIMAPOST
  1

  9
$DIMALT
 70
     0
  9
$DIMALTD
 70
     2
  9
$DIMALTF
 40
25.4
  9
$DIMLFAC
 40
1.0
  9
$DIMTOFL
 70
     0
  9
$DIMTVP
 40
0.0
  9
$DIMTIX
 70
     0
  9
$DIMSOXD
 70
     0
  9
$DIMSAH
 70
     0
  9
$DIMBLK1
  1

  9
$DIMBLK2
  1

  9
$DIMSTYLE
  2
*UNNAMED
  9
$DIMCLRD
 70
     0
  9
$DIMCLRE
 70
     0
  9
$DIMCLRT
 70
     0
  9
$DIMTFAC
 40
1.0
  9
$DIMGAP
 40
0.09
  9
$LUNITS
 70
     2
  9
$LUPREC
 70
     4
  9
$AXISMODE
 70
     0
  9
$AXISUNIT
 10
0.0
 20
0.0
  9
$SKETCHINC
 40
0.1
  9
$FILLETRAD
 40
0.0
  9
$AUNITS
 70
     0
  9
$AUPREC
 70
     0
  9
$MENU
  1
acad
  9
$ELEVATION
 40
0.0
  9
$PELEVATION
 40
0.0
  9
$THICKNESS
 40
0.0
  9
$LIMCHECK
 70
     0
  9
$BLIPMODE
 70
     1
  9
$CHAMFERA
 40
0.0
  9
$CHAMFERB
 40
0.0
  9
$SKPOLY
 70
     0
  9
$TDCREATE
 40
2448315.373408102
  9
$TDUPDATE
 40
2448315.373408102
  9
$TDINDWG
 40
0.0000000000
  9
$TDUSRTIMER
 40
0.0000000000
  9
$USRTIMER
 70
     1
  9
$ANGBASE
 50
0.0
  9
$ANGDIR
 70
     0
  9
$PDMODE
 70
     0
  9
$PDSIZE
 40
0.0
  9
$PLINEWID
 40
0.0
  9
$COORDS
 70
     0
  9
$SPLFRAME
 70
     0
  9
$SPLINETYPE
 70
     6
  9
$SPLINESEGS
 70
     8
  9
$ATTDIA
 70
     0
  9
$ATTREQ
 70
     1
  9
$HANDLING
 70
     0
  9
$HANDSEED
  5
0
  9
$SURFTAB1
 70
     6
  9
$SURFTAB2
 70
     6
  9
$SURFTYPE
 70
     6
  9
$SURFU
 70
     6
  9
$SURFV
 70
     6
  9
$UCSNAME
  2

  9
$UCSORG
 10
0.0
 20
0.0
 30
0.0
  9
$UCSXDIR
 10
1.0
 20
0.0
 30
0.0
  9
$UCSYDIR
 10
0.0
 20
1.0
 30
0.0
  9
$PUCSNAME
  2

  9
$PUCSORG
 10
0.0
 20
0.0
 30
0.0
  9
$PUCSXDIR
 10
1.0
 20
0.0
 30
0.0
  9
$PUCSYDIR
 10
0.0
 20
1.0
 30
0.0
  9
$USERI1
 70
     0
  9
$USERI2
 70
     0
  9
$USERI3
 70
     0
  9
$USERI4
 70
     0
  9
$USERI5
 70
     0
  9
$USERR1
 40
0.0
  9
$USERR2
 40
0.0
  9
$USERR3
 40
0.0
  9
$USERR4
 40
0.0
  9
$USERR5
 40
0.0
  9
$WORLDVIEW
 70
     1
  9
$SHADEDGE
 70
     3
  9
$SHADEDIF
 70
    70
  9
$TILEMODE
 70
     1
  9
$MAXACTVP
 70
    16
  9
$PINSBASE
 10
0.0
 20
0.0
 30
0.0
  9
$PLIMCHECK
 70
     0
  9
$PEXTMIN
 10
1.000000E+20
 20
1.000000E+20
 30
1.000000E+20
  9
$PEXTMAX
 10
-1.000000E+20
 20
-1.000000E+20
 30
-1.000000E+20
  9
$PLIMMIN
 10
0.0
 20
0.0
  9
$PLIMMAX
 10
12.0
 20
9.0
  9
$UNITMODE
 70
     0
  9
$VISRETAIN
 70
     0
  0
ENDSEC
  0
SECTION
  2
TABLES
  0
TABLE
  2
LTYPE
 70
    1
  0
LTYPE
  2
CONTINUOUS
 70
    64
3
Solid line
 72
    65
 73
0
 40
0.000000
  0
ENDTAB
  0
TABLE
  2
LAYER
 70
    8
  0
LAYER
  2
0
 70
    64
 62
7
  6
CONTINUOUS
  0
LAYER
  2
1
 70
    64
 62
7
  6
CONTINUOUS
  0
LAYER
  2
7
 70
    64
 62
7
  6
CONTINUOUS
  0
LAYER
  2
8
 70
    64
 62
7
  6
CONTINUOUS
  0
LAYER
  2
9
 70
    64
 62
7
  6
CONTINUOUS
  0
LAYER
  2
22
 70
    64
 62
7
  6
CONTINUOUS
  0
LAYER
  2
25
 70
    64
 62
7
  6
CONTINUOUS
  0
LAYER
  2
0
 70
    64
 62
7
  6
CONTINUOUS
  0
ENDTAB
  0
TABLE
  2
STYLE
 70
    1
  0
STYLE
  2
ROMANC
70
     0
 40
0.0
 41
1.0
 50
0.0
 71
     0
 42
0.2
  3
ROMANC
  4

  0
ENDTAB
  0
ENDSEC
  0
SECTION
  2
BLOCKS
  0
ENDSEC
  0
SECTION
  2
ENTITIES
  0
TEXT
  8
0
  6
CONTINUOUS
 40
0.100000
 10
286.935000
 20
41.326000
  1
2
  7
ROMANC
  0
TEXT
  8
0
  6
CONTINUOUS
 40
0.300000
 10
283.926000
 20
41.768000
  1
ESCALA  1:50
  7
ROMANC
  0
POLYLINE
  8
0
  6
CONTINUOUS
 66
     1
 70
     1
  0
VERTEX
  8
0
  6
CONTINUOUS
 10
281.396000
 20
44.747000
  0
VERTEX
  8
0
  6
CONTINUOUS
 10
291.896000
 20
44.747000
  0
VERTEX
  8
0
  6
CONTINUOUS
 10
291.896000
 20
29.897000
  0
VERTEX
  8
0
  6
CONTINUOUS
 10
281.396000
 20
29.897000
  0
SEQEND
  8
0
  0
TEXT
  8
0
  6
CONTINUOUS
 40
0.300000
 10
283.945000
 20
41.099000
  1
S = 219 dm
  7
ROMANC
  0
TEXT
  8
0
  6
CONTINUOUS
 40
0.300000
 10
283.922000
 20
40.529000
  1
P = 56 dm
  7
ROMANC
  0
TEXT
  8
0
  6
CONTINUOUS
 40
0.300000
 10
283.926000
 20
42.381000
  1
TIPUS   NT219A
  7
ROMANC
  0
LINE
  8
1
  6
CONTINUOUS
 10
285.895000
 20
36.102000
 11
285.760000
 21
37.152000
  0
LINE
  8
1
  6
CONTINUOUS
 10
286.786000
 20
36.092000
 11
285.886000
 21
36.092000
  0
LINE
  8
1
  6
CONTINUOUS
 10
286.777000
 20
36.082000
 11
285.877000
 21
36.082000
  0
POLYLINE
  8
1
  6
CONTINUOUS
 66
     1
 70
     0
  0
VERTEX
  8
1
  6
CONTINUOUS
 10
286.785867
 20
36.092000
 42
0.045687
  0
VERTEX
  8
1
  6
CONTINUOUS
 10
286.789796
 20
36.069612
 42
0.043158
  0
VERTEX
  8
1
  6
CONTINUOUS
 10
286.797599
 20
36.048249
 42
0.041824
  0
VERTEX
  8
1
  6
CONTINUOUS
 10
286.809599
 20
36.027395
 42
0.037590
  0
VERTEX
  8
1
  6
CONTINUOUS
 10
286.824744
 20
36.008673
 42
0.036126
  0
VERTEX
  8
1
  6
CONTINUOUS
 10
286.843855
 20
35.991138
 42
0.032293
  0
VERTEX
  8
1
  6
CONTINUOUS
 10
286.865187
 20
35.976353
 42
0.031202
  0
VERTEX
  8
1
  6
CONTINUOUS
 10
286.889804
 20
35.963572
 42
0.028638
  0
VERTEX
  8
1
  6
CONTINUOUS
 10
286.915778
 20
35.953808
 42
0.028019
  0
VERTEX
  8
1
  6
CONTINUOUS
 10
286.943873
 20
35.946745
 42
0.026836
  0
VERTEX
  8
1
  6
CONTINUOUS
 10
286.972576
 20
35.942793
 42
0.026666
  0
VERTEX
  8
1
  6
CONTINUOUS
 10
287.001904
 20
35.941916
 42
0.026811
  0
VERTEX
  8
1
  6
CONTINUOUS
 10
287.031157
 20
35.944167
 42
0.027077
  0
VERTEX
  8
1
  6
CONTINUOUS
 10
287.059441
 20
35.949445
 42
0.028559
  0
VERTEX
  8
1
  6
CONTINUOUS
 10
287.086959
 20
35.957822
 42
0.029281
  0
VERTEX
  8
1
  6
CONTINUOUS
 10
287.112065
 20
35.968769
 42
0.032148
  0
VERTEX
  8
1
  6
CONTINUOUS
 10
287.135634
 20
35.982695
 42
0.033339
  0
VERTEX
  8
1
  6
CONTINUOUS
 10
287.155725
 20
35.998446
 42
0.037375
  0
VERTEX
  8
1
  6
CONTINUOUS
 10
287.173392
 20
36.016848
 42
0.038873
  0
VERTEX
  8
1
  6
CONTINUOUS
 10
287.187009
 20
36.036270
 42
0.042950
  0
VERTEX
  8
1
  6
CONTINUOUS
 10
287.197291
 20
36.057622
 42
0.044135
  0
VERTEX
  8
1
  6
CONTINUOUS
 10
287.203365
 20
36.079368
 42
0.045967
  0
VERTEX
  8
1
  6
CONTINUOUS
 10
287.205470
 20
36.101839
  0
SEQEND
  8
0
  0
POLYLINE
  8
1
  6
CONTINUOUS
 66
     1
 70
     0
  0
VERTEX
  8
1
  6
CONTINUOUS
 10
286.776973
 20
36.082000
 42
0.043842
  0
VERTEX
  8
1
  6
CONTINUOUS
 10
286.782651
 20
36.058816
 42
0.041120
  0
VERTEX
  8
1
  6
CONTINUOUS
 10
286.792152
 20
36.036903
 42
0.039847
  0
VERTEX
  8
1
  6
CONTINUOUS
 10
286.805853
 20
36.015651
 42
0.035963
  0
VERTEX
  8
1
  6
CONTINUOUS
 10
286.822606
 20
35.996685
 42
0.034663
  0
VERTEX
  8
1
  6
CONTINUOUS
 10
286.843257
 20
35.979102
 42
0.031288
  0
VERTEX
  8
1
  6
CONTINUOUS
 10
286.866048
 20
35.964368
 42
0.030337
  0
VERTEX
  8
1
  6
CONTINUOUS
 10
286.891985
 20
35.951824
 42
0.028124
  0
VERTEX
  8
1
  6
CONTINUOUS
 10
286.919214
 20
35.942378
 42
0.027598
  0
VERTEX
  8
1
  6
CONTINUOUS
 10
286.948388
 20
35.935780
 42
0.026637
  0
VERTEX
  8
1
  6
CONTINUOUS
 10
286.978108
 20
35.932370
 42
0.026522
  0
VERTEX
  8
1
  6
CONTINUOUS
 10
287.008281
 20
35.932129
 42
0.026780
  0
VERTEX
  8
1
  6
CONTINUOUS
 10
287.038307
 20
35.935093
 42
0.027068
  0
VERTEX
  8
1
  6
CONTINUOUS
 10
287.067224
 20
35.941138
 42
0.028558
  0
VERTEX
  8
1
  6
CONTINUOUS
 10
287.095288
 20
35.950345
 42
0.029264
  0
VERTEX
  8
1
  6
CONTINUOUS
 10
287.120848
 20
35.962152
 42
0.032002
  0
VERTEX
  8
1
  6
CONTINUOUS
 10
287.144769
 20
35.976978
 42
0.033122
  0
VERTEX
  8
1
  6
CONTINUOUS
 10
287.165164
 20
35.993656
 42
0.036849
  0
VERTEX
  8
1
  6
CONTINUOUS
 10
287.183033
 20
36.012993
 42
0.038209
  0
VERTEX
  8
1
  6
CONTINUOUS
 10
287.196827
 20
36.033381
 42
0.041856
  0
VERTEX
  8
1
  6
CONTINUOUS
 10
287.207205
 20
36.055682
 42
0.042898
  0
VERTEX
  8
1
  6
CONTINUOUS
 10
287.213348
 20
36.078405
 42
0.044504
  0
VERTEX
  8
1
  6
CONTINUOUS
 10
287.215470
 20
36.101839
  0
SEQEND
  8
0
  0
LINE
  8
1
  6
CONTINUOUS
 10
287.340000
 20
37.151000
 11
287.205000
 21
36.101000
  0
LINE
  8
1
  6
CONTINUOUS
 10
287.350000
 20
37.149000
 11
287.215000
 21
36.099000
  0
LINE
  8
1
  6
CONTINUOUS
 10
285.886000
 20
36.092000
 11
285.750000
 21
37.151000
  0
LINE
  8
1
  6
CONTINUOUS
 10
285.877000
 20
36.082000
 11
285.740000
 21
37.149000
  0
POLYLINE
  8
1
  6
CONTINUOUS
 66
     1
 70
     0
  0
VERTEX
  8
1
  6
CONTINUOUS
 10
287.340470
 20
37.151839
 42
0.049152
  0
VERTEX
  8
1
  6
CONTINUOUS
 10
287.333443
 20
37.221687
 42
0.046245
  0
VERTEX
  8
1
  6
CONTINUOUS
 10
287.313381
 20
37.289014
 42
0.044394
  0
VERTEX
  8
1
  6
CONTINUOUS
 10
287.278970
 20
37.356161
 42
0.038405
  0
VERTEX
  8
1
  6
CONTINUOUS
 10
287.233960
 20
37.416839
 42
0.036313
  0
VERTEX
  8
1
  6
CONTINUOUS
 10
287.174501
 20
37.475933
 42
0.030906
  0
VERTEX
  8
1
  6
CONTINUOUS
 10
287.107620
 20
37.526606
 42
0.029382
  0
VERTEX
  8
1
  6
CONTINUOUS
 10
287.027634
 20
37.573239
 42
0.025736
  0
VERTEX
  8
1
  6
CONTINUOUS
 10
286.942970
 20
37.610833
 42
0.024822
  0
VERTEX
  8
1
  6
CONTINUOUS
 10
286.848372
 20
37.641866
 42
0.022823
  0
VERTEX
  8
1
  6
CONTINUOUS
 10
286.751231
 20
37.663780
 42
0.022404
  0
VERTEX
  8
1
  6
CONTINUOUS
 10
286.648753
 20
37.677350
 42
0.021774
  0
VERTEX
  8
1
  6
CONTINUOUS
 10
286.545470
 20
37.681839
 42
0.021774
  0
VERTEX
  8
1
  6
CONTINUOUS
 10
286.442187
 20
37.677350
 42
0.022404
  0
VERTEX
  8
1
  6
CONTINUOUS
 10
286.339709
 20
37.663780
 42
0.022823
  0
VERTEX
  8
1
  6
CONTINUOUS
 10
286.242567
 20
37.641866
 42
0.024822
  0
VERTEX
  8
1
  6
CONTINUOUS
 10
286.147970
 20
37.610833
 42
0.025736
  0
VERTEX
  8
1
  6
CONTINUOUS
 10
286.063305
 20
37.573239
 42
0.029382
  0
VERTEX
  8
1
  6
CONTINUOUS
 10
285.983320
 20
37.526606
 42
0.030906
  0
VERTEX
  8
1
  6
CONTINUOUS
 10
285.916438
 20
37.475933
 42
0.036313
  0
VERTEX
  8
1
  6
CONTINUOUS
 10
285.856980
 20
37.416839
 42
0.038405
  0
VERTEX
  8
1
  6
CONTINUOUS
 10
285.811970
 20
37.356161
 42
0.044394
  0
VERTEX
  8
1
  6
CONTINUOUS
 10
285.777559
 20
37.289014
 42
0.046245
  0
VERTEX
  8
1
  6
CONTINUOUS
 10
285.757496
 20
37.221687
 42
0.049152
  0
VERTEX
  8
1
  6
CONTINUOUS
 10
285.750470
 20
37.151839
  0
SEQEND
  8
0
  0
POLYLINE
  8
1
  6
CONTINUOUS
 66
     1
 70
     0
  0
VERTEX
  8
1
  6
CONTINUOUS
 10
287.350470
 20
37.151839
 42
0.048847
  0
VERTEX
  8
1
  6
CONTINUOUS
 10
287.343359
 20
37.222991
 42
0.046018
  0
VERTEX
  8
1
  6
CONTINUOUS
 10
287.323040
 20
37.291602
 42
0.044215
  0
VERTEX
  8
1
  6
CONTINUOUS
 10
287.288214
 20
37.359987
 42
0.038353
  0
VERTEX
  8
1
  6
CONTINUOUS
 10
287.242620
 20
37.421839
 42
0.036299
  0
VERTEX
  8
1
  6
CONTINUOUS
 10
287.182439
 20
37.482024
 42
0.030970
  0
VERTEX
  8
1
  6
CONTINUOUS
 10
287.114691
 20
37.533677
 42
0.029463
  0
VERTEX
  8
1
  6
CONTINUOUS
 10
287.033722
 20
37.581177
 42
0.025850
  0
VERTEX
  8
1
  6
CONTINUOUS
 10
286.947970
 20
37.619493
 42
0.024942
  0
VERTEX
  8
1
  6
CONTINUOUS
 10
286.852197
 20
37.651107
 42
0.022955
  0
VERTEX
  8
1
  6
CONTINUOUS
 10
286.753819
 20
37.673439
 42
0.022537
  0
VERTEX
  8
1
  6
CONTINUOUS
 10
286.650057
 20
37.687265
 42
0.021910
  0
VERTEX
  8
1
  6
CONTINUOUS
 10
286.545470
 20
37.691839
 42
0.021910
  0
VERTEX
  8
1
  6
CONTINUOUS
 10
286.440883
 20
37.687265
 42
0.022537
  0
VERTEX
  8
1
  6
CONTINUOUS
 10
286.337120
 20
37.673439
 42
0.022955
  0
VERTEX
  8
1
  6
CONTINUOUS
 10
286.238742
 20
37.651107
 42
0.024942
  0
VERTEX
  8
1
  6
CONTINUOUS
 10
286.142970
 20
37.619493
 42
0.025850
  0
VERTEX
  8
1
  6
CONTINUOUS
 10
286.057217
 20
37.581177
 42
0.029463
  0
VERTEX
  8
1
  6
CONTINUOUS
 10
285.976249
 20
37.533677
 42
0.030970
  0
VERTEX
  8
1
  6
CONTINUOUS
 10
285.908501
 20
37.482024
 42
0.036299
  0
VERTEX
  8
1
  6
CONTINUOUS
 10
285.848319
 20
37.421839
 42
0.038353
  0
VERTEX
  8
1
  6
CONTINUOUS
 10
285.802725
 20
37.359987
 42
0.044215
  0
VERTEX
  8
1
  6
CONTINUOUS
 10
285.767899
 20
37.291602
 42
0.046018
  0
VERTEX
  8
1
  6
CONTINUOUS
 10
285.747580
 20
37.222991
 42
0.048847
  0
VERTEX
  8
1
  6
CONTINUOUS
 10
285.740470
 20
37.151839
  0
SEQEND
  8
0
  0
LINE
  8
1
  6
CONTINUOUS
 10
286.795000
 20
36.102000
 11
285.895000
 21
36.102000
  0
LINE
  8
1
  6
CONTINUOUS
 10
287.330000
 20
37.152000
 11
287.195000
 21
36.102000
  0
TEXT
  8
1
  6
CONTINUOUS
 40
0.075000
 10
286.335000
 20
35.622000
  1
0.40
  7
ROMANC
  0
LINE
  8
1
  6
CONTINUOUS
 10
286.722000
 20
35.659000
 11
286.795000
 21
35.659000
  0
LINE
  8
1
  6
CONTINUOUS
 10
287.345000
 20
35.659000
 11
287.195000
 21
35.659000
  0
LINE
  8
1
  6
CONTINUOUS
 10
286.832000
 20
35.678000
 11
286.758000
 21
35.640000
  0
LINE
  8
1
  6
CONTINUOUS
 10
287.158000
 20
35.640000
 11
287.232000
 21
35.678000
  0
LINE
  8
1
  6
CONTINUOUS
 10
286.795000
 20
36.064000
 11
286.795000
 21
35.621000
  0
LINE
  8
1
  6
CONTINUOUS
 10
287.195000
 20
36.064000
 11
287.195000
 21
35.621000
  0
TEXT
  8
1
  6
CONTINUOUS
 40
0.075000
 10
286.408000
 20
35.254000
  1
1.30
  7
ROMANC
  0
LINE
  8
1
  6
CONTINUOUS
 10
286.370000
 20
35.291000
 11
285.895000
 21
35.291000
  0
LINE
  8
1
  6
CONTINUOUS
 10
286.719000
 20
35.291000
 11
287.195000
 21
35.291000
  0
LINE
  8
1
  6
CONTINUOUS
 10
285.858000
 20
35.272000
 11
285.932000
 21
35.310000
  0
LINE
  8
1
  6
CONTINUOUS
 10
287.232000
 20
35.310000
 11
287.158000
 21
35.272000
  0
LINE
  8
1
  6
CONTINUOUS
 10
285.895000
 20
36.064000
 11
285.895000
 21
35.253000
  0
LINE
  8
1
  6
CONTINUOUS
 10
287.195000
 20
36.064000
 11
287.195000
 21
35.253000
  0
POLYLINE
  8
1
  6
CONTINUOUS
 66
     1
 70
     0
  0
VERTEX
  8
1
  6
CONTINUOUS
 10
286.795470
 20
36.101839
 42
0.043662
  0
VERTEX
  8
1
  6
CONTINUOUS
 10
286.797219
 20
36.082141
 42
0.042016
  0
VERTEX
  8
1
  6
CONTINUOUS
 10
286.802285
 20
36.063017
 42
0.040948
  0
VERTEX
  8
1
  6
CONTINUOUS
 10
286.810861
 20
36.044157
 42
0.037204
  0
VERTEX
  8
1
  6
CONTINUOUS
 10
286.822265
 20
36.026839
 42
0.035805
  0
VERTEX
  8
1
  6
CONTINUOUS
 10
286.837101
 20
36.010238
 42
0.031954
  0
VERTEX
  8
1
  6
CONTINUOUS
 10
286.854048
 20
35.995773
 42
0.030788
  0
VERTEX
  8
1
  6
CONTINUOUS
 10
286.874056
 20
35.982644
 42
0.027894
  0
VERTEX
  8
1
  6
CONTINUOUS
 10
286.895470
 20
35.971936
 42
0.027129
  0
VERTEX
  8
1
  6
CONTINUOUS
 10
286.919192
 20
35.963178
 42
0.025427
  0
VERTEX
  8
1
  6
CONTINUOUS
 10
286.943706
 20
35.956951
 42
0.025057
  0
VERTEX
  8
1
  6
CONTINUOUS
 10
286.969460
 20
35.953114
 42
0.024503
  0
VERTEX
  8
1
  6
CONTINUOUS
 10
286.995470
 20
35.951839
 42
0.024503
  0
VERTEX
  8
1
  6
CONTINUOUS
 10
287.021479
 20
35.953114
 42
0.025057
  0
VERTEX
  8
1
  6
CONTINUOUS
 10
287.047234
 20
35.956951
 42
0.025427
  0
VERTEX
  8
1
  6
CONTINUOUS
 10
287.071748
 20
35.963178
 42
0.027129
  0
VERTEX
  8
1
  6
CONTINUOUS
 10
287.095470
 20
35.971936
 42
0.027894
  0
VERTEX
  8
1
  6
CONTINUOUS
 10
287.116883
 20
35.982644
 42
0.030788
  0
VERTEX
  8
1
  6
CONTINUOUS
 10
287.136891
 20
35.995773
 42
0.031954
  0
VERTEX
  8
1
  6
CONTINUOUS
 10
287.153839
 20
36.010238
 42
0.035805
  0
VERTEX
  8
1
  6
CONTINUOUS
 10
287.168675
 20
36.026839
 42
0.037204
  0
VERTEX
  8
1
  6
CONTINUOUS
 10
287.180078
 20
36.044157
 42
0.040948
  0
VERTEX
  8
1
  6
CONTINUOUS
 10
287.188655
 20
36.063017
 42
0.042016
  0
VERTEX
  8
1
  6
CONTINUOUS
 10
287.193720
 20
36.082141
 42
0.043662
  0
VERTEX
  8
1
  6
CONTINUOUS
 10
287.195470
 20
36.101839
  0
SEQEND
  8
0
  0
TEXT
  8
1
  6
CONTINUOUS
 40
0.075000
 10
287.654000
 20
36.285000
  1
0.15
 50
90.000000
  7
ROMANC
  0
LINE
  8
1
  6
CONTINUOUS
 10
287.616000
 20
36.171000
 11
287.616000
 21
36.102000
  0
LINE
  8
1
  6
CONTINUOUS
 10
287.616000
 20
35.802000
 11
287.616000
 21
35.952000
  0
LINE
  8
1
  6
CONTINUOUS
 10
287.635000
 20
36.064000
 11
287.597000
 21
36.140000
  0
LINE
  8
1
  6
CONTINUOUS
 10
287.597000
 20
35.990000
 11
287.635000
 21
35.914000
  0
LINE
  8
1
  6
CONTINUOUS
 10
287.233000
 20
36.102000
 11
287.654000
 21
36.102000
  0
LINE
  8
1
  6
CONTINUOUS
 10
287.033000
 20
35.952000
 11
287.654000
 21
35.952000
  0
TEXT
  8
1
  6
CONTINUOUS
 40
0.075000
 10
287.948000
 20
36.415000
  1
1.20
 50
90.000000
  7
ROMANC
  0
LINE
  8
1
  6
CONTINUOUS
 10
287.911000
 20
36.377000
 11
287.911000
 21
35.952000
  0
LINE
  8
1
  6
CONTINUOUS
 10
287.911000
 20
36.726000
 11
287.911000
 21
37.152000
  0
LINE
  8
1
  6
CONTINUOUS
 10
287.930000
 20
35.914000
 11
287.892000
 21
35.990000
  0
LINE
  8
1
  6
CONTINUOUS
 10
287.892000
 20
37.190000
 11
287.930000
 21
37.114000
  0
LINE
  8
1
  6
CONTINUOUS
 10
287.692000
 20
35.952000
 11
287.949000
 21
35.952000
  0
LINE
  8
1
  6
CONTINUOUS
 10
287.368000
 20
37.152000
 11
287.949000
 21
37.152000
  0
POLYLINE
  8
1
  6
CONTINUOUS
 66
     1
 70
     0
  0
VERTEX
  8
1
  6
CONTINUOUS
 10
287.330470
 20
37.151839
 42
0.049469
  0
VERTEX
  8
1
  6
CONTINUOUS
 10
287.323527
 20
37.220384
 42
0.046480
  0
VERTEX
  8
1
  6
CONTINUOUS
 10
287.303721
 20
37.286425
 42
0.044579
  0
VERTEX
  8
1
  6
CONTINUOUS
 10
287.269726
 20
37.352334
 42
0.038456
  0
VERTEX
  8
1
  6
CONTINUOUS
 10
287.225300
 20
37.411839
 42
0.036326
  0
VERTEX
  8
1
  6
CONTINUOUS
 10
287.166563
 20
37.469840
 42
0.030839
  0
VERTEX
  8
1
  6
CONTINUOUS
 10
287.100549
 20
37.519535
 42
0.029298
  0
VERTEX
  8
1
  6
CONTINUOUS
 10
287.021547
 20
37.565300
 42
0.025618
  0
VERTEX
  8
1
  6
CONTINUOUS
 10
286.937970
 20
37.602173
 42
0.024699
  0
VERTEX
  8
1
  6
CONTINUOUS
 10
286.844548
 20
37.632624
 42
0.022689
  0
VERTEX
  8
1
  6
CONTINUOUS
 10
286.748643
 20
37.654121
 42
0.022267
  0
VERTEX
  8
1
  6
CONTINUOUS
 10
286.647448
 20
37.667435
 42
0.021635
  0
VERTEX
  8
1
  6
CONTINUOUS
 10
286.545470
 20
37.671839
 42
0.021635
  0
VERTEX
  8
1
  6
CONTINUOUS
 10
286.443491
 20
37.667435
 42
0.022267
  0
VERTEX
  8
1
  6
CONTINUOUS
 10
286.342297
 20
37.654121
 42
0.022689
  0
VERTEX
  8
1
  6
CONTINUOUS
 10
286.246392
 20
37.632624
 42
0.024699
  0
VERTEX
  8
1
  6
CONTINUOUS
 10
286.152970
 20
37.602173
 42
0.025618
  0
VERTEX
  8
1
  6
CONTINUOUS
 10
286.069393
 20
37.565300
 42
0.029298
  0
VERTEX
  8
1
  6
CONTINUOUS
 10
285.990391
 20
37.519535
 42
0.030839
  0
VERTEX
  8
1
  6
CONTINUOUS
 10
285.924376
 20
37.469840
 42
0.036326
  0
VERTEX
  8
1
  6
CONTINUOUS
 10
285.865640
 20
37.411839
 42
0.038456
  0
VERTEX
  8
1
  6
CONTINUOUS
 10
285.821214
 20
37.352334
 42
0.044579
  0
VERTEX
  8
1
  6
CONTINUOUS
 10
285.787218
 20
37.286425
 42
0.046480
  0
VERTEX
  8
1
  6
CONTINUOUS
 10
285.767412
 20
37.220384
 42
0.049469
  0
VERTEX
  8
1
  6
CONTINUOUS
 10
285.760470
 20
37.151839
  0
SEQEND
  8
0
  0
TEXT
  8
1
  6
CONTINUOUS
 40
0.075000
 10
288.324000
 20
36.675000
  1
1.72
 50
90.000000
  7
ROMANC
  0
LINE
  8
1
  6
CONTINUOUS
 10
288.287000
 20
36.637000
 11
288.287000
 21
35.952000
  0
LINE
  8
1
  6
CONTINUOUS
 10
288.287000
 20
36.986000
 11
288.287000
 21
37.672000
  0
LINE
  8
1
  6
CONTINUOUS
 10
288.306000
 20
35.914000
 11
288.268000
 21
35.990000
  0
LINE
  8
1
  6
CONTINUOUS
 10
288.268000
 20
37.710000
 11
288.306000
 21
37.634000
  0
LINE
  8
1
  6
CONTINUOUS
 10
287.987000
 20
35.952000
 11
288.325000
 21
35.952000
  0
LINE
  8
1
  6
CONTINUOUS
 10
286.583000
 20
37.672000
 11
288.325000
 21
37.672000
  0
TEXT
  8
1
  6
CONTINUOUS
 40
0.075000
 10
286.408000
 20
38.126000
  1
1.57
  7
ROMANC
  0
LINE
  8
1
  6
CONTINUOUS
 10
286.370000
 20
38.163000
 11
285.760000
 21
38.163000
  0
LINE
  8
1
  6
CONTINUOUS
 10
286.719000
 20
38.163000
 11
287.330000
 21
38.163000
  0
LINE
  8
1
  6
CONTINUOUS
 10
285.722000
 20
38.144000
 11
285.798000
 21
38.182000
  0
LINE
  8
1
  6
CONTINUOUS
 10
287.368000
 20
38.182000
 11
287.292000
 21
38.144000
  0
LINE
  8
1
  6
CONTINUOUS
 10
285.760000
 20
37.190000
 11
285.760000
 21
38.201000
  0
LINE
  8
1
  6
CONTINUOUS
 10
287.330000
 20
37.190000
 11
287.330000
 21
38.201000
  0
ENDSEC
  0
EOF
