  0
SECTION
  2
HEADER
  9
$ACADVER
  1
AC1009
  9
$INSBASE
 10
0.0
 20
0.0
 30
0.0
  9
$EXTMIN
 10
180.642909
 20
80.934754
 30
0.0
  9
$EXTMAX
 10
191.142909
 20
95.784754
 30
0.0
  9
$LIMMIN
 10
280.396
 20
28.897
  9
$LIMMAX
 10
284.496
 20
31.867
  9
$ORTHOMODE
 70
     1
  9
$REGENMODE
 70
     1
  9
$FILLMODE
 70
     1
  9
$QTEXTMODE
 70
     0
  9
$MIRRTEXT
 70
     1
  9
$DRAGMODE
 70
     2
  9
$LTSCALE
 40
1.0
  9
$OSMODE
 70
     0
  9
$ATTMODE
 70
     1
  9
$TEXTSIZE
 40
3.5
  9
$TRACEWID
 40
0.05
  9
$TEXTSTYLE
  7
ROMANS
  9
$CLAYER
  8
0
  9
$CELTYPE
  6
BYLAYER
  9
$CECOLOR
 62
   256
  9
$DIMSCALE
 40
0.05
  9
$DIMASZ
 40
0.0
  9
$DIMEXO
 40
1.0
  9
$DIMDLI
 40
0.5
  9
$DIMRND
 40
0.0
  9
$DIMDLE
 40
0.0
  9
$DIMEXE
 40
0.5
  9
$DIMTP
 40
0.0
  9
$DIMTM
 40
0.0
  9
$DIMTXT
 40
2.0
  9
$DIMCEN
 40
1.0
  9
$DIMTSZ
 40
1.0
  9
$DIMTOL
 70
     0
  9
$DIMLIM
 70
     0
  9
$DIMTIH
 70
     0
  9
$DIMTOH
 70
     0
  9
$DIMSE1
 70
     0
  9
$DIMSE2
 70
     0
  9
$DIMTAD
 70
     0
  9
$DIMZIN
 70
     0
  9
$DIMBLK
  1

  9
$DIMASO
 70
     1
  9
$DIMSHO
 70
     1
  9
$DIMPOST
  1

  9
$DIMAPOST
  1

  9
$DIMALT
 70
     0
  9
$DIMALTD
 70
     2
  9
$DIMALTF
 40
25.4
  9
$DIMLFAC
 40
1.0
  9
$DIMTOFL
 70
     0
  9
$DIMTVP
 40
0.0
  9
$DIMTIX
 70
     0
  9
$DIMSOXD
 70
     0
  9
$DIMSAH
 70
     0
  9
$DIMBLK1
  1

  9
$DIMBLK2
  1

  9
$DIMSTYLE
  2
*UNNAMED
  9
$DIMCLRD
 70
     0
  9
$DIMCLRE
 70
     0
  9
$DIMCLRT
 70
     0
  9
$DIMTFAC
 40
1.0
  9
$DIMGAP
 40
0.05
  9
$LUNITS
 70
     2
  9
$LUPREC
 70
     2
  9
$SKETCHINC
 40
0.1
  9
$FILLETRAD
 40
0.0
  9
$AUNITS
 70
     0
  9
$AUPREC
 70
     0
  9
$MENU
  1
acad
  9
$ELEVATION
 40
0.0
  9
$PELEVATION
 40
0.0
  9
$THICKNESS
 40
0.0
  9
$LIMCHECK
 70
     0
  9
$BLIPMODE
 70
     1
  9
$CHAMFERA
 40
0.0
  9
$CHAMFERB
 40
0.0
  9
$SKPOLY
 70
     0
  9
$TDCREATE
 40
2448315.373408102
  9
$TDUPDATE
 40
2450926.715328241
  9
$TDINDWG
 40
0.0779033565
  9
$TDUSRTIMER
 40
0.0779033565
  9
$USRTIMER
 70
     1
  9
$ANGBASE
 50
0.0
  9
$ANGDIR
 70
     0
  9
$PDMODE
 70
     0
  9
$PDSIZE
 40
0.0
  9
$PLINEWID
 40
0.0
  9
$COORDS
 70
     0
  9
$SPLFRAME
 70
     0
  9
$SPLINETYPE
 70
     6
  9
$SPLINESEGS
 70
     8
  9
$ATTDIA
 70
     0
  9
$ATTREQ
 70
     1
  9
$HANDLING
 70
     0
  9
$HANDSEED
  5
0
  9
$SURFTAB1
 70
     6
  9
$SURFTAB2
 70
     6
  9
$SURFTYPE
 70
     6
  9
$SURFU
 70
     6
  9
$SURFV
 70
     6
  9
$UCSNAME
  2

  9
$UCSORG
 10
0.0
 20
0.0
 30
0.0
  9
$UCSXDIR
 10
1.0
 20
0.0
 30
0.0
  9
$UCSYDIR
 10
0.0
 20
1.0
 30
0.0
  9
$PUCSNAME
  2

  9
$PUCSORG
 10
0.0
 20
0.0
 30
0.0
  9
$PUCSXDIR
 10
1.0
 20
0.0
 30
0.0
  9
$PUCSYDIR
 10
0.0
 20
1.0
 30
0.0
  9
$USERI1
 70
     0
  9
$USERI2
 70
     0
  9
$USERI3
 70
     0
  9
$USERI4
 70
     0
  9
$USERI5
 70
     0
  9
$USERR1
 40
0.0
  9
$USERR2
 40
0.0
  9
$USERR3
 40
0.0
  9
$USERR4
 40
0.0
  9
$USERR5
 40
0.0
  9
$WORLDVIEW
 70
     1
  9
$SHADEDGE
 70
     3
  9
$SHADEDIF
 70
    70
  9
$TILEMODE
 70
     1
  9
$MAXACTVP
 70
    16
  9
$PINSBASE
 10
0.0
 20
0.0
 30
0.0
  9
$PLIMCHECK
 70
     0
  9
$PEXTMIN
 10
1.000000E+20
 20
1.000000E+20
 30
1.000000E+20
  9
$PEXTMAX
 10
-1.000000E+20
 20
-1.000000E+20
 30
-1.000000E+20
  9
$PLIMMIN
 10
0.0
 20
0.0
  9
$PLIMMAX
 10
12.0
 20
9.0
  9
$UNITMODE
 70
     0
  9
$VISRETAIN
 70
     0
  9
$PLINEGEN
 70
     0
  9
$PSLTSCALE
 70
     0
  9
$TREEDEPTH
 70
  3020
  9
$DWGCODEPAGE
  3
iso8859-1
  0
ENDSEC
  0
SECTION
  2
TABLES
  0
TABLE
  2
VPORT
 70
     2
  0
VPORT
  2
*ACTIVE
 70
     0
 10
0.0
 20
0.0
 11
1.0
 21
1.0
 12
191.962346
 22
88.359754
 13
0.0
 23
0.0
 14
1.0
 24
1.0
 15
10.0
 25
10.0
 16
0.0
 26
0.0
 36
1.0
 17
0.0
 27
0.0
 37
0.0
 40
14.85
 41
1.524503
 42
50.0
 43
0.0
 44
0.0
 50
0.0
 51
0.0
 71
     0
 72
   100
 73
     1
 74
     0
 75
     0
 76
     0
 77
     0
 78
     0
  0
ENDTAB
  0
TABLE
  2
LTYPE
 70
     1
  0
LTYPE
  2
CONTINUOUS
 70
    64
  3
Solid line
 72
    65
 73
     0
 40
0.0
  0
ENDTAB
  0
TABLE
  2
LAYER
 70
     9
  0
LAYER
  2
0
 70
    64
 62
     7
  6
CONTINUOUS
  0
LAYER
  2
1
 70
     0
 62
     7
  6
CONTINUOUS
  0
LAYER
  2
7
 70
     0
 62
     7
  6
CONTINUOUS
  0
LAYER
  2
8
 70
     0
 62
     7
  6
CONTINUOUS
  0
LAYER
  2
9
 70
     0
 62
     7
  6
CONTINUOUS
  0
LAYER
  2
22
 70
     0
 62
     7
  6
CONTINUOUS
  0
LAYER
  2
25
 70
     0
 62
     7
  6
CONTINUOUS
  0
LAYER
  2
DEFPOINTS
 70
    64
 62
     7
  6
CONTINUOUS
  0
LAYER
  2
MESURA
 70
     0
 62
     7
  6
CONTINUOUS
  0
ENDTAB
  0
TABLE
  2
STYLE
 70
     3
  0
STYLE
  2
STANDARD
 70
     0
 40
0.0
 41
1.0
 50
0.0
 71
     0
 42
3.5
  3
C:\APLIC\ACADWIN\FONTS\ROMANS.SHX
  4

  0
STYLE
  2
ROMANC
 70
    64
 40
0.0
 41
1.0
 50
0.0
 71
     0
 42
0.2
  3
ROMANC
  4

  0
STYLE
  2
ROMANS
 70
    64
 40
0.0
 41
1.0
 50
0.0
 71
     0
 42
3.5
  3
C:\APLIC\ACADWIN\FONTS\ROMANC.SHX
  4

  0
ENDTAB
  0
TABLE
  2
VIEW
 70
     0
  0
ENDTAB
  0
TABLE
  2
UCS
 70
     0
  0
ENDTAB
  0
TABLE
  2
APPID
 70
     1
  0
APPID
  2
ACAD
 70
    64
  0
ENDTAB
  0
TABLE
  2
DIMSTYLE
 70
     0
  0
ENDTAB
  0
ENDSEC
  0
SECTION
  2
BLOCKS
  0
BLOCK
  8
0
  2
*D9
 70
    65
 10
0.0
 20
0.0
 30
0.0
  3
*D
  0
LINE
  8
0
  6
BYBLOCK
 62
     0
 10
186.561441
 20
87.340866
 30
0.0
 11
186.561441
 21
87.365866
 31
0.0
  0
LINE
  8
0
  6
BYBLOCK
 62
     0
 10
187.561441
 20
87.440866
 30
0.0
 11
187.561441
 21
87.415866
 31
0.0
  0
LINE
  8
0
  6
BYBLOCK
 62
     0
 10
186.561441
 20
87.390866
 30
0.0
 11
186.913703
 21
87.390866
 31
0.0
  0
LINE
  8
0
  6
BYBLOCK
 62
     0
 10
187.561441
 20
87.390866
 30
0.0
 11
187.209179
 21
87.390866
 31
0.0
  0
LINE
  8
0
  6
BYBLOCK
 62
     0
 10
186.511441
 20
87.340866
 30
0.0
 11
186.611441
 21
87.440866
 31
0.0
  0
LINE
  8
0
  6
BYBLOCK
 62
     0
 10
187.511441
 20
87.340866
 30
0.0
 11
187.611441
 21
87.440866
 31
0.0
  0
TEXT
  8
0
  6
BYBLOCK
 62
     0
 10
186.887632
 20
87.340866
 30
0.0
 40
0.1
  1
1.00
  7
ROMANS
 72
     1
 11
187.061441
 21
87.390866
 31
0.0
 73
     2
  0
POINT
  8
DEFPOINTS
  6
BYBLOCK
 62
     0
 10
186.561441
 20
87.390866
 30
0.0
  0
POINT
  8
DEFPOINTS
  6
BYBLOCK
 62
     0
 10
187.561441
 20
87.390866
 30
0.0
  0
POINT
  8
DEFPOINTS
  6
BYBLOCK
 62
     0
 10
187.561441
 20
87.390866
 30
0.0
  0
ENDBLK
  8
0
  0
BLOCK
  8
0
  2
*D12
 70
    65
 10
0.0
 20
0.0
 30
0.0
  3
*D
  0
LINE
  8
0
  6
BYBLOCK
 62
     0
 10
186.561441
 20
86.040866
 30
0.0
 11
186.561441
 21
85.277357
 31
0.0
  0
LINE
  8
0
  6
BYBLOCK
 62
     0
 10
187.561441
 20
86.040866
 30
0.0
 11
187.561441
 21
85.277357
 31
0.0
  0
LINE
  8
0
  6
BYBLOCK
 62
     0
 10
186.561441
 20
85.302357
 30
0.0
 11
186.913703
 21
85.302357
 31
0.0
  0
LINE
  8
0
  6
BYBLOCK
 62
     0
 10
187.561441
 20
85.302357
 30
0.0
 11
187.209179
 21
85.302357
 31
0.0
  0
LINE
  8
0
  6
BYBLOCK
 62
     0
 10
186.511441
 20
85.252357
 30
0.0
 11
186.611441
 21
85.352357
 31
0.0
  0
LINE
  8
0
  6
BYBLOCK
 62
     0
 10
187.511441
 20
85.252357
 30
0.0
 11
187.611441
 21
85.352357
 31
0.0
  0
TEXT
  8
0
  6
BYBLOCK
 62
     0
 10
186.887632
 20
85.252357
 30
0.0
 40
0.1
  1
1.00
  7
ROMANS
 72
     1
 11
187.061441
 21
85.302357
 31
0.0
 73
     2
  0
POINT
  8
DEFPOINTS
  6
BYBLOCK
 62
     0
 10
186.561441
 20
86.090866
 30
0.0
  0
POINT
  8
DEFPOINTS
  6
BYBLOCK
 62
     0
 10
187.561441
 20
86.090866
 30
0.0
  0
POINT
  8
DEFPOINTS
  6
BYBLOCK
 62
     0
 10
187.561441
 20
85.302357
 30
0.0
  0
ENDBLK
  8
0
  0
BLOCK
  8
0
  2
*D14
 70
    65
 10
0.0
 20
0.0
 30
0.0
  3
*D
  0
LINE
  8
0
  6
BYBLOCK
 62
     0
 10
186.881441
 20
86.040866
 30
0.0
 11
186.881441
 21
85.583912
 31
0.0
  0
LINE
  8
0
  6
BYBLOCK
 62
     0
 10
187.241441
 20
86.040866
 30
0.0
 11
187.241441
 21
85.583912
 31
0.0
  0
LINE
  8
0
  6
BYBLOCK
 62
     0
 10
186.881441
 20
85.608912
 30
0.0
 11
187.241441
 21
85.608912
 31
0.0
  0
LINE
  8
0
  6
BYBLOCK
 62
     0
 10
186.831441
 20
85.558912
 30
0.0
 11
186.931441
 21
85.658912
 31
0.0
  0
LINE
  8
0
  6
BYBLOCK
 62
     0
 10
187.191441
 20
85.558912
 30
0.0
 11
187.291441
 21
85.658912
 31
0.0
  0
TEXT
  8
0
  6
BYBLOCK
 62
     0
 10
187.291552
 20
85.558912
 30
0.0
 40
0.1
  1
0.36
  7
ROMANS
 72
     1
 11
187.458219
 21
85.608912
 31
0.0
 73
     2
  0
POINT
  8
DEFPOINTS
  6
BYBLOCK
 62
     0
 10
186.881441
 20
86.090866
 30
0.0
  0
POINT
  8
DEFPOINTS
  6
BYBLOCK
 62
     0
 10
187.241441
 20
86.090866
 30
0.0
  0
POINT
  8
DEFPOINTS
  6
BYBLOCK
 62
     0
 10
187.241441
 20
85.608912
 30
0.0
  0
ENDBLK
  8
0
  0
BLOCK
  8
0
  2
*D16
 70
    65
 10
0.0
 20
0.0
 30
0.0
  3
*D
  0
LINE
  8
0
  6
BYBLOCK
 62
     0
 10
187.611441
 20
87.390866
 30
0.0
 11
187.871698
 21
87.390866
 31
0.0
  0
LINE
  8
0
  6
BYBLOCK
 62
     0
 10
187.611441
 20
86.090866
 30
0.0
 11
187.871698
 21
86.090866
 31
0.0
  0
LINE
  8
0
  6
BYBLOCK
 62
     0
 10
187.846698
 20
87.390866
 30
0.0
 11
187.846698
 21
86.888604
 31
0.0
  0
LINE
  8
0
  6
BYBLOCK
 62
     0
 10
187.846698
 20
86.090866
 30
0.0
 11
187.846698
 21
86.593128
 31
0.0
  0
LINE
  8
0
  6
BYBLOCK
 62
     0
 10
187.896698
 20
87.340866
 30
0.0
 11
187.796698
 21
87.440866
 31
0.0
  0
LINE
  8
0
  6
BYBLOCK
 62
     0
 10
187.896698
 20
86.040866
 30
0.0
 11
187.796698
 21
86.140866
 31
0.0
  0
TEXT
  8
0
  6
BYBLOCK
 62
     0
 10
187.896698
 20
86.567056
 30
0.0
 40
0.1
  1
1.30
 50
90.0
  7
ROMANS
 72
     1
 11
187.846698
 21
86.740866
 31
0.0
 73
     2
  0
POINT
  8
DEFPOINTS
  6
BYBLOCK
 62
     0
 10
187.561441
 20
87.390866
 30
0.0
  0
POINT
  8
DEFPOINTS
  6
BYBLOCK
 62
     0
 10
187.561441
 20
86.090866
 30
0.0
  0
POINT
  8
DEFPOINTS
  6
BYBLOCK
 62
     0
 10
187.846698
 20
86.090866
 30
0.0
  0
ENDBLK
  8
0
  0
BLOCK
  8
0
  2
*D18
 70
    65
 10
0.0
 20
0.0
 30
0.0
  3
*D
  0
LINE
  8
0
  6
BYBLOCK
 62
     0
 10
187.111441
 20
85.790866
 30
0.0
 11
187.871698
 21
85.790866
 31
0.0
  0
LINE
  8
0
  6
BYBLOCK
 62
     0
 10
187.291441
 20
86.090866
 30
0.0
 11
187.871698
 21
86.090866
 31
0.0
  0
LINE
  8
0
  6
BYBLOCK
 62
     0
 10
187.846698
 20
85.790866
 30
0.0
 11
187.846698
 21
86.090866
 31
0.0
  0
LINE
  8
0
  6
BYBLOCK
 62
     0
 10
187.896698
 20
85.740866
 30
0.0
 11
187.796698
 21
85.840866
 31
0.0
  0
LINE
  8
0
  6
BYBLOCK
 62
     0
 10
187.896698
 20
86.040866
 30
0.0
 11
187.796698
 21
86.140866
 31
0.0
  0
TEXT
  8
0
  6
BYBLOCK
 62
     0
 10
187.896698
 20
85.394559
 30
0.0
 40
0.1
  1
0.30
 50
90.0
  7
ROMANS
 72
     1
 11
187.846698
 21
85.561226
 31
0.0
 73
     2
  0
POINT
  8
DEFPOINTS
  6
BYBLOCK
 62
     0
 10
187.061441
 20
85.790866
 30
0.0
  0
POINT
  8
DEFPOINTS
  6
BYBLOCK
 62
     0
 10
187.241441
 20
86.090866
 30
0.0
  0
POINT
  8
DEFPOINTS
  6
BYBLOCK
 62
     0
 10
187.846698
 20
86.090866
 30
0.0
  0
ENDBLK
  8
0
  0
BLOCK
  8
0
  2
*D19
 70
    65
 10
0.0
 20
0.0
 30
0.0
  3
*D
  0
LINE
  8
0
  6
BYBLOCK
 62
     0
 10
187.111441
 20
88.040866
 30
0.0
 11
188.198839
 21
88.040866
 31
0.0
  0
LINE
  8
0
  6
BYBLOCK
 62
     0
 10
187.111441
 20
85.790866
 30
0.0
 11
188.198839
 21
85.790866
 31
0.0
  0
LINE
  8
0
  6
BYBLOCK
 62
     0
 10
188.173839
 20
88.040866
 30
0.0
 11
188.173839
 21
87.070747
 31
0.0
  0
LINE
  8
0
  6
BYBLOCK
 62
     0
 10
188.173839
 20
85.790866
 30
0.0
 11
188.173839
 21
86.760985
 31
0.0
  0
LINE
  8
0
  6
BYBLOCK
 62
     0
 10
188.223839
 20
87.990866
 30
0.0
 11
188.123839
 21
88.090866
 31
0.0
  0
LINE
  8
0
  6
BYBLOCK
 62
     0
 10
188.223839
 20
85.740866
 30
0.0
 11
188.123839
 21
85.840866
 31
0.0
  0
TEXT
  8
0
  6
BYBLOCK
 62
     0
 10
188.223839
 20
86.749199
 30
0.0
 40
0.1
  1
2.25
 50
90.0
  7
ROMANS
 72
     1
 11
188.173839
 21
86.915866
 31
0.0
 73
     2
  0
POINT
  8
DEFPOINTS
  6
BYBLOCK
 62
     0
 10
187.061441
 20
88.040866
 30
0.0
  0
POINT
  8
DEFPOINTS
  6
BYBLOCK
 62
     0
 10
187.061441
 20
85.790866
 30
0.0
  0
POINT
  8
DEFPOINTS
  6
BYBLOCK
 62
     0
 10
188.173839
 20
85.790866
 30
0.0
  0
ENDBLK
  8
0
  0
BLOCK
  8
0
  2
*D20
 70
    65
 10
0.0
 20
0.0
 30
0.0
  3
*D
  0
LINE
  8
0
  6
BYBLOCK
 62
     0
 10
184.77345
 20
88.340866
 30
0.0
 11
185.860848
 21
88.340866
 31
0.0
  0
LINE
  8
0
  6
BYBLOCK
 62
     0
 10
184.77345
 20
85.790866
 30
0.0
 11
185.860848
 21
85.790866
 31
0.0
  0
LINE
  8
0
  6
BYBLOCK
 62
     0
 10
185.835848
 20
88.340866
 30
0.0
 11
185.835848
 21
87.220747
 31
0.0
  0
LINE
  8
0
  6
BYBLOCK
 62
     0
 10
185.835848
 20
85.790866
 30
0.0
 11
185.835848
 21
86.910985
 31
0.0
  0
LINE
  8
0
  6
BYBLOCK
 62
     0
 10
185.885848
 20
88.290866
 30
0.0
 11
185.785848
 21
88.390866
 31
0.0
  0
LINE
  8
0
  6
BYBLOCK
 62
     0
 10
185.885848
 20
85.740866
 30
0.0
 11
185.785848
 21
85.840866
 31
0.0
  0
TEXT
  8
0
  6
BYBLOCK
 62
     0
 10
185.885848
 20
86.899199
 30
0.0
 40
0.1
  1
2.55
 50
90.0
  7
ROMANS
 72
     1
 11
185.835848
 21
87.065866
 31
0.0
 73
     2
  0
POINT
  8
DEFPOINTS
  6
BYBLOCK
 62
     0
 10
184.72345
 20
88.340866
 30
0.0
  0
POINT
  8
DEFPOINTS
  6
BYBLOCK
 62
     0
 10
184.72345
 20
85.790866
 30
0.0
  0
POINT
  8
DEFPOINTS
  6
BYBLOCK
 62
     0
 10
185.835848
 20
85.790866
 30
0.0
  0
ENDBLK
  8
0
  0
BLOCK
  8
0
  2
*D21
 70
    65
 10
0.0
 20
0.0
 30
0.0
  3
*D
  0
LINE
  8
0
  6
BYBLOCK
 62
     0
 10
185.27345
 20
87.690866
 30
0.0
 11
185.533707
 21
87.690866
 31
0.0
  0
LINE
  8
0
  6
BYBLOCK
 62
     0
 10
185.27345
 20
86.090866
 30
0.0
 11
185.533707
 21
86.090866
 31
0.0
  0
LINE
  8
0
  6
BYBLOCK
 62
     0
 10
185.508707
 20
87.690866
 30
0.0
 11
185.508707
 21
87.038604
 31
0.0
  0
LINE
  8
0
  6
BYBLOCK
 62
     0
 10
185.508707
 20
86.090866
 30
0.0
 11
185.508707
 21
86.743128
 31
0.0
  0
LINE
  8
0
  6
BYBLOCK
 62
     0
 10
185.558707
 20
87.640866
 30
0.0
 11
185.458707
 21
87.740866
 31
0.0
  0
LINE
  8
0
  6
BYBLOCK
 62
     0
 10
185.558707
 20
86.040866
 30
0.0
 11
185.458707
 21
86.140866
 31
0.0
  0
TEXT
  8
0
  6
BYBLOCK
 62
     0
 10
185.558707
 20
86.717056
 30
0.0
 40
0.1
  1
1.60
 50
90.0
  7
ROMANS
 72
     1
 11
185.508707
 21
86.890866
 31
0.0
 73
     2
  0
POINT
  8
DEFPOINTS
  6
BYBLOCK
 62
     0
 10
185.22345
 20
87.690866
 30
0.0
  0
POINT
  8
DEFPOINTS
  6
BYBLOCK
 62
     0
 10
185.22345
 20
86.090866
 30
0.0
  0
POINT
  8
DEFPOINTS
  6
BYBLOCK
 62
     0
 10
185.508707
 20
86.090866
 30
0.0
  0
ENDBLK
  8
0
  0
BLOCK
  8
0
  2
*D22
 70
    65
 10
0.0
 20
0.0
 30
0.0
  3
*D
  0
LINE
  8
0
  6
BYBLOCK
 62
     0
 10
184.77345
 20
85.790866
 30
0.0
 11
185.533707
 21
85.790866
 31
0.0
  0
LINE
  8
0
  6
BYBLOCK
 62
     0
 10
184.95345
 20
86.140866
 30
0.0
 11
185.533707
 21
86.140866
 31
0.0
  0
LINE
  8
0
  6
BYBLOCK
 62
     0
 10
185.508707
 20
85.790866
 30
0.0
 11
185.508707
 21
86.140866
 31
0.0
  0
LINE
  8
0
  6
BYBLOCK
 62
     0
 10
185.558707
 20
85.740866
 30
0.0
 11
185.458707
 21
85.840866
 31
0.0
  0
LINE
  8
0
  6
BYBLOCK
 62
     0
 10
185.558707
 20
86.090866
 30
0.0
 11
185.458707
 21
86.190866
 31
0.0
  0
TEXT
  8
0
  6
BYBLOCK
 62
     0
 10
185.558707
 20
85.394559
 30
0.0
 40
0.1
  1
0.35
 50
90.0
  7
ROMANS
 72
     1
 11
185.508707
 21
85.561226
 31
0.0
 73
     2
  0
POINT
  8
DEFPOINTS
  6
BYBLOCK
 62
     0
 10
184.72345
 20
85.790866
 30
0.0
  0
POINT
  8
DEFPOINTS
  6
BYBLOCK
 62
     0
 10
184.90345
 20
86.140866
 30
0.0
  0
POINT
  8
DEFPOINTS
  6
BYBLOCK
 62
     0
 10
185.508707
 20
86.140866
 30
0.0
  0
ENDBLK
  8
0
  0
BLOCK
  8
0
  2
*D23
 70
    65
 10
0.0
 20
0.0
 30
0.0
  3
*D
  0
LINE
  8
0
  6
BYBLOCK
 62
     0
 10
184.54345
 20
86.090866
 30
0.0
 11
184.54345
 21
85.583912
 31
0.0
  0
LINE
  8
0
  6
BYBLOCK
 62
     0
 10
184.90345
 20
86.090866
 30
0.0
 11
184.90345
 21
85.583912
 31
0.0
  0
LINE
  8
0
  6
BYBLOCK
 62
     0
 10
184.54345
 20
85.608912
 30
0.0
 11
184.90345
 21
85.608912
 31
0.0
  0
LINE
  8
0
  6
BYBLOCK
 62
     0
 10
184.49345
 20
85.558912
 30
0.0
 11
184.59345
 21
85.658912
 31
0.0
  0
LINE
  8
0
  6
BYBLOCK
 62
     0
 10
184.85345
 20
85.558912
 30
0.0
 11
184.95345
 21
85.658912
 31
0.0
  0
TEXT
  8
0
  6
BYBLOCK
 62
     0
 10
184.953561
 20
85.558912
 30
0.0
 40
0.1
  1
0.36
  7
ROMANS
 72
     1
 11
185.120228
 21
85.608912
 31
0.0
 73
     2
  0
POINT
  8
DEFPOINTS
  6
BYBLOCK
 62
     0
 10
184.54345
 20
86.140866
 30
0.0
  0
POINT
  8
DEFPOINTS
  6
BYBLOCK
 62
     0
 10
184.90345
 20
86.140866
 30
0.0
  0
POINT
  8
DEFPOINTS
  6
BYBLOCK
 62
     0
 10
184.90345
 20
85.608912
 30
0.0
  0
ENDBLK
  8
0
  0
BLOCK
  8
0
  2
*D24
 70
    65
 10
0.0
 20
0.0
 30
0.0
  3
*D
  0
LINE
  8
0
  6
BYBLOCK
 62
     0
 10
184.22345
 20
86.090866
 30
0.0
 11
184.22345
 21
85.277357
 31
0.0
  0
LINE
  8
0
  6
BYBLOCK
 62
     0
 10
185.22345
 20
86.090866
 30
0.0
 11
185.22345
 21
85.277357
 31
0.0
  0
LINE
  8
0
  6
BYBLOCK
 62
     0
 10
184.22345
 20
85.302357
 30
0.0
 11
184.575712
 21
85.302357
 31
0.0
  0
LINE
  8
0
  6
BYBLOCK
 62
     0
 10
185.22345
 20
85.302357
 30
0.0
 11
184.871188
 21
85.302357
 31
0.0
  0
LINE
  8
0
  6
BYBLOCK
 62
     0
 10
184.17345
 20
85.252357
 30
0.0
 11
184.27345
 21
85.352357
 31
0.0
  0
LINE
  8
0
  6
BYBLOCK
 62
     0
 10
185.17345
 20
85.252357
 30
0.0
 11
185.27345
 21
85.352357
 31
0.0
  0
TEXT
  8
0
  6
BYBLOCK
 62
     0
 10
184.549641
 20
85.252357
 30
0.0
 40
0.1
  1
1.00
  7
ROMANS
 72
     1
 11
184.72345
 21
85.302357
 31
0.0
 73
     2
  0
POINT
  8
DEFPOINTS
  6
BYBLOCK
 62
     0
 10
184.22345
 20
86.140866
 30
0.0
  0
POINT
  8
DEFPOINTS
  6
BYBLOCK
 62
     0
 10
185.22345
 20
86.140866
 30
0.0
  0
POINT
  8
DEFPOINTS
  6
BYBLOCK
 62
     0
 10
185.22345
 20
85.302357
 30
0.0
  0
ENDBLK
  8
0
  0
BLOCK
  8
0
  2
*D25
 70
    65
 10
0.0
 20
0.0
 30
0.0
  3
*D
  0
LINE
  8
0
  6
BYBLOCK
 62
     0
 10
185.27345
 20
87.690866
 30
0.0
 11
185.533707
 21
87.690866
 31
0.0
  0
LINE
  8
0
  6
BYBLOCK
 62
     0
 10
185.27345
 20
86.140866
 30
0.0
 11
185.533707
 21
86.140866
 31
0.0
  0
LINE
  8
0
  6
BYBLOCK
 62
     0
 10
185.508707
 20
87.690866
 30
0.0
 11
185.508707
 21
87.063604
 31
0.0
  0
LINE
  8
0
  6
BYBLOCK
 62
     0
 10
185.508707
 20
86.140866
 30
0.0
 11
185.508707
 21
86.768128
 31
0.0
  0
LINE
  8
0
  6
BYBLOCK
 62
     0
 10
185.558707
 20
87.640866
 30
0.0
 11
185.458707
 21
87.740866
 31
0.0
  0
LINE
  8
0
  6
BYBLOCK
 62
     0
 10
185.558707
 20
86.090866
 30
0.0
 11
185.458707
 21
86.190866
 31
0.0
  0
TEXT
  8
0
  6
BYBLOCK
 62
     0
 10
185.558707
 20
86.742056
 30
0.0
 40
0.1
  1
1.55
 50
90.0
  7
ROMANS
 72
     1
 11
185.508707
 21
86.915866
 31
0.0
 73
     2
  0
POINT
  8
DEFPOINTS
  6
BYBLOCK
 62
     0
 10
185.22345
 20
87.690866
 30
0.0
  0
POINT
  8
DEFPOINTS
  6
BYBLOCK
 62
     0
 10
185.22345
 20
86.140866
 30
0.0
  0
POINT
  8
DEFPOINTS
  6
BYBLOCK
 62
     0
 10
185.508707
 20
86.140866
 30
0.0
  0
ENDBLK
  8
0
  0
BLOCK
  8
0
  2
*D26
 70
    65
 10
0.0
 20
0.0
 30
0.0
  3
*D
  0
LINE
  8
0
  6
BYBLOCK
 62
     0
 10
184.52345
 20
86.090866
 30
0.0
 11
184.52345
 21
85.547844
 31
0.0
  0
LINE
  8
0
  6
BYBLOCK
 62
     0
 10
184.92345
 20
86.090866
 30
0.0
 11
184.92345
 21
85.547844
 31
0.0
  0
LINE
  8
0
  6
BYBLOCK
 62
     0
 10
184.52345
 20
85.572844
 30
0.0
 11
184.42345
 21
85.572844
 31
0.0
  0
LINE
  8
0
  6
BYBLOCK
 62
     0
 10
184.92345
 20
85.572844
 30
0.0
 11
185.02345
 21
85.572844
 31
0.0
  0
LINE
  8
0
  6
BYBLOCK
 62
     0
 10
184.47345
 20
85.522844
 30
0.0
 11
184.57345
 21
85.622844
 31
0.0
  0
LINE
  8
0
  6
BYBLOCK
 62
     0
 10
184.87345
 20
85.522844
 30
0.0
 11
184.97345
 21
85.622844
 31
0.0
  0
TEXT
  8
0
  6
BYBLOCK
 62
     0
 10
185.011665
 20
85.522844
 30
0.0
 40
0.1
  1
0.40
  7
ROMANS
 72
     1
 11
185.178331
 21
85.572844
 31
0.0
 73
     2
  0
POINT
  8
DEFPOINTS
  6
BYBLOCK
 62
     0
 10
184.52345
 20
86.140866
 30
0.0
  0
POINT
  8
DEFPOINTS
  6
BYBLOCK
 62
     0
 10
184.92345
 20
86.140866
 30
0.0
  0
POINT
  8
DEFPOINTS
  6
BYBLOCK
 62
     0
 10
184.92345
 20
85.572844
 30
0.0
  0
ENDBLK
  8
0
  0
BLOCK
  8
0
  2
*D27
 70
    65
 10
0.0
 20
0.0
 30
0.0
  3
*D
  0
LINE
  8
0
  6
BYBLOCK
 62
     0
 10
184.52345
 20
86.090866
 30
0.0
 11
184.52345
 21
85.547844
 31
0.0
  0
LINE
  8
0
  6
BYBLOCK
 62
     0
 10
184.92345
 20
86.090866
 30
0.0
 11
184.92345
 21
85.547844
 31
0.0
  0
LINE
  8
0
  6
BYBLOCK
 62
     0
 10
184.52345
 20
85.572844
 30
0.0
 11
184.92345
 21
85.572844
 31
0.0
  0
LINE
  8
0
  6
BYBLOCK
 62
     0
 10
184.47345
 20
85.522844
 30
0.0
 11
184.57345
 21
85.622844
 31
0.0
  0
LINE
  8
0
  6
BYBLOCK
 62
     0
 10
184.87345
 20
85.522844
 30
0.0
 11
184.97345
 21
85.622844
 31
0.0
  0
TEXT
  8
0
  6
BYBLOCK
 62
     0
 10
184.969973
 20
85.522844
 30
0.0
 40
0.1
  1
0.40
  7
ROMANS
 72
     1
 11
185.136639
 21
85.572844
 31
0.0
 73
     2
  0
POINT
  8
DEFPOINTS
  6
BYBLOCK
 62
     0
 10
184.52345
 20
86.140866
 30
0.0
  0
POINT
  8
DEFPOINTS
  6
BYBLOCK
 62
     0
 10
184.92345
 20
86.140866
 30
0.0
  0
POINT
  8
DEFPOINTS
  6
BYBLOCK
 62
     0
 10
184.92345
 20
85.572844
 30
0.0
  0
ENDBLK
  8
0
  0
ENDSEC
  0
SECTION
  2
ENTITIES
  0
LINE
  8
0
 10
180.642909
 20
95.784754
 30
0.0
 11
180.642909
 21
80.934754
 31
0.0
  0
LINE
  8
0
 10
191.142909
 20
80.934754
 30
0.0
 11
191.142909
 21
95.784754
 31
0.0
  0
LINE
  8
0
 10
180.642909
 20
80.934754
 30
0.0
 11
191.142909
 21
80.934754
 31
0.0
  0
LINE
  8
0
 10
191.142909
 20
95.784754
 30
0.0
 11
180.642909
 21
95.784754
 31
0.0
  0
TEXT
  8
0
 10
183.172881
 20
92.894898
 30
0.0
 40
0.3
  1
ESCALA  1:50
  7
ROMANC
  0
TEXT
  8
0
 10
183.185975
 20
92.296309
 30
0.0
 40
0.3
  1
S = 217 dm
  7
ROMANC
  0
TEXT
  8
0
 10
183.172881
 20
93.380613
 30
0.0
 40
0.3
  1
TIPUS   NT217A
  7
ROMANC
  0
TEXT
  8
0
 10
183.179398
 20
91.743273
 30
0.0
 40
0.3
  1
P = 63.9 dm
  7
ROMANC
  0
TEXT
  8
0
 10
186.57508
 20
92.60962
 30
0.0
 40
0.1
  1
2
  7
ROMANC
  0
ARC
  8
0
 10
184.381132
 20
87.690866
 30
0.0
 40
0.857318
 50
360.0
 51
17.673222
  0
ARC
  8
0
 10
184.549054
 20
87.74437
 30
0.0
 40
0.681079
 50
17.673222
 51
37.568592
  0
ARC
  8
0
 10
184.655652
 20
87.826369
 30
0.0
 40
0.546591
 50
37.568592
 51
61.698529
  0
ARC
  8
0
 10
184.72345
 20
87.952276
 30
0.0
 40
0.40359
 50
61.698529
 51
90.0
  0
ARC
  8
0
 10
184.72345
 20
87.952276
 30
0.0
 40
0.40359
 50
90.0
 51
118.301471
  0
ARC
  8
0
 10
184.791249
 20
87.826369
 30
0.0
 40
0.546591
 50
118.301471
 51
142.431408
  0
ARC
  8
0
 10
184.897847
 20
87.74437
 30
0.0
 40
0.681079
 50
142.431408
 51
162.326778
  0
ARC
  8
0
 10
185.065768
 20
87.690866
 30
0.0
 40
0.857318
 50
162.326778
 51
180.0
  0
LINE
  8
0
 10
184.20845
 20
87.690866
 30
0.0
 11
184.20845
 21
86.125866
 31
0.0
  0
LINE
  8
0
 10
184.20845
 20
86.125866
 30
0.0
 11
184.50863
 21
86.125866
 31
0.0
  0
ARC
  8
0
 10
185.133948
 20
86.140866
 30
0.0
 40
0.625498
 50
181.374136
 51
193.316467
  0
ARC
  8
0
 10
184.931116
 20
86.092857
 30
0.0
 40
0.417061
 50
193.316467
 51
209.744881
  0
ARC
  8
0
 10
184.803302
 20
86.01982
 30
0.0
 40
0.269852
 50
209.744881
 51
234.06263
  0
ARC
  8
0
 10
184.72345
 20
85.909661
 30
0.0
 40
0.133795
 50
234.06263
 51
270.0
  0
ARC
  8
0
 10
184.72345
 20
85.909661
 30
0.0
 40
0.133795
 50
270.0
 51
305.93737
  0
ARC
  8
0
 10
184.643598
 20
86.01982
 30
0.0
 40
0.269852
 50
305.93737
 51
330.255119
  0
ARC
  8
0
 10
184.515785
 20
86.092857
 30
0.0
 40
0.417061
 50
330.255119
 51
346.683533
  0
ARC
  8
0
 10
184.312953
 20
86.140866
 30
0.0
 40
0.625498
 50
346.683533
 51
358.625864
  0
LINE
  8
0
 10
184.93827
 20
86.125866
 30
0.0
 11
185.23845
 21
86.125866
 31
0.0
  0
LINE
  8
0
 10
185.23845
 20
86.125866
 30
0.0
 11
185.23845
 21
87.690866
 31
0.0
  0
ARC
  8
0
 10
184.381132
 20
87.690866
 30
0.0
 40
0.849818
 50
0.0
 51
17.673222
  0
ARC
  8
0
 10
184.549054
 20
87.74437
 30
0.0
 40
0.673579
 50
17.673222
 51
37.568592
  0
ARC
  8
0
 10
184.655652
 20
87.826369
 30
0.0
 40
0.539091
 50
37.568592
 51
61.698529
  0
ARC
  8
0
 10
184.72345
 20
87.952276
 30
0.0
 40
0.39609
 50
61.698529
 51
90.0
  0
ARC
  8
0
 10
184.72345
 20
87.952276
 30
0.0
 40
0.39609
 50
90.0
 51
118.301471
  0
ARC
  8
0
 10
184.791249
 20
87.826369
 30
0.0
 40
0.539091
 50
118.301471
 51
142.431408
  0
ARC
  8
0
 10
184.897847
 20
87.74437
 30
0.0
 40
0.673579
 50
142.431408
 51
162.326778
  0
ARC
  8
0
 10
185.065768
 20
87.690866
 30
0.0
 40
0.849818
 50
162.326778
 51
180.0
  0
LINE
  8
0
 10
184.21595
 20
87.690866
 30
0.0
 11
184.21595
 21
86.133366
 31
0.0
  0
LINE
  8
0
 10
184.21595
 20
86.133366
 30
0.0
 11
184.515996
 21
86.133366
 31
0.0
  0
ARC
  8
0
 10
185.133948
 20
86.140866
 30
0.0
 40
0.617998
 50
180.695357
 51
193.316467
  0
ARC
  8
0
 10
184.931116
 20
86.092857
 30
0.0
 40
0.409561
 50
193.316467
 51
209.744881
  0
ARC
  8
0
 10
184.803302
 20
86.01982
 30
0.0
 40
0.262352
 50
209.744881
 51
234.06263
  0
ARC
  8
0
 10
184.72345
 20
85.909661
 30
0.0
 40
0.126295
 50
234.06263
 51
270.0
  0
ARC
  8
0
 10
184.72345
 20
85.909661
 30
0.0
 40
0.126295
 50
270.0
 51
305.93737
  0
ARC
  8
0
 10
184.643598
 20
86.01982
 30
0.0
 40
0.262352
 50
305.93737
 51
330.255119
  0
ARC
  8
0
 10
184.515785
 20
86.092857
 30
0.0
 40
0.409561
 50
330.255119
 51
346.683533
  0
ARC
  8
0
 10
184.312953
 20
86.140866
 30
0.0
 40
0.617998
 50
346.683533
 51
359.304643
  0
LINE
  8
0
 10
184.930905
 20
86.133366
 30
0.0
 11
185.23095
 21
86.133366
 31
0.0
  0
LINE
  8
0
 10
185.23095
 20
86.133366
 30
0.0
 11
185.23095
 21
87.690866
 31
0.0
  0
ARC
  8
0
 10
184.381132
 20
87.690866
 30
0.0
 40
0.842318
 50
0.0
 51
17.673222
  0
ARC
  8
0
 10
184.549054
 20
87.74437
 30
0.0
 40
0.666079
 50
17.673222
 51
37.568592
  0
ARC
  8
0
 10
184.655652
 20
87.826369
 30
0.0
 40
0.531591
 50
37.568592
 51
61.698529
  0
ARC
  8
0
 10
184.72345
 20
87.952276
 30
0.0
 40
0.38859
 50
61.698529
 51
90.0
  0
ARC
  8
0
 10
184.72345
 20
87.952276
 30
0.0
 40
0.38859
 50
90.0
 51
118.301471
  0
ARC
  8
0
 10
184.791249
 20
87.826369
 30
0.0
 40
0.531591
 50
118.301471
 51
142.431408
  0
ARC
  8
0
 10
184.897847
 20
87.74437
 30
0.0
 40
0.666079
 50
142.431408
 51
162.326778
  0
ARC
  8
0
 10
185.065768
 20
87.690866
 30
0.0
 40
0.842318
 50
162.326778
 51
180.0
  0
LINE
  8
0
 10
184.22345
 20
87.690866
 30
0.0
 11
184.22345
 21
86.140866
 31
0.0
  0
LINE
  8
0
 10
184.22345
 20
86.140866
 30
0.0
 11
184.52345
 21
86.140866
 31
0.0
  0
ARC
  8
0
 10
185.133948
 20
86.140866
 30
0.0
 40
0.610498
 50
180.0
 51
193.316467
  0
ARC
  8
0
 10
184.931116
 20
86.092857
 30
0.0
 40
0.402061
 50
193.316467
 51
209.744881
  0
ARC
  8
0
 10
184.803302
 20
86.01982
 30
0.0
 40
0.254852
 50
209.744881
 51
234.06263
  0
ARC
  8
0
 10
184.72345
 20
85.909661
 30
0.0
 40
0.118795
 50
234.06263
 51
270.0
  0
ARC
  8
0
 10
184.72345
 20
85.909661
 30
0.0
 40
0.118795
 50
270.0
 51
305.93737
  0
ARC
  8
0
 10
184.643598
 20
86.01982
 30
0.0
 40
0.254852
 50
305.93737
 51
330.255119
  0
ARC
  8
0
 10
184.515785
 20
86.092857
 30
0.0
 40
0.402061
 50
330.255119
 51
346.683533
  0
ARC
  8
0
 10
184.312953
 20
86.140866
 30
0.0
 40
0.610498
 50
346.683533
 51
360.0
  0
LINE
  8
0
 10
184.92345
 20
86.140866
 30
0.0
 11
185.22345
 21
86.140866
 31
0.0
  0
LINE
  8
0
 10
185.22345
 20
86.140866
 30
0.0
 11
185.22345
 21
87.690866
 31
0.0
  0
LINE
  8
0
  6
BYBLOCK
 62
     0
 10
184.52345
 20
86.090866
 30
0.0
 11
184.52345
 21
85.547844
 31
0.0
  0
LINE
  8
0
  6
BYBLOCK
 62
     0
 10
184.92345
 20
86.090866
 30
0.0
 11
184.92345
 21
85.547844
 31
0.0
  0
LINE
  8
0
  6
BYBLOCK
 62
     0
 10
184.52345
 20
85.572844
 30
0.0
 11
184.92345
 21
85.572844
 31
0.0
  0
LINE
  8
0
  6
BYBLOCK
 62
     0
 10
184.47345
 20
85.522844
 30
0.0
 11
184.57345
 21
85.622844
 31
0.0
  0
LINE
  8
0
  6
BYBLOCK
 62
     0
 10
184.87345
 20
85.522844
 30
0.0
 11
184.97345
 21
85.622844
 31
0.0
  0
TEXT
  8
0
  6
BYBLOCK
 62
     0
 10
184.969973
 20
85.522844
 30
0.0
 40
0.1
  1
0.40
  7
ROMANS
 72
     1
 11
185.136639
 21
85.572844
 31
0.0
 73
     2
  0
POINT
  8
DEFPOINTS
  6
BYBLOCK
 62
     0
 10
184.52345
 20
86.140866
 30
0.0
  0
POINT
  8
DEFPOINTS
  6
BYBLOCK
 62
     0
 10
184.92345
 20
86.140866
 30
0.0
  0
POINT
  8
DEFPOINTS
  6
BYBLOCK
 62
     0
 10
184.92345
 20
85.572844
 30
0.0
  0
LINE
  8
0
  6
BYBLOCK
 62
     0
 10
184.77345
 20
88.340866
 30
0.0
 11
185.860848
 21
88.340866
 31
0.0
  0
LINE
  8
0
  6
BYBLOCK
 62
     0
 10
184.77345
 20
85.790866
 30
0.0
 11
185.860848
 21
85.790866
 31
0.0
  0
LINE
  8
0
  6
BYBLOCK
 62
     0
 10
185.835848
 20
88.340866
 30
0.0
 11
185.835848
 21
87.220747
 31
0.0
  0
LINE
  8
0
  6
BYBLOCK
 62
     0
 10
185.835848
 20
85.790866
 30
0.0
 11
185.835848
 21
86.910985
 31
0.0
  0
LINE
  8
0
  6
BYBLOCK
 62
     0
 10
185.885848
 20
88.290866
 30
0.0
 11
185.785848
 21
88.390866
 31
0.0
  0
LINE
  8
0
  6
BYBLOCK
 62
     0
 10
185.885848
 20
85.740866
 30
0.0
 11
185.785848
 21
85.840866
 31
0.0
  0
TEXT
  8
0
  6
BYBLOCK
 62
     0
 10
185.885848
 20
86.899199
 30
0.0
 40
0.1
  1
2.55
 50
90.0
  7
ROMANS
 72
     1
 11
185.835848
 21
87.065866
 31
0.0
 73
     2
  0
POINT
  8
DEFPOINTS
  6
BYBLOCK
 62
     0
 10
184.72345
 20
88.340866
 30
0.0
  0
POINT
  8
DEFPOINTS
  6
BYBLOCK
 62
     0
 10
184.72345
 20
85.790866
 30
0.0
  0
POINT
  8
DEFPOINTS
  6
BYBLOCK
 62
     0
 10
185.835848
 20
85.790866
 30
0.0
  0
LINE
  8
0
  6
BYBLOCK
 62
     0
 10
185.27345
 20
87.690866
 30
0.0
 11
185.533707
 21
87.690866
 31
0.0
  0
LINE
  8
0
  6
BYBLOCK
 62
     0
 10
185.27345
 20
86.140866
 30
0.0
 11
185.533707
 21
86.140866
 31
0.0
  0
LINE
  8
0
  6
BYBLOCK
 62
     0
 10
185.508707
 20
87.690866
 30
0.0
 11
185.508707
 21
87.063604
 31
0.0
  0
LINE
  8
0
  6
BYBLOCK
 62
     0
 10
185.508707
 20
86.140866
 30
0.0
 11
185.508707
 21
86.768128
 31
0.0
  0
LINE
  8
0
  6
BYBLOCK
 62
     0
 10
185.558707
 20
87.640866
 30
0.0
 11
185.458707
 21
87.740866
 31
0.0
  0
LINE
  8
0
  6
BYBLOCK
 62
     0
 10
185.558707
 20
86.090866
 30
0.0
 11
185.458707
 21
86.190866
 31
0.0
  0
TEXT
  8
0
  6
BYBLOCK
 62
     0
 10
185.558707
 20
86.742056
 30
0.0
 40
0.1
  1
1.55
 50
90.0
  7
ROMANS
 72
     1
 11
185.508707
 21
86.915866
 31
0.0
 73
     2
  0
POINT
  8
DEFPOINTS
  6
BYBLOCK
 62
     0
 10
185.22345
 20
87.690866
 30
0.0
  0
POINT
  8
DEFPOINTS
  6
BYBLOCK
 62
     0
 10
185.22345
 20
86.140866
 30
0.0
  0
POINT
  8
DEFPOINTS
  6
BYBLOCK
 62
     0
 10
185.508707
 20
86.140866
 30
0.0
  0
LINE
  8
0
  6
BYBLOCK
 62
     0
 10
184.77345
 20
85.790866
 30
0.0
 11
185.533707
 21
85.790866
 31
0.0
  0
LINE
  8
0
  6
BYBLOCK
 62
     0
 10
184.95345
 20
86.140866
 30
0.0
 11
185.533707
 21
86.140866
 31
0.0
  0
LINE
  8
0
  6
BYBLOCK
 62
     0
 10
185.508707
 20
85.790866
 30
0.0
 11
185.508707
 21
86.140866
 31
0.0
  0
LINE
  8
0
  6
BYBLOCK
 62
     0
 10
185.558707
 20
85.740866
 30
0.0
 11
185.458707
 21
85.840866
 31
0.0
  0
LINE
  8
0
  6
BYBLOCK
 62
     0
 10
185.558707
 20
86.090866
 30
0.0
 11
185.458707
 21
86.190866
 31
0.0
  0
TEXT
  8
0
  6
BYBLOCK
 62
     0
 10
185.558707
 20
85.394559
 30
0.0
 40
0.1
  1
0.35
 50
90.0
  7
ROMANS
 72
     1
 11
185.508707
 21
85.561226
 31
0.0
 73
     2
  0
POINT
  8
DEFPOINTS
  6
BYBLOCK
 62
     0
 10
184.72345
 20
85.790866
 30
0.0
  0
POINT
  8
DEFPOINTS
  6
BYBLOCK
 62
     0
 10
184.90345
 20
86.140866
 30
0.0
  0
POINT
  8
DEFPOINTS
  6
BYBLOCK
 62
     0
 10
185.508707
 20
86.140866
 30
0.0
  0
LINE
  8
0
  6
BYBLOCK
 62
     0
 10
184.22345
 20
86.090866
 30
0.0
 11
184.22345
 21
85.277357
 31
0.0
  0
LINE
  8
0
  6
BYBLOCK
 62
     0
 10
185.22345
 20
86.090866
 30
0.0
 11
185.22345
 21
85.277357
 31
0.0
  0
LINE
  8
0
  6
BYBLOCK
 62
     0
 10
184.22345
 20
85.302357
 30
0.0
 11
184.575712
 21
85.302357
 31
0.0
  0
LINE
  8
0
  6
BYBLOCK
 62
     0
 10
185.22345
 20
85.302357
 30
0.0
 11
184.871188
 21
85.302357
 31
0.0
  0
LINE
  8
0
  6
BYBLOCK
 62
     0
 10
184.17345
 20
85.252357
 30
0.0
 11
184.27345
 21
85.352357
 31
0.0
  0
LINE
  8
0
  6
BYBLOCK
 62
     0
 10
185.17345
 20
85.252357
 30
0.0
 11
185.27345
 21
85.352357
 31
0.0
  0
TEXT
  8
0
  6
BYBLOCK
 62
     0
 10
184.549641
 20
85.252357
 30
0.0
 40
0.1
  1
1.00
  7
ROMANS
 72
     1
 11
184.72345
 21
85.302357
 31
0.0
 73
     2
  0
POINT
  8
DEFPOINTS
  6
BYBLOCK
 62
     0
 10
184.22345
 20
86.140866
 30
0.0
  0
POINT
  8
DEFPOINTS
  6
BYBLOCK
 62
     0
 10
185.22345
 20
86.140866
 30
0.0
  0
POINT
  8
DEFPOINTS
  6
BYBLOCK
 62
     0
 10
185.22345
 20
85.302357
 30
0.0
  0
LINE
  8
0
  6
BYBLOCK
 62
     0
 10
184.22345
 20
87.640866
 30
0.0
 11
184.22345
 21
87.665866
 31
0.0
  0
LINE
  8
0
  6
BYBLOCK
 62
     0
 10
185.22345
 20
87.740866
 30
0.0
 11
185.22345
 21
87.715866
 31
0.0
  0
LINE
  8
0
  6
BYBLOCK
 62
     0
 10
184.22345
 20
87.690866
 30
0.0
 11
184.575712
 21
87.690866
 31
0.0
  0
LINE
  8
0
  6
BYBLOCK
 62
     0
 10
185.22345
 20
87.690866
 30
0.0
 11
184.871188
 21
87.690866
 31
0.0
  0
LINE
  8
0
  6
BYBLOCK
 62
     0
 10
184.17345
 20
87.640866
 30
0.0
 11
184.27345
 21
87.740866
 31
0.0
  0
LINE
  8
0
  6
BYBLOCK
 62
     0
 10
185.17345
 20
87.640866
 30
0.0
 11
185.27345
 21
87.740866
 31
0.0
  0
TEXT
  8
0
  6
BYBLOCK
 62
     0
 10
184.549641
 20
87.640866
 30
0.0
 40
0.1
  1
1.00
  7
ROMANS
 72
     1
 11
184.72345
 21
87.690866
 31
0.0
 73
     2
  0
POINT
  8
DEFPOINTS
  6
BYBLOCK
 62
     0
 10
184.22345
 20
87.690866
 30
0.0
  0
POINT
  8
DEFPOINTS
  6
BYBLOCK
 62
     0
 10
185.22345
 20
87.690866
 30
0.0
  0
POINT
  8
DEFPOINTS
  6
BYBLOCK
 62
     0
 10
185.22345
 20
87.690866
 30
0.0
  0
ENDSEC
  0
EOF
