  0
SECTION
  2
HEADER
  9
$ACADVER
  1
AC1009
  9
$INSBASE
 10
0.0
 20
0.0
 30
0.0
  9
$EXTMIN
 10
281.396000
 20
29.897000
 30
-2147483.648000
  9
$EXTMAX
 10
291.896000
 20
44.747000
 30
0.000000
  9
$LIMMIN
 10
280.396000
 20
28.897000
  9
$LIMMAX
 10
292.896000
 20
43.747000
  9
$ORTHOMODE
 70
     0
  9
$REGENMODE
 70
     1
  9
$FILLMODE
 70
     1
  9
$QTEXTMODE
 70
     0
  9
$MIRRTEXT
 70
     1
  9
$DRAGMODE
 70
     2
  9
$LTSCALE
 40
1.0
  9
$OSMODE
 70
     0
  9
$ATTMODE
 70
     1
  9
$TEXTSIZE
 40
0.2
  9
$TRACEWID
 40
0.05
  9
$TEXTSTYLE
  7
STANDARD
  9
$CLAYER
  8
0
  9
$CELTYPE
  6
BYLAYER
  9
$CECOLOR
 62
   256
  9
$DIMSCALE
 40
1.0
  9
$DIMASZ
 40
0.18
  9
$DIMEXO
 40
0.0625
  9
$DIMDLI
 40
0.38
  9
$DIMRND
 40
0.0
  9
$DIMDLE
 40
0.0
  9
$DIMEXE
 40
0.18
  9
$DIMTP
 40
0.0
  9
$DIMTM
 40
0.0
  9
$DIMTXT
 40
0.18
  9
$DIMCEN
 40
0.09
  9
$DIMTSZ
 40
0.0
  9
$DIMTOL
 70
     0
  9
$DIMLIM
 70
     0
  9
$DIMTIH
 70
     1
  9
$DIMTOH
 70
     1
  9
$DIMSE1
 70
     0
  9
$DIMSE2
 70
     0
  9
$DIMTAD
 70
     0
  9
$DIMZIN
 70
     0
  9
$DIMBLK
  1

  9
$DIMASO
 70
     1
  9
$DIMSHO
 70
     1
  9
$DIMPOST
  1

  9
$DIMAPOST
  1

  9
$DIMALT
 70
     0
  9
$DIMALTD
 70
     2
  9
$DIMALTF
 40
25.4
  9
$DIMLFAC
 40
1.0
  9
$DIMTOFL
 70
     0
  9
$DIMTVP
 40
0.0
  9
$DIMTIX
 70
     0
  9
$DIMSOXD
 70
     0
  9
$DIMSAH
 70
     0
  9
$DIMBLK1
  1

  9
$DIMBLK2
  1

  9
$DIMSTYLE
  2
*UNNAMED
  9
$DIMCLRD
 70
     0
  9
$DIMCLRE
 70
     0
  9
$DIMCLRT
 70
     0
  9
$DIMTFAC
 40
1.0
  9
$DIMGAP
 40
0.09
  9
$LUNITS
 70
     2
  9
$LUPREC
 70
     4
  9
$AXISMODE
 70
     0
  9
$AXISUNIT
 10
0.0
 20
0.0
  9
$SKETCHINC
 40
0.1
  9
$FILLETRAD
 40
0.0
  9
$AUNITS
 70
     0
  9
$AUPREC
 70
     0
  9
$MENU
  1
acad
  9
$ELEVATION
 40
0.0
  9
$PELEVATION
 40
0.0
  9
$THICKNESS
 40
0.0
  9
$LIMCHECK
 70
     0
  9
$BLIPMODE
 70
     1
  9
$CHAMFERA
 40
0.0
  9
$CHAMFERB
 40
0.0
  9
$SKPOLY
 70
     0
  9
$TDCREATE
 40
2448315.373408102
  9
$TDUPDATE
 40
2448315.373408102
  9
$TDINDWG
 40
0.0000000000
  9
$TDUSRTIMER
 40
0.0000000000
  9
$USRTIMER
 70
     1
  9
$ANGBASE
 50
0.0
  9
$ANGDIR
 70
     0
  9
$PDMODE
 70
     0
  9
$PDSIZE
 40
0.0
  9
$PLINEWID
 40
0.0
  9
$COORDS
 70
     0
  9
$SPLFRAME
 70
     0
  9
$SPLINETYPE
 70
     6
  9
$SPLINESEGS
 70
     8
  9
$ATTDIA
 70
     0
  9
$ATTREQ
 70
     1
  9
$HANDLING
 70
     0
  9
$HANDSEED
  5
0
  9
$SURFTAB1
 70
     6
  9
$SURFTAB2
 70
     6
  9
$SURFTYPE
 70
     6
  9
$SURFU
 70
     6
  9
$SURFV
 70
     6
  9
$UCSNAME
  2

  9
$UCSORG
 10
0.0
 20
0.0
 30
0.0
  9
$UCSXDIR
 10
1.0
 20
0.0
 30
0.0
  9
$UCSYDIR
 10
0.0
 20
1.0
 30
0.0
  9
$PUCSNAME
  2

  9
$PUCSORG
 10
0.0
 20
0.0
 30
0.0
  9
$PUCSXDIR
 10
1.0
 20
0.0
 30
0.0
  9
$PUCSYDIR
 10
0.0
 20
1.0
 30
0.0
  9
$USERI1
 70
     0
  9
$USERI2
 70
     0
  9
$USERI3
 70
     0
  9
$USERI4
 70
     0
  9
$USERI5
 70
     0
  9
$USERR1
 40
0.0
  9
$USERR2
 40
0.0
  9
$USERR3
 40
0.0
  9
$USERR4
 40
0.0
  9
$USERR5
 40
0.0
  9
$WORLDVIEW
 70
     1
  9
$SHADEDGE
 70
     3
  9
$SHADEDIF
 70
    70
  9
$TILEMODE
 70
     1
  9
$MAXACTVP
 70
    16
  9
$PINSBASE
 10
0.0
 20
0.0
 30
0.0
  9
$PLIMCHECK
 70
     0
  9
$PEXTMIN
 10
1.000000E+20
 20
1.000000E+20
 30
1.000000E+20
  9
$PEXTMAX
 10
-1.000000E+20
 20
-1.000000E+20
 30
-1.000000E+20
  9
$PLIMMIN
 10
0.0
 20
0.0
  9
$PLIMMAX
 10
12.0
 20
9.0
  9
$UNITMODE
 70
     0
  9
$VISRETAIN
 70
     0
  0
ENDSEC
  0
SECTION
  2
TABLES
  0
TABLE
  2
LTYPE
 70
    1
  0
LTYPE
  2
CONTINUOUS
 70
    64
  3
Solid Line
 72
    65
 73
0
 40
0.0
  0
ENDTAB
  0
TABLE
  2
LAYER
 70
    8
  0
LAYER
  2
0
 70
    64
 62
7
  6
CONTINUOUS
  0
LAYER
  2
1
 70
    64
 62
7
  6
CONTINUOUS
  0
LAYER
  2
7
 70
    64
 62
7
  6
CONTINUOUS
  0
LAYER
  2
8
 70
    64
 62
7
  6
CONTINUOUS
  0
LAYER
  2
9
 70
    64
 62
7
  6
CONTINUOUS
  0
LAYER
  2
22
 70
    64
 62
7
  6
CONTINUOUS
  0
LAYER
  2
25
 70
    64
 62
7
  6
CONTINUOUS
  0
LAYER
  2
0
 70
    64
 62
7
  6
CONTINUOUS
  0
ENDTAB
  0
TABLE
  2
STYLE
 70
    1
  0
STYLE
  2
ROMANC
70
     0
 40
0.0
 41
1.0
 50
0.0
 71
     0
 42
0.2
  3
ROMANC
  4

  0
ENDTAB
  0
ENDSEC
  0
SECTION
  2
BLOCKS
  0
ENDSEC
  0
SECTION
  2
ENTITIES
  0
TEXT
  8
0
  6
*CONTINUOUS,SOLID
 40
0.100000
 10
286.934000
 20
41.338000
  1
2
  7
ROMANC
  0
TEXT
  8
0
  6
*CONTINUOUS,SOLID
 40
0.300000
 10
283.926000
 20
41.768000
  1
ESCALA  1:50
  7
ROMANC
  0
POLYLINE
  8
0
  6
*CONTINUOUS,SOLID
 66
     1
 70
     1
  0
VERTEX
  8
0
  6
*CONTINUOUS,SOLID
 10
281.396000
 20
44.747000
  0
VERTEX
  8
0
  6
*CONTINUOUS,SOLID
 10
291.896000
 20
44.747000
  0
VERTEX
  8
0
  6
*CONTINUOUS,SOLID
 10
291.896000
 20
29.897000
  0
VERTEX
  8
0
  6
*CONTINUOUS,SOLID
 10
281.396000
 20
29.897000
  0
SEQEND
  8
0
  0
TEXT
  8
0
  6
*CONTINUOUS,SOLID
 40
0.300000
 10
283.945000
 20
41.099000
  1
S = 214 dm
  7
ROMANC
  0
TEXT
  8
0
  6
*CONTINUOUS,SOLID
 40
0.300000
 10
283.922000
 20
40.529000
  1
P = 60 dm
  7
ROMANC
  0
TEXT
  8
0
  6
*CONTINUOUS,SOLID
 40
0.300000
 10
283.926000
 20
42.381000
  1
TIPUS   NT214
  7
ROMANC
  0
LINE
  8
1
  6
*CONTINUOUS,SOLID
 10
285.816000
 20
37.134000
 11
285.816000
 21
35.514000
  0
LINE
  8
1
  6
*CONTINUOUS,SOLID
 10
285.806000
 20
37.144000
 11
285.806000
 21
35.504000
  0
LINE
  8
1
  6
*CONTINUOUS,SOLID
 10
287.086000
 20
37.134000
 11
285.816000
 21
37.134000
  0
LINE
  8
1
  6
*CONTINUOUS,SOLID
 10
287.096000
 20
37.144000
 11
285.806000
 21
37.144000
  0
LINE
  8
1
  6
*CONTINUOUS,SOLID
 10
287.086000
 20
35.524000
 11
287.086000
 21
37.134000
  0
LINE
  8
1
  6
*CONTINUOUS,SOLID
 10
287.096000
 20
35.524000
 11
287.096000
 21
37.144000
  0
LINE
  8
1
  6
*CONTINUOUS,SOLID
 10
285.816000
 20
35.514000
 11
286.466000
 21
35.514000
  0
LINE
  8
1
  6
*CONTINUOUS,SOLID
 10
285.806000
 20
35.504000
 11
286.457000
 21
35.504000
  0
ARC
  8
1
  6
*CONTINUOUS,SOLID
 10
286.776000
 20
35.524000
 40
0.310000
 50
181.848572
 51
360.000000
  0
ARC
  8
1
  6
*CONTINUOUS,SOLID
 10
286.776000
 20
35.524000
 40
0.320000
 50
183.583322
 51
360.000000
  0
LINE
  8
1
  6
*CONTINUOUS,SOLID
 10
285.826000
 20
35.524000
 11
286.476000
 21
35.524000
  0
LINE
  8
1
  6
*CONTINUOUS,SOLID
 10
287.076000
 20
35.524000
 11
287.076000
 21
37.124000
  0
TEXT
  8
1
  6
*CONTINUOUS,SOLID
 40
0.075000
 10
286.657000
 20
34.718000
  1
0.60
  7
ROMANC
  0
LINE
  8
1
  6
*CONTINUOUS,SOLID
 10
286.326000
 20
34.755000
 11
286.476000
 21
34.755000
  0
LINE
  8
1
  6
*CONTINUOUS,SOLID
 10
287.226000
 20
34.755000
 11
287.076000
 21
34.755000
  0
LINE
  8
1
  6
*CONTINUOUS,SOLID
 10
286.514000
 20
34.774000
 11
286.438000
 21
34.736000
  0
LINE
  8
1
  6
*CONTINUOUS,SOLID
 10
287.038000
 20
34.736000
 11
287.114000
 21
34.774000
  0
LINE
  8
1
  6
*CONTINUOUS,SOLID
 10
286.476000
 20
35.486000
 11
286.476000
 21
34.717000
  0
LINE
  8
1
  6
*CONTINUOUS,SOLID
 10
287.076000
 20
35.486000
 11
287.076000
 21
34.717000
  0
ARC
  8
1
  6
*CONTINUOUS,SOLID
 10
286.776000
 20
35.524000
 40
0.300000
 50
180.000000
 51
360.000000
  0
TEXT
  8
1
  6
*CONTINUOUS,SOLID
 40
0.075000
 10
285.578000
 20
35.712000
  1
0.30
 50
90.000000
  7
ROMANC
  0
LINE
  8
1
  6
*CONTINUOUS,SOLID
 10
285.540000
 20
35.598000
 11
285.540000
 21
35.524000
  0
LINE
  8
1
  6
*CONTINUOUS,SOLID
 10
285.540000
 20
35.074000
 11
285.540000
 21
35.224000
  0
LINE
  8
1
  6
*CONTINUOUS,SOLID
 10
285.559000
 20
35.486000
 11
285.521000
 21
35.562000
  0
LINE
  8
1
  6
*CONTINUOUS,SOLID
 10
285.521000
 20
35.262000
 11
285.559000
 21
35.186000
  0
LINE
  8
1
  6
*CONTINUOUS,SOLID
 10
286.438000
 20
35.524000
 11
285.502000
 21
35.524000
  0
LINE
  8
1
  6
*CONTINUOUS,SOLID
 10
286.738000
 20
35.224000
 11
285.502000
 21
35.224000
  0
LINE
  8
1
  6
*CONTINUOUS,SOLID
 10
285.826000
 20
37.124000
 11
285.826000
 21
35.524000
  0
TEXT
  8
1
  6
*CONTINUOUS,SOLID
 40
0.075000
 10
285.138000
 20
36.214000
  1
1.60
 50
90.000000
  7
ROMANC
  0
LINE
  8
1
  6
*CONTINUOUS,SOLID
 10
285.100000
 20
36.176000
 11
285.100000
 21
35.524000
  0
LINE
  8
1
  6
*CONTINUOUS,SOLID
 10
285.100000
 20
36.471000
 11
285.100000
 21
37.124000
  0
LINE
  8
1
  6
*CONTINUOUS,SOLID
 10
285.119000
 20
35.486000
 11
285.081000
 21
35.562000
  0
LINE
  8
1
  6
*CONTINUOUS,SOLID
 10
285.081000
 20
37.162000
 11
285.119000
 21
37.086000
  0
LINE
  8
1
  6
*CONTINUOUS,SOLID
 10
285.788000
 20
35.524000
 11
285.062000
 21
35.524000
  0
LINE
  8
1
  6
*CONTINUOUS,SOLID
 10
285.788000
 20
37.124000
 11
285.062000
 21
37.124000
  0
LINE
  8
1
  6
*CONTINUOUS,SOLID
 10
287.076000
 20
37.124000
 11
285.826000
 21
37.124000
  0
TEXT
  8
1
  6
*CONTINUOUS,SOLID
 40
0.075000
 10
287.718000
 20
36.065000
  1
1.90
 50
90.000000
  7
ROMANC
  0
LINE
  8
1
  6
*CONTINUOUS,SOLID
 10
287.681000
 20
36.322000
 11
287.681000
 21
37.124000
  0
LINE
  8
1
  6
*CONTINUOUS,SOLID
 10
287.681000
 20
36.027000
 11
287.681000
 21
35.224000
  0
LINE
  8
1
  6
*CONTINUOUS,SOLID
 10
287.662000
 20
37.162000
 11
287.700000
 21
37.086000
  0
LINE
  8
1
  6
*CONTINUOUS,SOLID
 10
287.700000
 20
35.186000
 11
287.662000
 21
35.262000
  0
LINE
  8
1
  6
*CONTINUOUS,SOLID
 10
287.114000
 20
37.124000
 11
287.719000
 21
37.124000
  0
LINE
  8
1
  6
*CONTINUOUS,SOLID
 10
286.814000
 20
35.224000
 11
287.719000
 21
35.224000
  0
TEXT
  8
1
  6
*CONTINUOUS,SOLID
 40
0.075000
 10
286.341000
 20
34.400000
  1
1.25
  7
ROMANC
  0
LINE
  8
1
  6
*CONTINUOUS,SOLID
 10
286.303000
 20
34.437000
 11
285.826000
 21
34.437000
  0
LINE
  8
1
  6
*CONTINUOUS,SOLID
 10
286.598000
 20
34.437000
 11
287.076000
 21
34.437000
  0
LINE
  8
1
  6
*CONTINUOUS,SOLID
 10
285.788000
 20
34.418000
 11
285.864000
 21
34.456000
  0
LINE
  8
1
  6
*CONTINUOUS,SOLID
 10
287.114000
 20
34.456000
 11
287.038000
 21
34.418000
  0
LINE
  8
1
  6
*CONTINUOUS,SOLID
 10
285.826000
 20
35.486000
 11
285.826000
 21
34.399000
  0
LINE
  8
1
  6
*CONTINUOUS,SOLID
 10
287.076000
 20
35.486000
 11
287.076000
 21
34.399000
  0
ENDSEC
  0
EOF
