  0
SECTION
  2
HEADER
  9
$ACADVER
  1
AC1009
  9
$INSBASE
 10
182.790286
 20
199.269792
 30
0.0
  9
$EXTMIN
 10
182.790286
 20
199.269792
 30
0.0
  9
$EXTMAX
 10
193.290286
 20
214.119792
 30
0.0
  9
$LIMMIN
 10
0.0
 20
0.0
  9
$LIMMAX
 10
410.0
 20
287.0
  9
$ORTHOMODE
 70
     1
  9
$REGENMODE
 70
     1
  9
$FILLMODE
 70
     1
  9
$QTEXTMODE
 70
     0
  9
$MIRRTEXT
 70
     1
  9
$DRAGMODE
 70
     2
  9
$LTSCALE
 40
25.0
  9
$OSMODE
 70
    32
  9
$ATTMODE
 70
     1
  9
$TEXTSIZE
 40
0.1
  9
$TRACEWID
 40
0.3
  9
$TEXTSTYLE
  7
STANDARD
  9
$CLAYER
  8
0
  9
$CELTYPE
  6
BYLAYER
  9
$CECOLOR
 62
   256
  9
$DIMSCALE
 40
1.0
  9
$DIMASZ
 40
3.5
  9
$DIMEXO
 40
0.1
  9
$DIMDLI
 40
7.0
  9
$DIMRND
 40
0.0
  9
$DIMDLE
 40
0.0
  9
$DIMEXE
 40
1.8
  9
$DIMTP
 40
0.0
  9
$DIMTM
 40
0.0
  9
$DIMTXT
 40
3.5
  9
$DIMCEN
 40
1.5
  9
$DIMTSZ
 40
0.0
  9
$DIMTOL
 70
     0
  9
$DIMLIM
 70
     0
  9
$DIMTIH
 70
     0
  9
$DIMTOH
 70
     0
  9
$DIMSE1
 70
     0
  9
$DIMSE2
 70
     0
  9
$DIMTAD
 70
     0
  9
$DIMZIN
 70
     0
  9
$DIMBLK
  1

  9
$DIMASO
 70
     1
  9
$DIMSHO
 70
     0
  9
$DIMPOST
  1

  9
$DIMAPOST
  1

  9
$DIMALT
 70
     0
  9
$DIMALTD
 70
     2
  9
$DIMALTF
 40
25.4
  9
$DIMLFAC
 40
1.0
  9
$DIMTOFL
 70
     0
  9
$DIMTVP
 40
0.0
  9
$DIMTIX
 70
     0
  9
$DIMSOXD
 70
     0
  9
$DIMSAH
 70
     0
  9
$DIMBLK1
  1

  9
$DIMBLK2
  1

  9
$DIMSTYLE
  2
*UNNAMED
  9
$DIMCLRD
 70
     0
  9
$DIMCLRE
 70
     0
  9
$DIMCLRT
 70
     0
  9
$DIMTFAC
 40
1.0
  9
$DIMGAP
 40
0.09
  9
$LUNITS
 70
     2
  9
$LUPREC
 70
     2
  9
$SKETCHINC
 40
1.0
  9
$FILLETRAD
 40
0.0
  9
$AUNITS
 70
     0
  9
$AUPREC
 70
     0
  9
$MENU
  1
acad
  9
$ELEVATION
 40
0.0
  9
$PELEVATION
 40
0.0
  9
$THICKNESS
 40
0.0
  9
$LIMCHECK
 70
     0
  9
$BLIPMODE
 70
     0
  9
$CHAMFERA
 40
0.0
  9
$CHAMFERB
 40
0.0
  9
$SKPOLY
 70
     0
  9
$TDCREATE
 40
2449961.371764814
  9
$TDUPDATE
 40
2450723.715390509
  9
$TDINDWG
 40
0.1074473380
  9
$TDUSRTIMER
 40
0.1074473380
  9
$USRTIMER
 70
     1
  9
$ANGBASE
 50
0.0
  9
$ANGDIR
 70
     0
  9
$PDMODE
 70
     0
  9
$PDSIZE
 40
0.0
  9
$PLINEWID
 40
0.0
  9
$COORDS
 70
     2
  9
$SPLFRAME
 70
     0
  9
$SPLINETYPE
 70
     6
  9
$SPLINESEGS
 70
     8
  9
$ATTDIA
 70
     0
  9
$ATTREQ
 70
     1
  9
$HANDLING
 70
     0
  9
$HANDSEED
  5
0
  9
$SURFTAB1
 70
     6
  9
$SURFTAB2
 70
     6
  9
$SURFTYPE
 70
     6
  9
$SURFU
 70
     6
  9
$SURFV
 70
     6
  9
$UCSNAME
  2

  9
$UCSORG
 10
0.0
 20
0.0
 30
0.0
  9
$UCSXDIR
 10
1.0
 20
0.0
 30
0.0
  9
$UCSYDIR
 10
0.0
 20
1.0
 30
0.0
  9
$PUCSNAME
  2

  9
$PUCSORG
 10
0.0
 20
0.0
 30
0.0
  9
$PUCSXDIR
 10
1.0
 20
0.0
 30
0.0
  9
$PUCSYDIR
 10
0.0
 20
1.0
 30
0.0
  9
$USERI1
 70
     0
  9
$USERI2
 70
     0
  9
$USERI3
 70
     0
  9
$USERI4
 70
     0
  9
$USERI5
 70
     0
  9
$USERR1
 40
0.0
  9
$USERR2
 40
0.0
  9
$USERR3
 40
0.0
  9
$USERR4
 40
0.0
  9
$USERR5
 40
0.0
  9
$WORLDVIEW
 70
     1
  9
$SHADEDGE
 70
     3
  9
$SHADEDIF
 70
    70
  9
$TILEMODE
 70
     1
  9
$MAXACTVP
 70
    16
  9
$PINSBASE
 10
0.0
 20
0.0
 30
0.0
  9
$PLIMCHECK
 70
     0
  9
$PEXTMIN
 10
1.000000E+20
 20
1.000000E+20
 30
1.000000E+20
  9
$PEXTMAX
 10
-1.000000E+20
 20
-1.000000E+20
 30
-1.000000E+20
  9
$PLIMMIN
 10
0.0
 20
0.0
  9
$PLIMMAX
 10
12.0
 20
9.0
  9
$UNITMODE
 70
     0
  9
$VISRETAIN
 70
     0
  9
$PLINEGEN
 70
     0
  9
$PSLTSCALE
 70
     0
  9
$TREEDEPTH
 70
  3020
  9
$DWGCODEPAGE
  3
iso8859-1
  0
ENDSEC
  0
SECTION
  2
TABLES
  0
TABLE
  2
VPORT
 70
     2
  0
VPORT
  2
*ACTIVE
 70
     0
 10
0.0
 20
0.0
 11
1.0
 21
1.0
 12
194.752136
 22
206.694792
 13
0.0
 23
0.0
 14
1.0
 24
1.0
 15
10.0
 25
10.0
 16
0.0
 26
0.0
 36
1.0
 17
0.0
 27
0.0
 37
0.0
 40
14.85
 41
1.611024
 42
50.0
 43
0.0
 44
0.0
 50
0.0
 51
0.0
 71
     0
 72
   100
 73
     1
 74
     0
 75
     0
 76
     0
 77
     0
 78
     0
  0
ENDTAB
  0
TABLE
  2
LTYPE
 70
     1
  0
LTYPE
  2
CONTINUOUS
 70
    64
  3
Solid Line
 72
    65
 73
     0
 40
0.0
  0
ENDTAB
  0
TABLE
  2
LAYER
 70
     5
  0
LAYER
  2
0
 70
    64
 62
     7
  6
CONTINUOUS
  0
LAYER
  2
SECCIO
 70
    64
 62
     7
  6
CONTINUOUS
  0
LAYER
  2
MESURA
 70
    64
 62
     7
  6
CONTINUOUS
  0
LAYER
  2
TEXTEP
 70
    64
 62
     7
  6
CONTINUOUS
  0
LAYER
  2
TEXTEG
 70
    64
 62
     7
  6
CONTINUOUS
  0
ENDTAB
  0
TABLE
  2
STYLE
 70
     2
  0
STYLE
  2
STANDARD
 70
    64
 40
0.0
 41
1.0
 50
0.0
 71
     0
 42
0.1
  3
txt
  4

  0
STYLE
  2
ROMANC
 70
    64
 40
0.0
 41
1.0
 50
0.0
 71
     0
 42
0.1
  3
romanc
  4

  0
ENDTAB
  0
TABLE
  2
VIEW
 70
     0
  0
ENDTAB
  0
TABLE
  2
UCS
 70
     0
  0
ENDTAB
  0
TABLE
  2
APPID
 70
     1
  0
APPID
  2
ACAD
 70
    64
  0
ENDTAB
  0
TABLE
  2
DIMSTYLE
 70
     0
  0
ENDTAB
  0
ENDSEC
  0
SECTION
  2
BLOCKS
  0
ENDSEC
  0
SECTION
  2
ENTITIES
  0
TEXT
  8
0
 10
184.354693
 20
210.378309
 30
0.0
 40
0.3
  1
P = 189.7 dm
  7
ROMANC
  0
LINE
  8
0
 10
193.290286
 20
214.119792
 30
0.0
 11
193.290286
 21
199.269792
 31
0.0
  0
LINE
  8
0
 10
182.790286
 20
214.119792
 30
0.0
 11
182.790286
 21
199.269792
 31
0.0
  0
LINE
  8
0
 10
182.790286
 20
199.269792
 30
0.0
 11
193.290286
 21
199.269792
 31
0.0
  0
LINE
  8
MESURA
 10
184.904245
 20
204.030959
 30
0.0
 11
191.204245
 21
204.030959
 31
0.0
  0
LINE
  8
MESURA
 10
184.479241
 20
204.967425
 30
0.0
 11
184.479241
 21
204.501659
 31
0.0
  0
LINE
  8
MESURA
 10
184.904245
 20
204.930959
 30
0.0
 11
184.904245
 21
203.963903
 31
0.0
  0
LINE
  8
MESURA
 10
184.904245
 20
204.030959
 30
0.0
 11
184.872778
 21
203.994648
 31
0.0
  0
LINE
  8
0
 10
184.945829
 20
204.075205
 30
0.0
 11
184.904245
 21
204.030959
 31
0.0
  0
LINE
  8
MESURA
 10
185.804245
 20
204.530959
 30
0.0
 11
184.904245
 21
204.530959
 31
0.0
  0
LINE
  8
0
 10
184.520826
 20
204.575205
 30
0.0
 11
184.479241
 21
204.530959
 31
0.0
  0
LINE
  8
MESURA
 10
185.804245
 20
204.530959
 30
0.0
 11
185.804245
 21
203.963903
 31
0.0
  0
LINE
  8
0
 10
185.845829
 20
204.075205
 30
0.0
 11
185.804245
 21
204.030959
 31
0.0
  0
LINE
  8
MESURA
 10
185.804245
 20
204.030959
 30
0.0
 11
185.772778
 21
203.994648
 31
0.0
  0
TEXT
  8
MESURA
 10
185.236602
 20
203.844595
 30
0.0
 40
0.1
  1
0.9
  0
TEXT
  8
MESURA
 10
184.212917
 20
204.692956
 30
0.0
 40
0.1
  1
0.4
  0
LINE
  8
MESURA
 10
184.904245
 20
204.530959
 30
0.0
 11
184.429306
 21
204.530959
 31
0.0
  0
LINE
  8
MESURA
 10
184.479241
 20
204.530959
 30
0.0
 11
184.447774
 21
204.494648
 31
0.0
  0
LINE
  8
0
 10
184.520826
 20
204.975205
 30
0.0
 11
184.479241
 21
204.930959
 31
0.0
  0
LINE
  8
MESURA
 10
184.904245
 20
204.930959
 30
0.0
 11
184.429306
 21
204.930959
 31
0.0
  0
LINE
  8
MESURA
 10
184.479241
 20
204.930959
 30
0.0
 11
184.447774
 21
204.894648
 31
0.0
  0
LINE
  8
MESURA
 10
191.704245
 20
207.979064
 30
0.0
 11
191.704245
 21
204.530959
 31
0.0
  0
TEXT
  8
TEXTEP
 10
188.202778
 20
203.861293
 30
0.0
 40
0.1
  1
5.4
  0
LINE
  8
MESURA
 10
191.204245
 20
204.530959
 30
0.0
 11
191.204245
 21
203.963903
 31
0.0
  0
LINE
  8
MESURA
 10
191.204245
 20
204.530959
 30
0.0
 11
191.804245
 21
204.530959
 31
0.0
  0
LINE
  8
0
 10
191.242285
 20
204.074685
 30
0.0
 11
191.204245
 21
204.030959
 31
0.0
  0
LINE
  8
MESURA
 10
191.204245
 20
204.030959
 30
0.0
 11
191.161457
 21
203.991666
 31
0.0
  0
LINE
  8
MESURA
 10
191.668033
 20
204.503406
 30
0.0
 11
191.751423
 21
204.564016
 31
0.0
  0
LINE
  8
MESURA
 10
190.700168
 20
208.230959
 30
0.0
 11
191.286277
 21
208.230959
 31
0.0
  0
LINE
  8
MESURA
 10
190.720168
 20
207.930959
 30
0.0
 11
191.820168
 21
207.930959
 31
0.0
  0
LINE
  8
MESURA
 10
190.719316
 20
207.921916
 30
0.0
 11
190.720305
 21
208.280959
 31
0.0
  0
LINE
  8
MESURA
 10
190.677302
 20
208.20024
 30
0.0
 11
190.760693
 21
208.26085
 31
0.0
  0
TEXT
  8
TEXTEP
 10
191.767722
 20
206.063389
 30
0.0
 40
0.1
  1
3.1
  0
LINE
  8
MESURA
 10
191.662847
 20
207.900552
 30
0.0
 11
191.746237
 21
207.961161
 31
0.0
  0
TEXT
  8
TEXTEP
 10
191.752973
 20
207.726118
 30
0.0
 40
0.1
  1
0.3
  0
TEXT
  8
TEXTEP
 10
190.863752
 20
208.287921
 30
0.0
 40
0.1
  1
0.5
 50
0.5
  0
LINE
  8
MESURA
 10
191.664527
 20
207.600034
 30
0.0
 11
191.747917
 21
207.660644
 31
0.0
  0
LINE
  8
MESURA
 10
191.166581
 20
208.20024
 30
0.0
 11
191.249971
 21
208.26085
 31
0.0
  0
LINE
  8
MESURA
 10
191.207272
 20
207.638402
 30
0.0
 11
191.207272
 21
208.280959
 31
0.0
  0
LINE
  8
MESURA
 10
191.204245
 20
207.630959
 30
0.0
 11
191.804245
 21
207.630959
 31
0.0
  0
TEXT
  8
0
 10
184.357521
 20
211.051807
 30
0.0
 40
0.3
  1
S = 2091 dm
  7
ROMANC
  0
TEXT
  8
TEXTEG
 10
184.398097
 20
211.755702
 30
0.0
 40
0.3
  1
ESCALA    1:50
  0
LINE
  8
0
 10
182.790286
 20
214.119792
 30
0.0
 11
193.290286
 21
214.119792
 31
0.0
  0
TEXT
  8
TEXTEG
 10
184.330696
 20
212.520269
 30
0.0
 40
0.3
  1
TIPUS     NT2091
  0
TEXT
  8
0
 10
187.865352
 20
211.357723
 30
0.0
 40
0.1
  1
2
  7
ROMANC
  0
LINE
  8
MESURA
 10
192.149685
 20
207.979064
 30
0.0
 11
192.149685
 21
204.530959
 31
0.0
  0
LINE
  8
MESURA
 10
192.113473
 20
204.503406
 30
0.0
 11
192.196863
 21
204.564016
 31
0.0
  0
LINE
  8
MESURA
 10
191.649685
 20
204.530959
 30
0.0
 11
192.249685
 21
204.530959
 31
0.0
  0
LINE
  8
MESURA
 10
191.165608
 20
207.930959
 30
0.0
 11
192.265608
 21
207.930959
 31
0.0
  0
LINE
  8
MESURA
 10
192.108287
 20
207.900552
 30
0.0
 11
192.191677
 21
207.961161
 31
0.0
  0
TEXT
  8
TEXTEP
 10
192.213162
 20
206.287836
 30
0.0
 40
0.1
  1
3.4
  0
LINE
  8
MESURA
 10
184.904245
 20
203.756276
 30
0.0
 11
191.204245
 21
203.756276
 31
0.0
  0
LINE
  8
MESURA
 10
184.904245
 20
204.656276
 30
0.0
 11
184.904245
 21
203.68922
 31
0.0
  0
LINE
  8
MESURA
 10
185.804245
 20
203.756276
 30
0.0
 11
185.772778
 21
203.719966
 31
0.0
  0
LINE
  8
0
 10
184.945829
 20
203.800522
 30
0.0
 11
184.904245
 21
203.756276
 31
0.0
  0
LINE
  8
MESURA
 10
184.904245
 20
203.756276
 30
0.0
 11
184.872778
 21
203.719966
 31
0.0
  0
TEXT
  8
TEXTEP
 10
188.202778
 20
203.586611
 30
0.0
 40
0.1
  1
6.3
  0
LINE
  8
MESURA
 10
191.204245
 20
203.756276
 30
0.0
 11
191.161457
 21
203.716983
 31
0.0
  0
LINE
  8
0
 10
191.242285
 20
203.800003
 30
0.0
 11
191.204245
 21
203.756276
 31
0.0
  0
LINE
  8
MESURA
 10
191.204245
 20
204.256276
 30
0.0
 11
191.204245
 21
203.68922
 31
0.0
  0
LINE
  8
SECCIO
 10
191.194245
 20
204.540959
 30
0.0
 11
185.814245
 21
204.540959
 31
0.0
  0
LINE
  8
SECCIO
 10
185.814245
 20
204.540959
 30
0.0
 11
185.814245
 21
204.940959
 31
0.0
  0
LINE
  8
SECCIO
 10
185.814245
 20
204.940959
 30
0.0
 11
184.914245
 21
204.940959
 31
0.0
  0
LINE
  8
SECCIO
 10
184.914245
 20
204.940959
 30
0.0
 11
184.914245
 21
207.625297
 31
0.0
  0
LINE
  8
SECCIO
 10
184.914245
 20
207.625297
 30
0.0
 11
185.407015
 21
207.920959
 31
0.0
  0
LINE
  8
SECCIO
 10
185.407015
 20
207.920959
 30
0.0
 11
190.701475
 21
207.920959
 31
0.0
  0
LINE
  8
SECCIO
 10
190.701475
 20
207.920959
 30
0.0
 11
191.194245
 21
207.625297
 31
0.0
  0
LINE
  8
SECCIO
 10
191.194245
 20
207.625297
 30
0.0
 11
191.194245
 21
204.540959
 31
0.0
  0
LINE
  8
SECCIO
 10
191.214245
 20
204.520959
 30
0.0
 11
185.794245
 21
204.520959
 31
0.0
  0
LINE
  8
SECCIO
 10
185.794245
 20
204.520959
 30
0.0
 11
185.794245
 21
204.920959
 31
0.0
  0
LINE
  8
SECCIO
 10
185.794245
 20
204.920959
 30
0.0
 11
184.894245
 21
204.920959
 31
0.0
  0
LINE
  8
SECCIO
 10
184.894245
 20
204.920959
 30
0.0
 11
184.894245
 21
207.636621
 31
0.0
  0
LINE
  8
SECCIO
 10
184.894245
 20
207.636621
 30
0.0
 11
185.401475
 21
207.940959
 31
0.0
  0
LINE
  8
SECCIO
 10
185.401475
 20
207.940959
 30
0.0
 11
190.707015
 21
207.940959
 31
0.0
  0
LINE
  8
SECCIO
 10
190.707015
 20
207.940959
 30
0.0
 11
191.214245
 21
207.636621
 31
0.0
  0
LINE
  8
SECCIO
 10
191.214245
 20
207.636621
 30
0.0
 11
191.214245
 21
204.520959
 31
0.0
  0
LINE
  8
SECCIO
 10
191.204245
 20
204.530959
 30
0.0
 11
185.804245
 21
204.530959
 31
0.0
  0
LINE
  8
SECCIO
 10
185.804245
 20
204.530959
 30
0.0
 11
185.804245
 21
204.930959
 31
0.0
  0
LINE
  8
SECCIO
 10
185.804245
 20
204.930959
 30
0.0
 11
184.904245
 21
204.930959
 31
0.0
  0
LINE
  8
SECCIO
 10
184.904245
 20
204.930959
 30
0.0
 11
184.904245
 21
207.630959
 31
0.0
  0
LINE
  8
SECCIO
 10
184.904245
 20
207.630959
 30
0.0
 11
185.404245
 21
207.930959
 31
0.0
  0
LINE
  8
SECCIO
 10
185.404245
 20
207.930959
 30
0.0
 11
190.704245
 21
207.930959
 31
0.0
  0
LINE
  8
SECCIO
 10
190.704245
 20
207.930959
 30
0.0
 11
191.204245
 21
207.630959
 31
0.0
  0
LINE
  8
SECCIO
 10
191.204245
 20
207.630959
 30
0.0
 11
191.204245
 21
204.530959
 31
0.0
  0
ENDSEC
  0
EOF
