  0
SECTION
  2
HEADER
  9
$ACADVER
  1
AC1014
  9
$ACADMAINTVER
 70
     0
  9
$DWGCODEPAGE
  3
ANSI_1252
  9
$INSBASE
 10
0.0
 20
0.0
 30
0.0
  9
$EXTMIN
 10
281.395069
 20
29.896574
 30
-98.2965
  9
$EXTMAX
 10
291.896931
 20
44.747484
 30
65.541
  9
$LIMMIN
 10
280.396
 20
28.897
  9
$LIMMAX
 10
292.896
 20
43.747
  9
$ORTHOMODE
 70
     0
  9
$REGENMODE
 70
     1
  9
$FILLMODE
 70
     1
  9
$QTEXTMODE
 70
     0
  9
$MIRRTEXT
 70
     1
  9
$DRAGMODE
 70
     2
  9
$LTSCALE
 40
1.0
  9
$OSMODE
 70
    33
  9
$ATTMODE
 70
     1
  9
$TEXTSIZE
 40
0.2
  9
$TRACEWID
 40
0.05
  9
$TEXTSTYLE
  7
STANDARD
  9
$CLAYER
  8
0
  9
$CELTYPE
  6
BYLAYER
  9
$CECOLOR
 62
   256
  9
$CELTSCALE
 40
1.0
  9
$DELOBJ
 70
     1
  9
$DISPSILH
 70
     0
  9
$DIMSCALE
 40
1.0
  9
$DIMASZ
 40
0.18
  9
$DIMEXO
 40
0.0625
  9
$DIMDLI
 40
0.38
  9
$DIMRND
 40
0.0
  9
$DIMDLE
 40
0.0
  9
$DIMEXE
 40
0.18
  9
$DIMTP
 40
0.0
  9
$DIMTM
 40
0.0
  9
$DIMTXT
 40
0.1
  9
$DIMCEN
 40
0.09
  9
$DIMTSZ
 40
0.0
  9
$DIMTOL
 70
     0
  9
$DIMLIM
 70
     0
  9
$DIMTIH
 70
     1
  9
$DIMTOH
 70
     1
  9
$DIMSE1
 70
     0
  9
$DIMSE2
 70
     0
  9
$DIMTAD
 70
     0
  9
$DIMZIN
 70
     0
  9
$DIMBLK
  1

  9
$DIMASO
 70
     1
  9
$DIMSHO
 70
     1
  9
$DIMPOST
  1

  9
$DIMAPOST
  1

  9
$DIMALT
 70
     0
  9
$DIMALTD
 70
     2
  9
$DIMALTF
 40
25.4
  9
$DIMLFAC
 40
1.0
  9
$DIMTOFL
 70
     0
  9
$DIMTVP
 40
0.0
  9
$DIMTIX
 70
     0
  9
$DIMSOXD
 70
     0
  9
$DIMSAH
 70
     0
  9
$DIMBLK1
  1

  9
$DIMBLK2
  1

  9
$DIMSTYLE
  2
STANDARD
  9
$DIMCLRD
 70
     0
  9
$DIMCLRE
 70
     0
  9
$DIMCLRT
 70
     0
  9
$DIMTFAC
 40
1.0
  9
$DIMGAP
 40
0.09
  9
$DIMJUST
 70
     0
  9
$DIMSD1
 70
     0
  9
$DIMSD2
 70
     0
  9
$DIMTOLJ
 70
     1
  9
$DIMTZIN
 70
     0
  9
$DIMALTZ
 70
     0
  9
$DIMALTTZ
 70
     0
  9
$DIMFIT
 70
     3
  9
$DIMUPT
 70
     0
  9
$DIMUNIT
 70
     2
  9
$DIMDEC
 70
     2
  9
$DIMTDEC
 70
     4
  9
$DIMALTU
 70
     2
  9
$DIMALTTD
 70
     2
  9
$DIMTXSTY
  7
STANDARD
  9
$DIMAUNIT
 70
     0
  9
$LUNITS
 70
     2
  9
$LUPREC
 70
     2
  9
$SKETCHINC
 40
0.1
  9
$FILLETRAD
 40
0.0
  9
$AUNITS
 70
     0
  9
$AUPREC
 70
     0
  9
$MENU
  1
acad
  9
$ELEVATION
 40
0.0
  9
$PELEVATION
 40
0.0
  9
$THICKNESS
 40
0.0
  9
$LIMCHECK
 70
     0
  9
$BLIPMODE
 70
     1
  9
$CHAMFERA
 40
0.0
  9
$CHAMFERB
 40
0.0
  9
$CHAMFERC
 40
0.0
  9
$CHAMFERD
 40
0.0
  9
$SKPOLY
 70
     0
  9
$TDCREATE
 40
2448315.373408102
  9
$TDUPDATE
 40
2448315.373408102
  9
$TDINDWG
 40
0.0000000000
  9
$TDUSRTIMER
 40
0.0000000000
  9
$USRTIMER
 70
     1
  9
$ANGBASE
 50
0.0
  9
$ANGDIR
 70
     0
  9
$PDMODE
 70
     0
  9
$PDSIZE
 40
0.0
  9
$PLINEWID
 40
0.0
  9
$COORDS
 70
     0
  9
$SPLFRAME
 70
     0
  9
$SPLINETYPE
 70
     6
  9
$SPLINESEGS
 70
     8
  9
$ATTDIA
 70
     0
  9
$ATTREQ
 70
     1
  9
$HANDLING
 70
     1
  9
$HANDSEED
  5
1A6
  9
$SURFTAB1
 70
     6
  9
$SURFTAB2
 70
     6
  9
$SURFTYPE
 70
     6
  9
$SURFU
 70
     6
  9
$SURFV
 70
     6
  9
$UCSNAME
  2

  9
$UCSORG
 10
0.0
 20
0.0
 30
0.0
  9
$UCSXDIR
 10
1.0
 20
0.0
 30
0.0
  9
$UCSYDIR
 10
0.0
 20
1.0
 30
0.0
  9
$PUCSNAME
  2

  9
$PUCSORG
 10
0.0
 20
0.0
 30
0.0
  9
$PUCSXDIR
 10
1.0
 20
0.0
 30
0.0
  9
$PUCSYDIR
 10
0.0
 20
1.0
 30
0.0
  9
$USERI1
 70
     0
  9
$USERI2
 70
     0
  9
$USERI3
 70
     0
  9
$USERI4
 70
     0
  9
$USERI5
 70
     0
  9
$USERR1
 40
0.0
  9
$USERR2
 40
0.0
  9
$USERR3
 40
0.0
  9
$USERR4
 40
0.0
  9
$USERR5
 40
0.0
  9
$WORLDVIEW
 70
     1
  9
$SHADEDGE
 70
     3
  9
$SHADEDIF
 70
    70
  9
$TILEMODE
 70
     1
  9
$MAXACTVP
 70
    16
  9
$PINSBASE
 10
0.0
 20
0.0
 30
0.0
  9
$PLIMCHECK
 70
     0
  9
$PEXTMIN
 10
1.000000E+20
 20
1.000000E+20
 30
1.000000E+20
  9
$PEXTMAX
 10
-1.000000E+20
 20
-1.000000E+20
 30
-1.000000E+20
  9
$PLIMMIN
 10
0.0
 20
0.0
  9
$PLIMMAX
 10
12.0
 20
9.0
  9
$UNITMODE
 70
     0
  9
$VISRETAIN
 70
     0
  9
$PLINEGEN
 70
     0
  9
$PSLTSCALE
 70
     1
  9
$TREEDEPTH
 70
  3020
  9
$PICKSTYLE
 70
     1
  9
$CMLSTYLE
  2
STANDARD
  9
$CMLJUST
 70
     0
  9
$CMLSCALE
 40
1.0
  9
$PROXYGRAPHICS
 70
     1
  9
$MEASUREMENT
 70
     0
  0
ENDSEC
  0
SECTION
  2
CLASSES
  0
CLASS
  1
LWPOLYLINE
  2
AcDbPolyline
  3
"AutoCAD"
 90
        0
280
     0
281
     1
  0
ENDSEC
  0
SECTION
  2
TABLES
  0
TABLE
  2
VPORT
  5
8
100
AcDbSymbolTable
 70
     5
  0
VPORT
  5
1A5
100
AcDbSymbolTableRecord
100
AcDbViewportTableRecord
  2
*ACTIVE
 70
     0
 10
0.0
 20
0.0
 11
1.0
 21
1.0
 12
286.646
 22
37.322029
 13
0.0
 23
0.0
 14
1.0
 24
1.0
 15
0.0
 25
0.0
 16
0.0
 26
0.0
 36
1.0
 17
0.0
 27
0.0
 37
0.0
 40
14.94202
 41
1.527124
 42
50.0
 43
0.0
 44
0.0
 50
0.0
 51
0.0
 71
     0
 72
   100
 73
     1
 74
     1
 75
     0
 76
     0
 77
     0
 78
     0
  0
ENDTAB
  0
TABLE
  2
LTYPE
  5
5
100
AcDbSymbolTable
 70
     1
  0
LTYPE
  5
12
100
AcDbSymbolTableRecord
100
AcDbLinetypeTableRecord
  2
BYBLOCK
 70
     0
  3

 72
    65
 73
     0
 40
0.0
  0
LTYPE
  5
13
100
AcDbSymbolTableRecord
100
AcDbLinetypeTableRecord
  2
BYLAYER
 70
     0
  3

 72
    65
 73
     0
 40
0.0
  0
LTYPE
  5
14
100
AcDbSymbolTableRecord
100
AcDbLinetypeTableRecord
  2
CONTINUOUS
 70
     0
  3
Solid line
 72
    65
 73
     0
 40
0.0
  0
ENDTAB
  0
TABLE
  2
LAYER
  5
2
100
AcDbSymbolTable
 70
     8
  0
LAYER
  5
E
100
AcDbSymbolTableRecord
100
AcDbLayerTableRecord
  2
0
 70
     0
 62
     7
  6
CONTINUOUS
  0
LAYER
  5
1F
100
AcDbSymbolTableRecord
100
AcDbLayerTableRecord
  2
1
 70
     0
 62
     7
  6
CONTINUOUS
  0
LAYER
  5
20
100
AcDbSymbolTableRecord
100
AcDbLayerTableRecord
  2
7
 70
     0
 62
     7
  6
CONTINUOUS
  0
LAYER
  5
21
100
AcDbSymbolTableRecord
100
AcDbLayerTableRecord
  2
8
 70
     0
 62
     7
  6
CONTINUOUS
  0
LAYER
  5
22
100
AcDbSymbolTableRecord
100
AcDbLayerTableRecord
  2
9
 70
     0
 62
     7
  6
CONTINUOUS
  0
LAYER
  5
23
100
AcDbSymbolTableRecord
100
AcDbLayerTableRecord
  2
22
 70
     0
 62
     7
  6
CONTINUOUS
  0
LAYER
  5
24
100
AcDbSymbolTableRecord
100
AcDbLayerTableRecord
  2
25
 70
     0
 62
     7
  6
CONTINUOUS
  0
LAYER
  5
77
100
AcDbSymbolTableRecord
100
AcDbLayerTableRecord
  2
DEFPOINTS
 70
     0
 62
     7
  6
CONTINUOUS
  0
ENDTAB
  0
TABLE
  2
STYLE
  5
3
100
AcDbSymbolTable
 70
     2
  0
STYLE
  5
F
100
AcDbSymbolTableRecord
100
AcDbTextStyleTableRecord
  2
STANDARD
 70
     0
 40
0.0
 41
1.0
 50
0.0
 71
     0
 42
0.2
  3
txt
  4

  0
STYLE
  5
25
100
AcDbSymbolTableRecord
100
AcDbTextStyleTableRecord
  2
ROMANC
 70
     0
 40
0.0
 41
1.0
 50
0.0
 71
     0
 42
0.2
  3
ROMANC
  4

  0
ENDTAB
  0
TABLE
  2
VIEW
  5
6
100
AcDbSymbolTable
 70
     0
  0
ENDTAB
  0
TABLE
  2
UCS
  5
7
100
AcDbSymbolTable
 70
     0
  0
ENDTAB
  0
TABLE
  2
APPID
  5
9
100
AcDbSymbolTable
 70
     1
  0
APPID
  5
10
100
AcDbSymbolTableRecord
100
AcDbRegAppTableRecord
  2
ACAD
 70
     0
  0
ENDTAB
  0
TABLE
  2
DIMSTYLE
  5
A
100
AcDbSymbolTable
 70
     1
  0
DIMSTYLE
105
4C
100
AcDbSymbolTableRecord
100
AcDbDimStyleTableRecord
  2
STANDARD
 70
     0
  3

  4

  5

  6

  7

 40
1.0
 41
0.18
 42
0.0625
 43
0.38
 44
0.18
 45
0.0
 46
0.0
 47
0.0
 48
0.0
140
0.18
141
0.09
142
0.0
143
25.4
144
1.0
145
0.0
146
1.0
147
0.09
 71
     0
 72
     0
 73
     1
 74
     1
 75
     0
 76
     0
 77
     0
 78
     0
170
     0
171
     2
172
     0
173
     0
174
     0
175
     0
176
     0
177
     0
178
     0
270
     2
271
     4
272
     4
273
     2
274
     2
340
F
275
     0
280
     0
281
     0
282
     0
283
     1
284
     0
285
     0
286
     0
287
     3
288
     0
  0
ENDTAB
  0
TABLE
  2
BLOCK_RECORD
  5
1
100
AcDbSymbolTable
 70
    14
  0
BLOCK_RECORD
  5
18
100
AcDbSymbolTableRecord
100
AcDbBlockTableRecord
  2
*MODEL_SPACE
  0
BLOCK_RECORD
  5
15
100
AcDbSymbolTableRecord
100
AcDbBlockTableRecord
  2
*PAPER_SPACE
  0
BLOCK_RECORD
  5
6E
100
AcDbSymbolTableRecord
100
AcDbBlockTableRecord
  2
*D0
  0
BLOCK_RECORD
  5
7D
100
AcDbSymbolTableRecord
100
AcDbBlockTableRecord
  2
*D1
  0
BLOCK_RECORD
  5
8B
100
AcDbSymbolTableRecord
100
AcDbBlockTableRecord
  2
*D2
  0
BLOCK_RECORD
  5
99
100
AcDbSymbolTableRecord
100
AcDbBlockTableRecord
  2
*D3
  0
BLOCK_RECORD
  5
A7
100
AcDbSymbolTableRecord
100
AcDbBlockTableRecord
  2
*D4
  0
BLOCK_RECORD
  5
B5
100
AcDbSymbolTableRecord
100
AcDbBlockTableRecord
  2
*D5
  0
BLOCK_RECORD
  5
C3
100
AcDbSymbolTableRecord
100
AcDbBlockTableRecord
  2
*D6
  0
BLOCK_RECORD
  5
D2
100
AcDbSymbolTableRecord
100
AcDbBlockTableRecord
  2
*D7
  0
BLOCK_RECORD
  5
E1
100
AcDbSymbolTableRecord
100
AcDbBlockTableRecord
  2
*D8
  0
BLOCK_RECORD
  5
EF
100
AcDbSymbolTableRecord
100
AcDbBlockTableRecord
  2
*D9
  0
BLOCK_RECORD
  5
142
100
AcDbSymbolTableRecord
100
AcDbBlockTableRecord
  2
*D10
  0
BLOCK_RECORD
  5
150
100
AcDbSymbolTableRecord
100
AcDbBlockTableRecord
  2
*D11
  0
BLOCK_RECORD
  5
15E
100
AcDbSymbolTableRecord
100
AcDbBlockTableRecord
  2
*D12
  0
BLOCK_RECORD
  5
16C
100
AcDbSymbolTableRecord
100
AcDbBlockTableRecord
  2
*D13
  0
ENDTAB
  0
ENDSEC
  0
SECTION
  2
BLOCKS
  0
BLOCK
  5
19
100
AcDbEntity
  8
0
100
AcDbBlockBegin
  2
*MODEL_SPACE
 70
     0
 10
0.0
 20
0.0
 30
0.0
  3
*MODEL_SPACE
  1

  0
ENDBLK
  5
1A
100
AcDbEntity
  8
0
100
AcDbBlockEnd
  0
BLOCK
  5
16
100
AcDbEntity
 67
     1
  8
0
100
AcDbBlockBegin
  2
*PAPER_SPACE
 70
     0
 10
0.0
 20
0.0
 30
0.0
  3
*PAPER_SPACE
  1

  0
ENDBLK
  5
17
100
AcDbEntity
 67
     1
  8
0
100
AcDbBlockEnd
  0
BLOCK
  5
6F
100
AcDbEntity
  8
0
100
AcDbBlockBegin
  2
*D0
 70
     1
 10
0.0
 20
0.0
 30
0.0
  3
*D0
  1

  0
LINE
  5
70
100
AcDbEntity
  8
0
  6
BYBLOCK
 62
     0
100
AcDbLine
 10
285.830917
 20
34.622147
 30
0.0
 11
285.830917
 21
34.248003
 31
0.0
  0
LINE
  5
71
100
AcDbEntity
  8
0
  6
BYBLOCK
 62
     0
100
AcDbLine
 10
286.830917
 20
34.622147
 30
0.0
 11
286.830917
 21
34.248003
 31
0.0
  0
LINE
  5
72
100
AcDbEntity
  8
0
  6
BYBLOCK
 62
     0
100
AcDbLine
 10
285.650917
 20
34.428003
 30
0.0
 11
285.470917
 21
34.428003
 31
0.0
  0
LINE
  5
73
100
AcDbEntity
  8
0
  6
BYBLOCK
 62
     0
100
AcDbLine
 10
287.010917
 20
34.428003
 30
0.0
 11
287.190917
 21
34.428003
 31
0.0
  0
SOLID
  5
74
100
AcDbEntity
  8
0
  6
BYBLOCK
 62
     0
100
AcDbTrace
 10
285.650917
 20
34.458003
 30
0.0
 11
285.650917
 21
34.398003
 31
0.0
 12
285.830917
 22
34.428003
 32
0.0
 13
285.830917
 23
34.428003
 33
0.0
  0
SOLID
  5
75
100
AcDbEntity
  8
0
  6
BYBLOCK
 62
     0
100
AcDbTrace
 10
287.010917
 20
34.458003
 30
0.0
 11
287.010917
 21
34.398003
 31
0.0
 12
286.830917
 22
34.428003
 32
0.0
 13
286.830917
 23
34.428003
 33
0.0
  0
MTEXT
  5
76
100
AcDbEntity
  8
0
  6
BYBLOCK
 62
     0
100
AcDbMText
 10
286.330917
 20
34.428003
 30
0.0
 40
0.1
 41
0.0
 71
     5
 72
     1
  1
\A1;1.0000
  0
POINT
  5
78
100
AcDbEntity
  8
DEFPOINTS
  6
BYBLOCK
 62
     0
100
AcDbPoint
 10
285.830917
 20
34.684647
 30
0.0
  0
POINT
  5
79
100
AcDbEntity
  8
DEFPOINTS
  6
BYBLOCK
 62
     0
100
AcDbPoint
 10
286.830917
 20
34.684647
 30
0.0
  0
POINT
  5
7A
100
AcDbEntity
  8
DEFPOINTS
  6
BYBLOCK
 62
     0
100
AcDbPoint
 10
286.830917
 20
34.428003
 30
0.0
  0
ENDBLK
  5
7B
100
AcDbEntity
  8
0
100
AcDbBlockEnd
  0
BLOCK
  5
7E
100
AcDbEntity
  8
0
100
AcDbBlockBegin
  2
*D1
 70
     1
 10
0.0
 20
0.0
 30
0.0
  3
*D1
  1

  0
LINE
  5
7F
100
AcDbEntity
  8
0
  6
BYBLOCK
 62
     0
100
AcDbLine
 10
285.830917
 20
34.622147
 30
0.0
 11
285.830917
 21
34.476647
 31
0.0
  0
LINE
  5
80
100
AcDbEntity
  8
0
  6
BYBLOCK
 62
     0
100
AcDbLine
 10
286.830917
 20
34.622147
 30
0.0
 11
286.830917
 21
34.476647
 31
0.0
  0
LINE
  5
81
100
AcDbEntity
  8
0
  6
BYBLOCK
 62
     0
100
AcDbLine
 10
286.010917
 20
34.656647
 30
0.0
 11
286.140917
 21
34.656647
 31
0.0
  0
LINE
  5
82
100
AcDbEntity
  8
0
  6
BYBLOCK
 62
     0
100
AcDbLine
 10
286.650917
 20
34.656647
 30
0.0
 11
286.520917
 21
34.656647
 31
0.0
  0
SOLID
  5
83
100
AcDbEntity
  8
0
  6
BYBLOCK
 62
     0
100
AcDbTrace
 10
286.010917
 20
34.686647
 30
0.0
 11
286.010917
 21
34.626647
 31
0.0
 12
285.830917
 22
34.656647
 32
0.0
 13
285.830917
 23
34.656647
 33
0.0
  0
SOLID
  5
84
100
AcDbEntity
  8
0
  6
BYBLOCK
 62
     0
100
AcDbTrace
 10
286.650917
 20
34.686647
 30
0.0
 11
286.650917
 21
34.626647
 31
0.0
 12
286.830917
 22
34.656647
 32
0.0
 13
286.830917
 23
34.656647
 33
0.0
  0
MTEXT
  5
85
100
AcDbEntity
  8
0
  6
BYBLOCK
 62
     0
100
AcDbMText
 10
286.330917
 20
34.656647
 30
0.0
 40
0.05
 41
0.0
 71
     5
 72
     1
  1
\A1;1.0000
  0
POINT
  5
86
100
AcDbEntity
  8
DEFPOINTS
  6
BYBLOCK
 62
     0
100
AcDbPoint
 10
285.830917
 20
34.684647
 30
0.0
  0
POINT
  5
87
100
AcDbEntity
  8
DEFPOINTS
  6
BYBLOCK
 62
     0
100
AcDbPoint
 10
286.830917
 20
34.684647
 30
0.0
  0
POINT
  5
88
100
AcDbEntity
  8
DEFPOINTS
  6
BYBLOCK
 62
     0
100
AcDbPoint
 10
286.830917
 20
34.656647
 30
0.0
  0
ENDBLK
  5
89
100
AcDbEntity
  8
0
100
AcDbBlockEnd
  0
BLOCK
  5
8C
100
AcDbEntity
  8
0
100
AcDbBlockBegin
  2
*D2
 70
     1
 10
0.0
 20
0.0
 30
0.0
  3
*D2
  1

  0
LINE
  5
8D
100
AcDbEntity
  8
0
  6
BYBLOCK
 62
     0
100
AcDbLine
 10
285.830917
 20
34.622147
 30
0.0
 11
285.830917
 21
34.153039
 31
0.0
  0
LINE
  5
8E
100
AcDbEntity
  8
0
  6
BYBLOCK
 62
     0
100
AcDbLine
 10
286.830917
 20
34.622147
 30
0.0
 11
286.830917
 21
34.153039
 31
0.0
  0
LINE
  5
8F
100
AcDbEntity
  8
0
  6
BYBLOCK
 62
     0
100
AcDbLine
 10
286.010917
 20
34.333039
 30
0.0
 11
286.140917
 21
34.333039
 31
0.0
  0
LINE
  5
90
100
AcDbEntity
  8
0
  6
BYBLOCK
 62
     0
100
AcDbLine
 10
286.650917
 20
34.333039
 30
0.0
 11
286.520917
 21
34.333039
 31
0.0
  0
SOLID
  5
91
100
AcDbEntity
  8
0
  6
BYBLOCK
 62
     0
100
AcDbTrace
 10
286.010917
 20
34.363039
 30
0.0
 11
286.010917
 21
34.303039
 31
0.0
 12
285.830917
 22
34.333039
 32
0.0
 13
285.830917
 23
34.333039
 33
0.0
  0
SOLID
  5
92
100
AcDbEntity
  8
0
  6
BYBLOCK
 62
     0
100
AcDbTrace
 10
286.650917
 20
34.363039
 30
0.0
 11
286.650917
 21
34.303039
 31
0.0
 12
286.830917
 22
34.333039
 32
0.0
 13
286.830917
 23
34.333039
 33
0.0
  0
MTEXT
  5
93
100
AcDbEntity
  8
0
  6
BYBLOCK
 62
     0
100
AcDbMText
 10
286.330917
 20
34.333039
 30
0.0
 40
0.05
 41
0.0
 71
     5
 72
     1
  1
\A1;1.0000
  0
POINT
  5
94
100
AcDbEntity
  8
DEFPOINTS
  6
BYBLOCK
 62
     0
100
AcDbPoint
 10
285.830917
 20
34.684647
 30
0.0
  0
POINT
  5
95
100
AcDbEntity
  8
DEFPOINTS
  6
BYBLOCK
 62
     0
100
AcDbPoint
 10
286.830917
 20
34.684647
 30
0.0
  0
POINT
  5
96
100
AcDbEntity
  8
DEFPOINTS
  6
BYBLOCK
 62
     0
100
AcDbPoint
 10
286.830917
 20
34.333039
 30
0.0
  0
ENDBLK
  5
97
100
AcDbEntity
  8
0
100
AcDbBlockEnd
  0
BLOCK
  5
9A
100
AcDbEntity
  8
0
100
AcDbBlockBegin
  2
*D3
 70
     1
 10
0.0
 20
0.0
 30
0.0
  3
*D3
  1

  0
LINE
  5
9B
100
AcDbEntity
  8
0
  6
BYBLOCK
 62
     0
100
AcDbLine
 10
285.830917
 20
34.622147
 30
0.0
 11
285.830917
 21
33.988603
 31
0.0
  0
LINE
  5
9C
100
AcDbEntity
  8
0
  6
BYBLOCK
 62
     0
100
AcDbLine
 10
286.830917
 20
34.622147
 30
0.0
 11
286.830917
 21
33.988603
 31
0.0
  0
LINE
  5
9D
100
AcDbEntity
  8
0
  6
BYBLOCK
 62
     0
100
AcDbLine
 10
286.010917
 20
34.168603
 30
0.0
 11
286.182583
 21
34.168603
 31
0.0
  0
LINE
  5
9E
100
AcDbEntity
  8
0
  6
BYBLOCK
 62
     0
100
AcDbLine
 10
286.650917
 20
34.168603
 30
0.0
 11
286.47925
 21
34.168603
 31
0.0
  0
SOLID
  5
9F
100
AcDbEntity
  8
0
  6
BYBLOCK
 62
     0
100
AcDbTrace
 10
286.010917
 20
34.198603
 30
0.0
 11
286.010917
 21
34.138603
 31
0.0
 12
285.830917
 22
34.168603
 32
0.0
 13
285.830917
 23
34.168603
 33
0.0
  0
SOLID
  5
A0
100
AcDbEntity
  8
0
  6
BYBLOCK
 62
     0
100
AcDbTrace
 10
286.650917
 20
34.198603
 30
0.0
 11
286.650917
 21
34.138603
 31
0.0
 12
286.830917
 22
34.168603
 32
0.0
 13
286.830917
 23
34.168603
 33
0.0
  0
MTEXT
  5
A1
100
AcDbEntity
  8
0
  6
BYBLOCK
 62
     0
100
AcDbMText
 10
286.330917
 20
34.168603
 30
0.0
 40
0.05
 41
0.0
 71
     5
 72
     1
  1
\A1;1.00
  0
POINT
  5
A2
100
AcDbEntity
  8
DEFPOINTS
  6
BYBLOCK
 62
     0
100
AcDbPoint
 10
285.830917
 20
34.684647
 30
0.0
  0
POINT
  5
A3
100
AcDbEntity
  8
DEFPOINTS
  6
BYBLOCK
 62
     0
100
AcDbPoint
 10
286.830917
 20
34.684647
 30
0.0
  0
POINT
  5
A4
100
AcDbEntity
  8
DEFPOINTS
  6
BYBLOCK
 62
     0
100
AcDbPoint
 10
286.830917
 20
34.168603
 30
0.0
  0
ENDBLK
  5
A5
100
AcDbEntity
  8
0
100
AcDbBlockEnd
  0
BLOCK
  5
A8
100
AcDbEntity
  8
0
100
AcDbBlockBegin
  2
*D4
 70
     1
 10
0.0
 20
0.0
 30
0.0
  3
*D4
  1

  0
LINE
  5
A9
100
AcDbEntity
  8
0
  6
BYBLOCK
 62
     0
100
AcDbLine
 10
285.830917
 20
34.622147
 30
0.0
 11
285.830917
 21
34.034334
 31
0.0
  0
LINE
  5
AA
100
AcDbEntity
  8
0
  6
BYBLOCK
 62
     0
100
AcDbLine
 10
286.830917
 20
34.622147
 30
0.0
 11
286.830917
 21
34.034334
 31
0.0
  0
LINE
  5
AB
100
AcDbEntity
  8
0
  6
BYBLOCK
 62
     0
100
AcDbLine
 10
286.010917
 20
34.214334
 30
0.0
 11
286.182583
 21
34.214334
 31
0.0
  0
LINE
  5
AC
100
AcDbEntity
  8
0
  6
BYBLOCK
 62
     0
100
AcDbLine
 10
286.650917
 20
34.214334
 30
0.0
 11
286.47925
 21
34.214334
 31
0.0
  0
SOLID
  5
AD
100
AcDbEntity
  8
0
  6
BYBLOCK
 62
     0
100
AcDbTrace
 10
286.010917
 20
34.244334
 30
0.0
 11
286.010917
 21
34.184334
 31
0.0
 12
285.830917
 22
34.214334
 32
0.0
 13
285.830917
 23
34.214334
 33
0.0
  0
SOLID
  5
AE
100
AcDbEntity
  8
0
  6
BYBLOCK
 62
     0
100
AcDbTrace
 10
286.650917
 20
34.244334
 30
0.0
 11
286.650917
 21
34.184334
 31
0.0
 12
286.830917
 22
34.214334
 32
0.0
 13
286.830917
 23
34.214334
 33
0.0
  0
MTEXT
  5
AF
100
AcDbEntity
  8
0
  6
BYBLOCK
 62
     0
100
AcDbMText
 10
286.330917
 20
34.214334
 30
0.0
 40
0.05
 41
0.0
 71
     5
 72
     1
  1
\A1;1.00
  0
POINT
  5
B0
100
AcDbEntity
  8
DEFPOINTS
  6
BYBLOCK
 62
     0
100
AcDbPoint
 10
285.830917
 20
34.684647
 30
0.0
  0
POINT
  5
B1
100
AcDbEntity
  8
DEFPOINTS
  6
BYBLOCK
 62
     0
100
AcDbPoint
 10
286.830917
 20
34.684647
 30
0.0
  0
POINT
  5
B2
100
AcDbEntity
  8
DEFPOINTS
  6
BYBLOCK
 62
     0
100
AcDbPoint
 10
286.830917
 20
34.214334
 30
0.0
  0
ENDBLK
  5
B3
100
AcDbEntity
  8
0
100
AcDbBlockEnd
  0
BLOCK
  5
B6
100
AcDbEntity
  8
0
100
AcDbBlockBegin
  2
*D5
 70
     1
 10
0.0
 20
0.0
 30
0.0
  3
*D5
  1

  0
LINE
  5
B7
100
AcDbEntity
  8
0
  6
BYBLOCK
 62
     0
100
AcDbLine
 10
286.893417
 20
36.684647
 30
0.0
 11
287.543841
 21
36.684647
 31
0.0
  0
LINE
  5
B8
100
AcDbEntity
  8
0
  6
BYBLOCK
 62
     0
100
AcDbLine
 10
286.493417
 20
34.584647
 30
0.0
 11
287.543841
 21
34.584647
 31
0.0
  0
LINE
  5
B9
100
AcDbEntity
  8
0
  6
BYBLOCK
 62
     0
100
AcDbLine
 10
287.363841
 20
36.504647
 30
0.0
 11
287.363841
 21
35.749647
 31
0.0
  0
LINE
  5
BA
100
AcDbEntity
  8
0
  6
BYBLOCK
 62
     0
100
AcDbLine
 10
287.363841
 20
34.764647
 30
0.0
 11
287.363841
 21
35.519647
 31
0.0
  0
SOLID
  5
BB
100
AcDbEntity
  8
0
  6
BYBLOCK
 62
     0
100
AcDbTrace
 10
287.333841
 20
36.504647
 30
0.0
 11
287.393841
 21
36.504647
 31
0.0
 12
287.363841
 22
36.684647
 32
0.0
 13
287.363841
 23
36.684647
 33
0.0
  0
SOLID
  5
BC
100
AcDbEntity
  8
0
  6
BYBLOCK
 62
     0
100
AcDbTrace
 10
287.333841
 20
34.764647
 30
0.0
 11
287.393841
 21
34.764647
 31
0.0
 12
287.363841
 22
34.584647
 32
0.0
 13
287.363841
 23
34.584647
 33
0.0
  0
MTEXT
  5
BD
100
AcDbEntity
  8
0
  6
BYBLOCK
 62
     0
100
AcDbMText
 10
287.363841
 20
35.634647
 30
0.0
 40
0.05
 41
0.0
 71
     5
 72
     1
  1
\A1;2.10
  0
POINT
  5
BE
100
AcDbEntity
  8
DEFPOINTS
  6
BYBLOCK
 62
     0
100
AcDbPoint
 10
286.830917
 20
36.684647
 30
0.0
  0
POINT
  5
BF
100
AcDbEntity
  8
DEFPOINTS
  6
BYBLOCK
 62
     0
100
AcDbPoint
 10
286.430917
 20
34.584647
 30
0.0
  0
POINT
  5
C0
100
AcDbEntity
  8
DEFPOINTS
  6
BYBLOCK
 62
     0
100
AcDbPoint
 10
287.363841
 20
34.584647
 30
0.0
  0
ENDBLK
  5
C1
100
AcDbEntity
  8
0
100
AcDbBlockEnd
  0
BLOCK
  5
C4
100
AcDbEntity
  8
0
100
AcDbBlockBegin
  2
*D6
 70
     1
 10
0.0
 20
0.0
 30
0.0
  3
*D6
  1

  0
LINE
  5
C5
100
AcDbEntity
  8
0
  6
BYBLOCK
 62
     0
100
AcDbLine
 10
286.893417
 20
34.684647
 30
0.0
 11
287.242786
 21
34.684647
 31
0.0
  0
LINE
  5
C6
100
AcDbEntity
  8
0
  6
BYBLOCK
 62
     0
100
AcDbLine
 10
286.555917
 20
34.584647
 30
0.0
 11
287.242786
 21
34.584647
 31
0.0
  0
LINE
  5
C7
100
AcDbEntity
  8
0
  6
BYBLOCK
 62
     0
100
AcDbLine
 10
287.062786
 20
34.864647
 30
0.0
 11
287.062786
 21
35.044647
 31
0.0
  0
LINE
  5
C8
100
AcDbEntity
  8
0
  6
BYBLOCK
 62
     0
100
AcDbLine
 10
287.062786
 20
34.404647
 30
0.0
 11
287.062786
 21
34.224647
 31
0.0
  0
LINE
  5
C9
100
AcDbEntity
  8
0
  6
BYBLOCK
 62
     0
100
AcDbLine
 10
287.062786
 20
34.224647
 30
0.0
 11
286.882786
 21
34.224647
 31
0.0
  0
SOLID
  5
CA
100
AcDbEntity
  8
0
  6
BYBLOCK
 62
     0
100
AcDbTrace
 10
287.032786
 20
34.864647
 30
0.0
 11
287.092786
 21
34.864647
 31
0.0
 12
287.062786
 22
34.684647
 32
0.0
 13
287.062786
 23
34.684647
 33
0.0
  0
SOLID
  5
CB
100
AcDbEntity
  8
0
  6
BYBLOCK
 62
     0
100
AcDbTrace
 10
287.032786
 20
34.404647
 30
0.0
 11
287.092786
 21
34.404647
 31
0.0
 12
287.062786
 22
34.584647
 32
0.0
 13
287.062786
 23
34.584647
 33
0.0
  0
MTEXT
  5
CC
100
AcDbEntity
  8
0
  6
BYBLOCK
 62
     0
100
AcDbMText
 10
286.734453
 20
34.224647
 30
0.0
 40
0.05
 41
0.0
 71
     5
 72
     1
  1
\A1;0.10
  0
POINT
  5
CD
100
AcDbEntity
  8
DEFPOINTS
  6
BYBLOCK
 62
     0
100
AcDbPoint
 10
286.830917
 20
34.684647
 30
0.0
  0
POINT
  5
CE
100
AcDbEntity
  8
DEFPOINTS
  6
BYBLOCK
 62
     0
100
AcDbPoint
 10
286.493417
 20
34.584647
 30
0.0
  0
POINT
  5
CF
100
AcDbEntity
  8
DEFPOINTS
  6
BYBLOCK
 62
     0
100
AcDbPoint
 10
287.062786
 20
34.584647
 30
0.0
  0
ENDBLK
  5
D0
100
AcDbEntity
  8
0
100
AcDbBlockEnd
  0
BLOCK
  5
D3
100
AcDbEntity
  8
0
100
AcDbBlockBegin
  2
*D7
 70
     1
 10
0.0
 20
0.0
 30
0.0
  3
*D7
  1

  0
LINE
  5
D4
100
AcDbEntity
  8
0
  6
BYBLOCK
 62
     0
100
AcDbLine
 10
286.893417
 20
34.584647
 30
0.0
 11
287.110556
 21
34.584647
 31
0.0
  0
LINE
  5
D5
100
AcDbEntity
  8
0
  6
BYBLOCK
 62
     0
100
AcDbLine
 10
286.893417
 20
34.684647
 30
0.0
 11
287.110556
 21
34.684647
 31
0.0
  0
LINE
  5
D6
100
AcDbEntity
  8
0
  6
BYBLOCK
 62
     0
100
AcDbLine
 10
286.930556
 20
34.404647
 30
0.0
 11
286.930556
 21
34.224647
 31
0.0
  0
LINE
  5
D7
100
AcDbEntity
  8
0
  6
BYBLOCK
 62
     0
100
AcDbLine
 10
286.930556
 20
34.864647
 30
0.0
 11
286.930556
 21
35.044647
 31
0.0
  0
LINE
  5
D8
100
AcDbEntity
  8
0
  6
BYBLOCK
 62
     0
100
AcDbLine
 10
286.930556
 20
35.044647
 30
0.0
 11
287.110556
 21
35.044647
 31
0.0
  0
SOLID
  5
D9
100
AcDbEntity
  8
0
  6
BYBLOCK
 62
     0
100
AcDbTrace
 10
286.900556
 20
34.404647
 30
0.0
 11
286.960556
 21
34.404647
 31
0.0
 12
286.930556
 22
34.584647
 32
0.0
 13
286.930556
 23
34.584647
 33
0.0
  0
SOLID
  5
DA
100
AcDbEntity
  8
0
  6
BYBLOCK
 62
     0
100
AcDbTrace
 10
286.900556
 20
34.864647
 30
0.0
 11
286.960556
 21
34.864647
 31
0.0
 12
286.930556
 22
34.684647
 32
0.0
 13
286.930556
 23
34.684647
 33
0.0
  0
MTEXT
  5
DB
100
AcDbEntity
  8
0
  6
BYBLOCK
 62
     0
100
AcDbMText
 10
287.25889
 20
35.044647
 30
0.0
 40
0.05
 41
0.0
 71
     5
 72
     1
  1
\A1;0.10
  0
POINT
  5
DC
100
AcDbEntity
  8
DEFPOINTS
  6
BYBLOCK
 62
     0
100
AcDbPoint
 10
286.830917
 20
34.584647
 30
0.0
  0
POINT
  5
DD
100
AcDbEntity
  8
DEFPOINTS
  6
BYBLOCK
 62
     0
100
AcDbPoint
 10
286.830917
 20
34.684647
 30
0.0
  0
POINT
  5
DE
100
AcDbEntity
  8
DEFPOINTS
  6
BYBLOCK
 62
     0
100
AcDbPoint
 10
286.930556
 20
34.684647
 30
0.0
  0
ENDBLK
  5
DF
100
AcDbEntity
  8
0
100
AcDbBlockEnd
  0
BLOCK
  5
E2
100
AcDbEntity
  8
0
100
AcDbBlockBegin
  2
*D8
 70
     1
 10
0.0
 20
0.0
 30
0.0
  3
*D8
  1

  0
LINE
  5
E3
100
AcDbEntity
  8
0
  6
BYBLOCK
 62
     0
100
AcDbLine
 10
286.230917
 20
34.522147
 30
0.0
 11
286.230917
 21
34.12918
 31
0.0
  0
LINE
  5
E4
100
AcDbEntity
  8
0
  6
BYBLOCK
 62
     0
100
AcDbLine
 10
286.430917
 20
34.522147
 30
0.0
 11
286.430917
 21
34.12918
 31
0.0
  0
LINE
  5
E5
100
AcDbEntity
  8
0
  6
BYBLOCK
 62
     0
100
AcDbLine
 10
286.050917
 20
34.30918
 30
0.0
 11
285.870917
 21
34.30918
 31
0.0
  0
LINE
  5
E6
100
AcDbEntity
  8
0
  6
BYBLOCK
 62
     0
100
AcDbLine
 10
286.610917
 20
34.30918
 30
0.0
 11
286.790917
 21
34.30918
 31
0.0
  0
SOLID
  5
E7
100
AcDbEntity
  8
0
  6
BYBLOCK
 62
     0
100
AcDbTrace
 10
286.050917
 20
34.33918
 30
0.0
 11
286.050917
 21
34.27918
 31
0.0
 12
286.230917
 22
34.30918
 32
0.0
 13
286.230917
 23
34.30918
 33
0.0
  0
SOLID
  5
E8
100
AcDbEntity
  8
0
  6
BYBLOCK
 62
     0
100
AcDbTrace
 10
286.610917
 20
34.33918
 30
0.0
 11
286.610917
 21
34.27918
 31
0.0
 12
286.430917
 22
34.30918
 32
0.0
 13
286.430917
 23
34.30918
 33
0.0
  0
MTEXT
  5
E9
100
AcDbEntity
  8
0
  6
BYBLOCK
 62
     0
100
AcDbMText
 10
286.947583
 20
34.30918
 30
0.0
 40
0.05
 41
0.0
 71
     5
 72
     1
  1
\A1;0.20
  0
POINT
  5
EA
100
AcDbEntity
  8
DEFPOINTS
  6
BYBLOCK
 62
     0
100
AcDbPoint
 10
286.230917
 20
34.584647
 30
0.0
  0
POINT
  5
EB
100
AcDbEntity
  8
DEFPOINTS
  6
BYBLOCK
 62
     0
100
AcDbPoint
 10
286.430917
 20
34.584647
 30
0.0
  0
POINT
  5
EC
100
AcDbEntity
  8
DEFPOINTS
  6
BYBLOCK
 62
     0
100
AcDbPoint
 10
286.430917
 20
34.30918
 30
0.0
  0
ENDBLK
  5
ED
100
AcDbEntity
  8
0
100
AcDbBlockEnd
  0
BLOCK
  5
F0
100
AcDbEntity
  8
0
100
AcDbBlockBegin
  2
*D9
 70
     1
 10
0.0
 20
0.0
 30
0.0
  3
*D9
  1

  0
LINE
  5
F1
100
AcDbEntity
  8
0
  6
BYBLOCK
 62
     0
100
AcDbLine
 10
285.830917
 20
36.747147
 30
0.0
 11
285.830917
 21
37.199561
 31
0.0
  0
LINE
  5
F2
100
AcDbEntity
  8
0
  6
BYBLOCK
 62
     0
100
AcDbLine
 10
286.830917
 20
36.747147
 30
0.0
 11
286.830917
 21
37.199561
 31
0.0
  0
LINE
  5
F3
100
AcDbEntity
  8
0
  6
BYBLOCK
 62
     0
100
AcDbLine
 10
286.010917
 20
37.019561
 30
0.0
 11
286.182583
 21
37.019561
 31
0.0
  0
LINE
  5
F4
100
AcDbEntity
  8
0
  6
BYBLOCK
 62
     0
100
AcDbLine
 10
286.650917
 20
37.019561
 30
0.0
 11
286.47925
 21
37.019561
 31
0.0
  0
SOLID
  5
F5
100
AcDbEntity
  8
0
  6
BYBLOCK
 62
     0
100
AcDbTrace
 10
286.010917
 20
37.049561
 30
0.0
 11
286.010917
 21
36.989561
 31
0.0
 12
285.830917
 22
37.019561
 32
0.0
 13
285.830917
 23
37.019561
 33
0.0
  0
SOLID
  5
F6
100
AcDbEntity
  8
0
  6
BYBLOCK
 62
     0
100
AcDbTrace
 10
286.650917
 20
37.049561
 30
0.0
 11
286.650917
 21
36.989561
 31
0.0
 12
286.830917
 22
37.019561
 32
0.0
 13
286.830917
 23
37.019561
 33
0.0
  0
MTEXT
  5
F7
100
AcDbEntity
  8
0
  6
BYBLOCK
 62
     0
100
AcDbMText
 10
286.330917
 20
37.019561
 30
0.0
 40
0.05
 41
0.0
 71
     5
 72
     1
  1
\A1;1.00
  0
POINT
  5
F8
100
AcDbEntity
  8
DEFPOINTS
  6
BYBLOCK
 62
     0
100
AcDbPoint
 10
285.830917
 20
36.684647
 30
0.0
  0
POINT
  5
F9
100
AcDbEntity
  8
DEFPOINTS
  6
BYBLOCK
 62
     0
100
AcDbPoint
 10
286.830917
 20
36.684647
 30
0.0
  0
POINT
  5
FA
100
AcDbEntity
  8
DEFPOINTS
  6
BYBLOCK
 62
     0
100
AcDbPoint
 10
286.830917
 20
37.019561
 30
0.0
  0
ENDBLK
  5
FB
100
AcDbEntity
  8
0
100
AcDbBlockEnd
  0
BLOCK
  5
143
100
AcDbEntity
  8
0
100
AcDbBlockBegin
  2
*D10
 70
     1
 10
0.0
 20
0.0
 30
0.0
  3
*D10
  1

  0
LINE
  5
144
100
AcDbEntity
  8
0
  6
BYBLOCK
 62
     0
100
AcDbLine
 10
286.955917
 20
36.684647
 30
0.0
 11
288.142494
 21
36.684647
 31
0.0
  0
LINE
  5
145
100
AcDbEntity
  8
0
  6
BYBLOCK
 62
     0
100
AcDbLine
 10
286.993056
 20
34.584647
 30
0.0
 11
288.142494
 21
34.584647
 31
0.0
  0
LINE
  5
146
100
AcDbEntity
  8
0
  6
BYBLOCK
 62
     0
100
AcDbLine
 10
287.962494
 20
36.504647
 30
0.0
 11
287.962494
 21
35.774647
 31
0.0
  0
LINE
  5
147
100
AcDbEntity
  8
0
  6
BYBLOCK
 62
     0
100
AcDbLine
 10
287.962494
 20
34.764647
 30
0.0
 11
287.962494
 21
35.494647
 31
0.0
  0
SOLID
  5
148
100
AcDbEntity
  8
0
  6
BYBLOCK
 62
     0
100
AcDbTrace
 10
287.932494
 20
36.504647
 30
0.0
 11
287.992494
 21
36.504647
 31
0.0
 12
287.962494
 22
36.684647
 32
0.0
 13
287.962494
 23
36.684647
 33
0.0
  0
SOLID
  5
149
100
AcDbEntity
  8
0
  6
BYBLOCK
 62
     0
100
AcDbTrace
 10
287.932494
 20
34.764647
 30
0.0
 11
287.992494
 21
34.764647
 31
0.0
 12
287.962494
 22
34.584647
 32
0.0
 13
287.962494
 23
34.584647
 33
0.0
  0
MTEXT
  5
14A
100
AcDbEntity
  8
0
  6
BYBLOCK
 62
     0
100
AcDbMText
 10
287.962494
 20
35.634647
 30
0.0
 40
0.1
 41
0.0
 71
     5
 72
     1
  1
\A1;2.10
  0
POINT
  5
14B
100
AcDbEntity
  8
DEFPOINTS
  6
BYBLOCK
 62
     0
100
AcDbPoint
 10
286.893417
 20
36.684647
 30
0.0
  0
POINT
  5
14C
100
AcDbEntity
  8
DEFPOINTS
  6
BYBLOCK
 62
     0
100
AcDbPoint
 10
286.930556
 20
34.584647
 30
0.0
  0
POINT
  5
14D
100
AcDbEntity
  8
DEFPOINTS
  6
BYBLOCK
 62
     0
100
AcDbPoint
 10
287.962494
 20
34.584647
 30
0.0
  0
ENDBLK
  5
14E
100
AcDbEntity
  8
0
100
AcDbBlockEnd
  0
BLOCK
  5
151
100
AcDbEntity
  8
0
100
AcDbBlockBegin
  2
*D11
 70
     1
 10
0.0
 20
0.0
 30
0.0
  3
*D11
  1

  0
LINE
  5
152
100
AcDbEntity
  8
0
  6
BYBLOCK
 62
     0
100
AcDbLine
 10
285.830917
 20
36.809647
 30
0.0
 11
285.830917
 21
37.548847
 31
0.0
  0
LINE
  5
153
100
AcDbEntity
  8
0
  6
BYBLOCK
 62
     0
100
AcDbLine
 10
286.830917
 20
36.809647
 30
0.0
 11
286.830917
 21
37.548847
 31
0.0
  0
LINE
  5
154
100
AcDbEntity
  8
0
  6
BYBLOCK
 62
     0
100
AcDbLine
 10
286.010917
 20
37.368847
 30
0.0
 11
286.12425
 21
37.368847
 31
0.0
  0
LINE
  5
155
100
AcDbEntity
  8
0
  6
BYBLOCK
 62
     0
100
AcDbLine
 10
286.650917
 20
37.368847
 30
0.0
 11
286.537583
 21
37.368847
 31
0.0
  0
SOLID
  5
156
100
AcDbEntity
  8
0
  6
BYBLOCK
 62
     0
100
AcDbTrace
 10
286.010917
 20
37.398847
 30
0.0
 11
286.010917
 21
37.338847
 31
0.0
 12
285.830917
 22
37.368847
 32
0.0
 13
285.830917
 23
37.368847
 33
0.0
  0
SOLID
  5
157
100
AcDbEntity
  8
0
  6
BYBLOCK
 62
     0
100
AcDbTrace
 10
286.650917
 20
37.398847
 30
0.0
 11
286.650917
 21
37.338847
 31
0.0
 12
286.830917
 22
37.368847
 32
0.0
 13
286.830917
 23
37.368847
 33
0.0
  0
MTEXT
  5
158
100
AcDbEntity
  8
0
  6
BYBLOCK
 62
     0
100
AcDbMText
 10
286.330917
 20
37.368847
 30
0.0
 40
0.1
 41
0.0
 71
     5
 72
     1
  1
\A1;1.00
  0
POINT
  5
159
100
AcDbEntity
  8
DEFPOINTS
  6
BYBLOCK
 62
     0
100
AcDbPoint
 10
285.830917
 20
36.747147
 30
0.0
  0
POINT
  5
15A
100
AcDbEntity
  8
DEFPOINTS
  6
BYBLOCK
 62
     0
100
AcDbPoint
 10
286.830917
 20
36.747147
 30
0.0
  0
POINT
  5
15B
100
AcDbEntity
  8
DEFPOINTS
  6
BYBLOCK
 62
     0
100
AcDbPoint
 10
286.830917
 20
37.368847
 30
0.0
  0
ENDBLK
  5
15C
100
AcDbEntity
  8
0
100
AcDbBlockEnd
  0
BLOCK
  5
15F
100
AcDbEntity
  8
0
100
AcDbBlockBegin
  2
*D12
 70
     1
 10
0.0
 20
0.0
 30
0.0
  3
*D12
  1

  0
LINE
  5
160
100
AcDbEntity
  8
0
  6
BYBLOCK
 62
     0
100
AcDbLine
 10
286.230917
 20
34.459647
 30
0.0
 11
286.230917
 21
33.947632
 31
0.0
  0
LINE
  5
161
100
AcDbEntity
  8
0
  6
BYBLOCK
 62
     0
100
AcDbLine
 10
286.430917
 20
34.459647
 30
0.0
 11
286.430917
 21
33.947632
 31
0.0
  0
LINE
  5
162
100
AcDbEntity
  8
0
  6
BYBLOCK
 62
     0
100
AcDbLine
 10
286.050917
 20
34.127632
 30
0.0
 11
285.870917
 21
34.127632
 31
0.0
  0
LINE
  5
163
100
AcDbEntity
  8
0
  6
BYBLOCK
 62
     0
100
AcDbLine
 10
286.610917
 20
34.127632
 30
0.0
 11
286.790917
 21
34.127632
 31
0.0
  0
SOLID
  5
164
100
AcDbEntity
  8
0
  6
BYBLOCK
 62
     0
100
AcDbTrace
 10
286.050917
 20
34.157632
 30
0.0
 11
286.050917
 21
34.097632
 31
0.0
 12
286.230917
 22
34.127632
 32
0.0
 13
286.230917
 23
34.127632
 33
0.0
  0
SOLID
  5
165
100
AcDbEntity
  8
0
  6
BYBLOCK
 62
     0
100
AcDbTrace
 10
286.610917
 20
34.157632
 30
0.0
 11
286.610917
 21
34.097632
 31
0.0
 12
286.430917
 22
34.127632
 32
0.0
 13
286.430917
 23
34.127632
 33
0.0
  0
MTEXT
  5
166
100
AcDbEntity
  8
0
  6
BYBLOCK
 62
     0
100
AcDbMText
 10
287.01425
 20
34.127632
 30
0.0
 40
0.1
 41
0.0
 71
     5
 72
     1
  1
\A1;0.20
  0
POINT
  5
167
100
AcDbEntity
  8
DEFPOINTS
  6
BYBLOCK
 62
     0
100
AcDbPoint
 10
286.230917
 20
34.522147
 30
0.0
  0
POINT
  5
168
100
AcDbEntity
  8
DEFPOINTS
  6
BYBLOCK
 62
     0
100
AcDbPoint
 10
286.430917
 20
34.522147
 30
0.0
  0
POINT
  5
169
100
AcDbEntity
  8
DEFPOINTS
  6
BYBLOCK
 62
     0
100
AcDbPoint
 10
286.430917
 20
34.127632
 30
0.0
  0
ENDBLK
  5
16A
100
AcDbEntity
  8
0
100
AcDbBlockEnd
  0
BLOCK
  5
16D
100
AcDbEntity
  8
0
100
AcDbBlockBegin
  2
*D13
 70
     1
 10
0.0
 20
0.0
 30
0.0
  3
*D13
  1

  0
LINE
  5
16E
100
AcDbEntity
  8
0
  6
BYBLOCK
 62
     0
100
AcDbLine
 10
286.868056
 20
34.584647
 30
0.0
 11
286.750556
 21
34.584647
 31
0.0
  0
LINE
  5
16F
100
AcDbEntity
  8
0
  6
BYBLOCK
 62
     0
100
AcDbLine
 10
286.868056
 20
34.684647
 30
0.0
 11
286.750556
 21
34.684647
 31
0.0
  0
LINE
  5
170
100
AcDbEntity
  8
0
  6
BYBLOCK
 62
     0
100
AcDbLine
 10
286.930556
 20
34.404647
 30
0.0
 11
286.930556
 21
34.224647
 31
0.0
  0
LINE
  5
171
100
AcDbEntity
  8
0
  6
BYBLOCK
 62
     0
100
AcDbLine
 10
286.930556
 20
34.864647
 30
0.0
 11
286.930556
 21
35.044647
 31
0.0
  0
LINE
  5
172
100
AcDbEntity
  8
0
  6
BYBLOCK
 62
     0
100
AcDbLine
 10
286.930556
 20
35.044647
 30
0.0
 11
287.110556
 21
35.044647
 31
0.0
  0
SOLID
  5
173
100
AcDbEntity
  8
0
  6
BYBLOCK
 62
     0
100
AcDbTrace
 10
286.900556
 20
34.404647
 30
0.0
 11
286.960556
 21
34.404647
 31
0.0
 12
286.930556
 22
34.584647
 32
0.0
 13
286.930556
 23
34.584647
 33
0.0
  0
SOLID
  5
174
100
AcDbEntity
  8
0
  6
BYBLOCK
 62
     0
100
AcDbTrace
 10
286.900556
 20
34.864647
 30
0.0
 11
286.960556
 21
34.864647
 31
0.0
 12
286.930556
 22
34.684647
 32
0.0
 13
286.930556
 23
34.684647
 33
0.0
  0
MTEXT
  5
175
100
AcDbEntity
  8
0
  6
BYBLOCK
 62
     0
100
AcDbMText
 10
287.317223
 20
35.044647
 30
0.0
 40
0.1
 41
0.0
 71
     5
 72
     1
  1
\A1;0.10
  0
POINT
  5
176
100
AcDbEntity
  8
DEFPOINTS
  6
BYBLOCK
 62
     0
100
AcDbPoint
 10
286.930556
 20
34.584647
 30
0.0
  0
POINT
  5
177
100
AcDbEntity
  8
DEFPOINTS
  6
BYBLOCK
 62
     0
100
AcDbPoint
 10
286.930556
 20
34.684647
 30
0.0
  0
POINT
  5
178
100
AcDbEntity
  8
DEFPOINTS
  6
BYBLOCK
 62
     0
100
AcDbPoint
 10
286.930556
 20
34.684647
 30
0.0
  0
ENDBLK
  5
179
100
AcDbEntity
  8
0
100
AcDbBlockEnd
  0
ENDSEC
  0
SECTION
  2
ENTITIES
  0
TEXT
  5
27
100
AcDbEntity
  8
0
  6
CONTINUOUS
100
AcDbText
 10
286.909
 20
41.324
 30
0.0
 40
0.1
  1
2
  7
ROMANC
100
AcDbText
  0
TEXT
  5
28
100
AcDbEntity
  8
0
  6
CONTINUOUS
100
AcDbText
 10
283.926
 20
41.768
 30
0.0
 40
0.3
  1
ESCALA  1:50
  7
ROMANC
100
AcDbText
  0
POLYLINE
  5
29
100
AcDbEntity
  8
0
  6
CONTINUOUS
100
AcDb2dPolyline
 66
     1
 10
0.0
 20
0.0
 30
0.0
 70
     1
  0
VERTEX
  5
2A
100
AcDbEntity
  8
0
  6
CONTINUOUS
100
AcDbVertex
100
AcDb2dVertex
 10
281.396
 20
44.747
 30
0.0
  0
VERTEX
  5
2B
100
AcDbEntity
  8
0
  6
CONTINUOUS
100
AcDbVertex
100
AcDb2dVertex
 10
291.896
 20
44.747
 30
0.0
  0
VERTEX
  5
2C
100
AcDbEntity
  8
0
  6
CONTINUOUS
100
AcDbVertex
100
AcDb2dVertex
 10
291.896
 20
29.897
 30
0.0
  0
VERTEX
  5
2D
100
AcDbEntity
  8
0
  6
CONTINUOUS
100
AcDbVertex
100
AcDb2dVertex
 10
281.396
 20
29.897
 30
0.0
  0
SEQEND
  5
2E
100
AcDbEntity
  8
0
  0
TEXT
  5
2F
100
AcDbEntity
  8
0
  6
CONTINUOUS
100
AcDbText
 10
283.926
 20
42.381
 30
0.0
 40
0.3
  1
TIPUS   NT202
  7
ROMANC
100
AcDbText
  0
TEXT
  5
30
100
AcDbEntity
  8
0
  6
CONTINUOUS
100
AcDbText
 10
283.922
 20
40.529
 30
0.0
 40
0.3
  1
P = 62 dm
  7
ROMANC
100
AcDbText
  0
TEXT
  5
31
100
AcDbEntity
  8
0
  6
CONTINUOUS
100
AcDbText
 10
283.945
 20
41.099
 30
0.0
 40
0.3
  1
S = 202 dm
  7
ROMANC
100
AcDbText
  0
LINE
  5
FD
100
AcDbEntity
  8
0
  6
BYBLOCK
 62
     0
100
AcDbLine
 10
285.830917
 20
36.747147
 30
0.0
 11
285.830917
 21
37.199561
 31
0.0
  0
LINE
  5
FE
100
AcDbEntity
  8
0
  6
BYBLOCK
 62
     0
100
AcDbLine
 10
286.830917
 20
36.747147
 30
0.0
 11
286.830917
 21
37.199561
 31
0.0
  0
POINT
  5
104
100
AcDbEntity
  8
DEFPOINTS
  6
BYBLOCK
 62
     0
100
AcDbPoint
 10
285.830917
 20
36.684647
 30
0.0
  0
POINT
  5
105
100
AcDbEntity
  8
DEFPOINTS
  6
BYBLOCK
 62
     0
100
AcDbPoint
 10
286.830917
 20
36.684647
 30
0.0
  0
POINT
  5
106
100
AcDbEntity
  8
DEFPOINTS
  6
BYBLOCK
 62
     0
100
AcDbPoint
 10
286.830917
 20
37.019561
 30
0.0
  0
LINE
  5
107
100
AcDbEntity
  8
0
  6
BYBLOCK
 62
     0
100
AcDbLine
 10
286.230917
 20
34.522147
 30
0.0
 11
286.230917
 21
34.12918
 31
0.0
  0
LINE
  5
108
100
AcDbEntity
  8
0
  6
BYBLOCK
 62
     0
100
AcDbLine
 10
286.430917
 20
34.522147
 30
0.0
 11
286.430917
 21
34.12918
 31
0.0
  0
POINT
  5
10E
100
AcDbEntity
  8
DEFPOINTS
  6
BYBLOCK
 62
     0
100
AcDbPoint
 10
286.230917
 20
34.584647
 30
0.0
  0
POINT
  5
10F
100
AcDbEntity
  8
DEFPOINTS
  6
BYBLOCK
 62
     0
100
AcDbPoint
 10
286.430917
 20
34.584647
 30
0.0
  0
POINT
  5
110
100
AcDbEntity
  8
DEFPOINTS
  6
BYBLOCK
 62
     0
100
AcDbPoint
 10
286.430917
 20
34.30918
 30
0.0
  0
LINE
  5
111
100
AcDbEntity
  8
0
  6
BYBLOCK
 62
     0
100
AcDbLine
 10
286.893417
 20
36.684647
 30
0.0
 11
287.543841
 21
36.684647
 31
0.0
  0
LINE
  5
112
100
AcDbEntity
  8
0
  6
BYBLOCK
 62
     0
100
AcDbLine
 10
286.493417
 20
34.584647
 30
0.0
 11
287.543841
 21
34.584647
 31
0.0
  0
POINT
  5
118
100
AcDbEntity
  8
DEFPOINTS
  6
BYBLOCK
 62
     0
100
AcDbPoint
 10
286.830917
 20
36.684647
 30
0.0
  0
POINT
  5
119
100
AcDbEntity
  8
DEFPOINTS
  6
BYBLOCK
 62
     0
100
AcDbPoint
 10
286.430917
 20
34.584647
 30
0.0
  0
POINT
  5
11A
100
AcDbEntity
  8
DEFPOINTS
  6
BYBLOCK
 62
     0
100
AcDbPoint
 10
287.363841
 20
34.584647
 30
0.0
  0
LINE
  5
11B
100
AcDbEntity
  8
1
  6
CONTINUOUS
100
AcDbLine
 10
286.820917
 20
34.694647
 30
0.0
 11
286.820917
 21
36.674647
 31
0.0
  0
LINE
  5
11C
100
AcDbEntity
  8
1
  6
CONTINUOUS
100
AcDbLine
 10
286.820917
 20
36.674647
 30
0.0
 11
285.840917
 21
36.674647
 31
0.0
  0
LINE
  5
11D
100
AcDbEntity
  8
1
  6
CONTINUOUS
100
AcDbLine
 10
285.840917
 20
36.674647
 30
0.0
 11
285.840917
 21
34.694647
 31
0.0
  0
LINE
  5
11E
100
AcDbEntity
  8
1
  6
CONTINUOUS
100
AcDbLine
 10
285.840917
 20
34.694647
 30
0.0
 11
286.240917
 21
34.694647
 31
0.0
  0
LINE
  5
11F
100
AcDbEntity
  8
1
  6
CONTINUOUS
100
AcDbLine
 10
286.240917
 20
34.694647
 30
0.0
 11
286.240917
 21
34.594647
 31
0.0
  0
LINE
  5
120
100
AcDbEntity
  8
1
  6
CONTINUOUS
100
AcDbLine
 10
286.240917
 20
34.594647
 30
0.0
 11
286.420917
 21
34.594647
 31
0.0
  0
LINE
  5
121
100
AcDbEntity
  8
1
  6
CONTINUOUS
100
AcDbLine
 10
286.420917
 20
34.594647
 30
0.0
 11
286.420917
 21
34.694647
 31
0.0
  0
LINE
  5
122
100
AcDbEntity
  8
1
  6
CONTINUOUS
100
AcDbLine
 10
286.420917
 20
34.694647
 30
0.0
 11
286.820917
 21
34.694647
 31
0.0
  0
LINE
  5
123
100
AcDbEntity
  8
1
  6
CONTINUOUS
100
AcDbLine
 10
286.840917
 20
34.674647
 30
0.0
 11
286.840917
 21
36.694647
 31
0.0
  0
LINE
  5
124
100
AcDbEntity
  8
1
  6
CONTINUOUS
100
AcDbLine
 10
286.840917
 20
36.694647
 30
0.0
 11
285.820917
 21
36.694647
 31
0.0
  0
LINE
  5
125
100
AcDbEntity
  8
1
  6
CONTINUOUS
100
AcDbLine
 10
285.820917
 20
36.694647
 30
0.0
 11
285.820917
 21
34.674647
 31
0.0
  0
LINE
  5
126
100
AcDbEntity
  8
1
  6
CONTINUOUS
100
AcDbLine
 10
285.820917
 20
34.674647
 30
0.0
 11
286.220917
 21
34.674647
 31
0.0
  0
LINE
  5
127
100
AcDbEntity
  8
1
  6
CONTINUOUS
100
AcDbLine
 10
286.220917
 20
34.674647
 30
0.0
 11
286.220917
 21
34.574647
 31
0.0
  0
LINE
  5
128
100
AcDbEntity
  8
1
  6
CONTINUOUS
100
AcDbLine
 10
286.220917
 20
34.574647
 30
0.0
 11
286.440917
 21
34.574647
 31
0.0
  0
LINE
  5
129
100
AcDbEntity
  8
1
  6
CONTINUOUS
100
AcDbLine
 10
286.440917
 20
34.574647
 30
0.0
 11
286.440917
 21
34.674647
 31
0.0
  0
LINE
  5
12A
100
AcDbEntity
  8
1
  6
CONTINUOUS
100
AcDbLine
 10
286.440917
 20
34.674647
 30
0.0
 11
286.840917
 21
34.674647
 31
0.0
  0
LINE
  5
12B
100
AcDbEntity
  8
1
  6
CONTINUOUS
100
AcDbLine
 10
286.830917
 20
34.684647
 30
0.0
 11
286.830917
 21
36.684647
 31
0.0
  0
LINE
  5
12C
100
AcDbEntity
  8
1
  6
CONTINUOUS
100
AcDbLine
 10
286.830917
 20
36.684647
 30
0.0
 11
285.830917
 21
36.684647
 31
0.0
  0
LINE
  5
12D
100
AcDbEntity
  8
1
  6
CONTINUOUS
100
AcDbLine
 10
285.830917
 20
36.684647
 30
0.0
 11
285.830917
 21
34.684647
 31
0.0
  0
LINE
  5
12E
100
AcDbEntity
  8
1
  6
CONTINUOUS
100
AcDbLine
 10
285.830917
 20
34.684647
 30
0.0
 11
286.230917
 21
34.684647
 31
0.0
  0
LINE
  5
12F
100
AcDbEntity
  8
1
  6
CONTINUOUS
100
AcDbLine
 10
286.230917
 20
34.684647
 30
0.0
 11
286.230917
 21
34.584647
 31
0.0
  0
LINE
  5
130
100
AcDbEntity
  8
1
  6
CONTINUOUS
100
AcDbLine
 10
286.230917
 20
34.584647
 30
0.0
 11
286.430917
 21
34.584647
 31
0.0
  0
LINE
  5
131
100
AcDbEntity
  8
1
  6
CONTINUOUS
100
AcDbLine
 10
286.430917
 20
34.584647
 30
0.0
 11
286.430917
 21
34.684647
 31
0.0
  0
LINE
  5
132
100
AcDbEntity
  8
1
  6
CONTINUOUS
100
AcDbLine
 10
286.430917
 20
34.684647
 30
0.0
 11
286.830917
 21
34.684647
 31
0.0
  0
LINE
  5
133
100
AcDbEntity
  8
0
  6
BYBLOCK
 62
     0
100
AcDbLine
 10
286.893417
 20
34.584647
 30
0.0
 11
287.110556
 21
34.584647
 31
0.0
  0
LINE
  5
134
100
AcDbEntity
  8
0
  6
BYBLOCK
 62
     0
100
AcDbLine
 10
286.893417
 20
34.684647
 30
0.0
 11
287.110556
 21
34.684647
 31
0.0
  0
LINE
  5
135
100
AcDbEntity
  8
0
  6
BYBLOCK
 62
     0
100
AcDbLine
 10
286.930556
 20
34.404647
 30
0.0
 11
286.930556
 21
34.224647
 31
0.0
  0
LINE
  5
136
100
AcDbEntity
  8
0
  6
BYBLOCK
 62
     0
100
AcDbLine
 10
286.930556
 20
34.864647
 30
0.0
 11
286.930556
 21
35.044647
 31
0.0
  0
LINE
  5
137
100
AcDbEntity
  8
0
  6
BYBLOCK
 62
     0
100
AcDbLine
 10
286.930556
 20
35.044647
 30
0.0
 11
287.110556
 21
35.044647
 31
0.0
  0
SOLID
  5
138
100
AcDbEntity
  8
0
  6
BYBLOCK
 62
     0
100
AcDbTrace
 10
286.900556
 20
34.404647
 30
0.0
 11
286.960556
 21
34.404647
 31
0.0
 12
286.930556
 22
34.584647
 32
0.0
 13
286.930556
 23
34.584647
 33
0.0
  0
SOLID
  5
139
100
AcDbEntity
  8
0
  6
BYBLOCK
 62
     0
100
AcDbTrace
 10
286.900556
 20
34.864647
 30
0.0
 11
286.960556
 21
34.864647
 31
0.0
 12
286.930556
 22
34.684647
 32
0.0
 13
286.930556
 23
34.684647
 33
0.0
  0
POINT
  5
13B
100
AcDbEntity
  8
DEFPOINTS
  6
BYBLOCK
 62
     0
100
AcDbPoint
 10
286.830917
 20
34.584647
 30
0.0
  0
POINT
  5
13C
100
AcDbEntity
  8
DEFPOINTS
  6
BYBLOCK
 62
     0
100
AcDbPoint
 10
286.830917
 20
34.684647
 30
0.0
  0
POINT
  5
13D
100
AcDbEntity
  8
DEFPOINTS
  6
BYBLOCK
 62
     0
100
AcDbPoint
 10
286.930556
 20
34.684647
 30
0.0
  0
LINE
  5
17B
100
AcDbEntity
  8
0
  6
BYBLOCK
 62
     0
100
AcDbLine
 10
286.230917
 20
34.459647
 30
0.0
 11
286.230917
 21
33.947632
 31
0.0
  0
LINE
  5
17C
100
AcDbEntity
  8
0
  6
BYBLOCK
 62
     0
100
AcDbLine
 10
286.430917
 20
34.459647
 30
0.0
 11
286.430917
 21
33.947632
 31
0.0
  0
LINE
  5
17D
100
AcDbEntity
  8
0
  6
BYBLOCK
 62
     0
100
AcDbLine
 10
286.050917
 20
34.127632
 30
0.0
 11
285.870917
 21
34.127632
 31
0.0
  0
LINE
  5
17E
100
AcDbEntity
  8
0
  6
BYBLOCK
 62
     0
100
AcDbLine
 10
286.610917
 20
34.127632
 30
0.0
 11
286.790917
 21
34.127632
 31
0.0
  0
SOLID
  5
17F
100
AcDbEntity
  8
0
  6
BYBLOCK
 62
     0
100
AcDbTrace
 10
286.050917
 20
34.157632
 30
0.0
 11
286.050917
 21
34.097632
 31
0.0
 12
286.230917
 22
34.127632
 32
0.0
 13
286.230917
 23
34.127632
 33
0.0
  0
SOLID
  5
180
100
AcDbEntity
  8
0
  6
BYBLOCK
 62
     0
100
AcDbTrace
 10
286.610917
 20
34.157632
 30
0.0
 11
286.610917
 21
34.097632
 31
0.0
 12
286.430917
 22
34.127632
 32
0.0
 13
286.430917
 23
34.127632
 33
0.0
  0
MTEXT
  5
181
100
AcDbEntity
  8
0
  6
BYBLOCK
 62
     0
100
AcDbMText
 10
287.01425
 20
34.127632
 30
0.0
 40
0.1
 41
0.0
 71
     5
 72
     1
  1
\A1;0.20
  0
POINT
  5
182
100
AcDbEntity
  8
DEFPOINTS
  6
BYBLOCK
 62
     0
100
AcDbPoint
 10
286.230917
 20
34.522147
 30
0.0
  0
POINT
  5
183
100
AcDbEntity
  8
DEFPOINTS
  6
BYBLOCK
 62
     0
100
AcDbPoint
 10
286.430917
 20
34.522147
 30
0.0
  0
POINT
  5
184
100
AcDbEntity
  8
DEFPOINTS
  6
BYBLOCK
 62
     0
100
AcDbPoint
 10
286.430917
 20
34.127632
 30
0.0
  0
LINE
  5
185
100
AcDbEntity
  8
0
  6
BYBLOCK
 62
     0
100
AcDbLine
 10
285.830917
 20
36.809647
 30
0.0
 11
285.830917
 21
37.548847
 31
0.0
  0
LINE
  5
186
100
AcDbEntity
  8
0
  6
BYBLOCK
 62
     0
100
AcDbLine
 10
286.830917
 20
36.809647
 30
0.0
 11
286.830917
 21
37.548847
 31
0.0
  0
LINE
  5
187
100
AcDbEntity
  8
0
  6
BYBLOCK
 62
     0
100
AcDbLine
 10
286.010917
 20
37.368847
 30
0.0
 11
286.12425
 21
37.368847
 31
0.0
  0
LINE
  5
188
100
AcDbEntity
  8
0
  6
BYBLOCK
 62
     0
100
AcDbLine
 10
286.650917
 20
37.368847
 30
0.0
 11
286.537583
 21
37.368847
 31
0.0
  0
SOLID
  5
189
100
AcDbEntity
  8
0
  6
BYBLOCK
 62
     0
100
AcDbTrace
 10
286.010917
 20
37.398847
 30
0.0
 11
286.010917
 21
37.338847
 31
0.0
 12
285.830917
 22
37.368847
 32
0.0
 13
285.830917
 23
37.368847
 33
0.0
  0
SOLID
  5
18A
100
AcDbEntity
  8
0
  6
BYBLOCK
 62
     0
100
AcDbTrace
 10
286.650917
 20
37.398847
 30
0.0
 11
286.650917
 21
37.338847
 31
0.0
 12
286.830917
 22
37.368847
 32
0.0
 13
286.830917
 23
37.368847
 33
0.0
  0
MTEXT
  5
18B
100
AcDbEntity
  8
0
  6
BYBLOCK
 62
     0
100
AcDbMText
 10
286.330917
 20
37.368847
 30
0.0
 40
0.1
 41
0.0
 71
     5
 72
     1
  1
\A1;1.00
  0
POINT
  5
18C
100
AcDbEntity
  8
DEFPOINTS
  6
BYBLOCK
 62
     0
100
AcDbPoint
 10
285.830917
 20
36.747147
 30
0.0
  0
POINT
  5
18D
100
AcDbEntity
  8
DEFPOINTS
  6
BYBLOCK
 62
     0
100
AcDbPoint
 10
286.830917
 20
36.747147
 30
0.0
  0
POINT
  5
18E
100
AcDbEntity
  8
DEFPOINTS
  6
BYBLOCK
 62
     0
100
AcDbPoint
 10
286.830917
 20
37.368847
 30
0.0
  0
LINE
  5
18F
100
AcDbEntity
  8
0
  6
BYBLOCK
 62
     0
100
AcDbLine
 10
286.868056
 20
34.584647
 30
0.0
 11
286.750556
 21
34.584647
 31
0.0
  0
LINE
  5
190
100
AcDbEntity
  8
0
  6
BYBLOCK
 62
     0
100
AcDbLine
 10
286.868056
 20
34.684647
 30
0.0
 11
286.750556
 21
34.684647
 31
0.0
  0
LINE
  5
191
100
AcDbEntity
  8
0
  6
BYBLOCK
 62
     0
100
AcDbLine
 10
286.930556
 20
34.404647
 30
0.0
 11
286.930556
 21
34.224647
 31
0.0
  0
LINE
  5
192
100
AcDbEntity
  8
0
  6
BYBLOCK
 62
     0
100
AcDbLine
 10
286.930556
 20
34.864647
 30
0.0
 11
286.930556
 21
35.044647
 31
0.0
  0
LINE
  5
193
100
AcDbEntity
  8
0
  6
BYBLOCK
 62
     0
100
AcDbLine
 10
286.930556
 20
35.044647
 30
0.0
 11
287.110556
 21
35.044647
 31
0.0
  0
SOLID
  5
194
100
AcDbEntity
  8
0
  6
BYBLOCK
 62
     0
100
AcDbTrace
 10
286.900556
 20
34.404647
 30
0.0
 11
286.960556
 21
34.404647
 31
0.0
 12
286.930556
 22
34.584647
 32
0.0
 13
286.930556
 23
34.584647
 33
0.0
  0
SOLID
  5
195
100
AcDbEntity
  8
0
  6
BYBLOCK
 62
     0
100
AcDbTrace
 10
286.900556
 20
34.864647
 30
0.0
 11
286.960556
 21
34.864647
 31
0.0
 12
286.930556
 22
34.684647
 32
0.0
 13
286.930556
 23
34.684647
 33
0.0
  0
MTEXT
  5
196
100
AcDbEntity
  8
0
  6
BYBLOCK
 62
     0
100
AcDbMText
 10
287.317223
 20
35.044647
 30
0.0
 40
0.1
 41
0.0
 71
     5
 72
     1
  1
\A1;0.10
  0
POINT
  5
197
100
AcDbEntity
  8
DEFPOINTS
  6
BYBLOCK
 62
     0
100
AcDbPoint
 10
286.930556
 20
34.584647
 30
0.0
  0
POINT
  5
198
100
AcDbEntity
  8
DEFPOINTS
  6
BYBLOCK
 62
     0
100
AcDbPoint
 10
286.930556
 20
34.684647
 30
0.0
  0
POINT
  5
199
100
AcDbEntity
  8
DEFPOINTS
  6
BYBLOCK
 62
     0
100
AcDbPoint
 10
286.930556
 20
34.684647
 30
0.0
  0
LINE
  5
19A
100
AcDbEntity
  8
0
  6
BYBLOCK
 62
     0
100
AcDbLine
 10
286.955917
 20
36.684647
 30
0.0
 11
288.142494
 21
36.684647
 31
0.0
  0
LINE
  5
19B
100
AcDbEntity
  8
0
  6
BYBLOCK
 62
     0
100
AcDbLine
 10
286.993056
 20
34.584647
 30
0.0
 11
288.142494
 21
34.584647
 31
0.0
  0
LINE
  5
19C
100
AcDbEntity
  8
0
  6
BYBLOCK
 62
     0
100
AcDbLine
 10
287.962494
 20
36.504647
 30
0.0
 11
287.962494
 21
35.774647
 31
0.0
  0
LINE
  5
19D
100
AcDbEntity
  8
0
  6
BYBLOCK
 62
     0
100
AcDbLine
 10
287.962494
 20
34.764647
 30
0.0
 11
287.962494
 21
35.494647
 31
0.0
  0
SOLID
  5
19E
100
AcDbEntity
  8
0
  6
BYBLOCK
 62
     0
100
AcDbTrace
 10
287.932494
 20
36.504647
 30
0.0
 11
287.992494
 21
36.504647
 31
0.0
 12
287.962494
 22
36.684647
 32
0.0
 13
287.962494
 23
36.684647
 33
0.0
  0
SOLID
  5
19F
100
AcDbEntity
  8
0
  6
BYBLOCK
 62
     0
100
AcDbTrace
 10
287.932494
 20
34.764647
 30
0.0
 11
287.992494
 21
34.764647
 31
0.0
 12
287.962494
 22
34.584647
 32
0.0
 13
287.962494
 23
34.584647
 33
0.0
  0
MTEXT
  5
1A0
100
AcDbEntity
  8
0
  6
BYBLOCK
 62
     0
100
AcDbMText
 10
287.962494
 20
35.634647
 30
0.0
 40
0.1
 41
0.0
 71
     5
 72
     1
  1
\A1;2.10
  0
POINT
  5
1A1
100
AcDbEntity
  8
DEFPOINTS
  6
BYBLOCK
 62
     0
100
AcDbPoint
 10
286.893417
 20
36.684647
 30
0.0
  0
POINT
  5
1A2
100
AcDbEntity
  8
DEFPOINTS
  6
BYBLOCK
 62
     0
100
AcDbPoint
 10
286.930556
 20
34.584647
 30
0.0
  0
POINT
  5
1A3
100
AcDbEntity
  8
DEFPOINTS
  6
BYBLOCK
 62
     0
100
AcDbPoint
 10
287.962494
 20
34.584647
 30
0.0
  0
ENDSEC
  0
SECTION
  2
OBJECTS
  0
DICTIONARY
  5
C
100
AcDbDictionary
  3
ACAD_GROUP
350
D
  3
ACAD_MLINESTYLE
350
1B
  0
DICTIONARY
  5
D
102
{ACAD_REACTORS
330
C
102
}
100
AcDbDictionary
  0
DICTIONARY
  5
1B
102
{ACAD_REACTORS
330
C
102
}
100
AcDbDictionary
  3
STANDARD
350
1C
  0
MLINESTYLE
  5
1C
102
{ACAD_REACTORS
330
1B
102
}
100
AcDbMlineStyle
  2
STANDARD
 70
     0
  3

 62
   256
 51
90.0
 52
90.0
 71
     2
 49
0.5
 62
   256
  6
BYLAYER
 49
-0.5
 62
   256
  6
BYLAYER
  0
ENDSEC
  0
EOF
