  0
SECTION
  2
HEADER
  9
$ACADVER
  1
AC1009
  9
$INSBASE
 10
0.0
 20
0.0
 30
0.0
  9
$EXTMIN
 10
294.812807
 20
13.344896
 30
0.0
  9
$EXTMAX
 10
305.312807
 20
28.194896
 30
0.0
  9
$LIMMIN
 10
0.0
 20
0.0
  9
$LIMMAX
 10
410.0
 20
287.0
  9
$ORTHOMODE
 70
     1
  9
$REGENMODE
 70
     1
  9
$FILLMODE
 70
     1
  9
$QTEXTMODE
 70
     0
  9
$MIRRTEXT
 70
     1
  9
$DRAGMODE
 70
     2
  9
$LTSCALE
 40
25.0
  9
$OSMODE
 70
    32
  9
$ATTMODE
 70
     1
  9
$TEXTSIZE
 40
0.1
  9
$TRACEWID
 40
1.0
  9
$TEXTSTYLE
  7
ROMANC
  9
$CLAYER
  8
0
  9
$CELTYPE
  6
BYLAYER
  9
$CECOLOR
 62
   256
  9
$DIMSCALE
 40
1.5
  9
$DIMASZ
 40
0.1
  9
$DIMEXO
 40
0.01
  9
$DIMDLI
 40
7.0
  9
$DIMRND
 40
0.0
  9
$DIMDLE
 40
0.0
  9
$DIMEXE
 40
0.01
  9
$DIMTP
 40
0.0
  9
$DIMTM
 40
0.0
  9
$DIMTXT
 40
0.05
  9
$DIMCEN
 40
0.1
  9
$DIMTSZ
 40
0.0
  9
$DIMTOL
 70
     0
  9
$DIMLIM
 70
     0
  9
$DIMTIH
 70
     0
  9
$DIMTOH
 70
     0
  9
$DIMSE1
 70
     0
  9
$DIMSE2
 70
     0
  9
$DIMTAD
 70
     1
  9
$DIMZIN
 70
     0
  9
$DIMBLK
  1

  9
$DIMASO
 70
     1
  9
$DIMSHO
 70
     0
  9
$DIMPOST
  1

  9
$DIMAPOST
  1

  9
$DIMALT
 70
     0
  9
$DIMALTD
 70
     2
  9
$DIMALTF
 40
25.4
  9
$DIMLFAC
 40
1.0
  9
$DIMTOFL
 70
     1
  9
$DIMTVP
 40
0.0
  9
$DIMTIX
 70
     1
  9
$DIMSOXD
 70
     0
  9
$DIMSAH
 70
     0
  9
$DIMBLK1
  1

  9
$DIMBLK2
  1

  9
$DIMSTYLE
  2
SILVIA
  9
$DIMCLRD
 70
     0
  9
$DIMCLRE
 70
     0
  9
$DIMCLRT
 70
     0
  9
$DIMTFAC
 40
70.0
  9
$DIMGAP
 40
0.09
  9
$LUNITS
 70
     2
  9
$LUPREC
 70
     2
  9
$SKETCHINC
 40
1.0
  9
$FILLETRAD
 40
0.0
  9
$AUNITS
 70
     0
  9
$AUPREC
 70
     0
  9
$MENU
  1
acad
  9
$ELEVATION
 40
0.0
  9
$PELEVATION
 40
0.0
  9
$THICKNESS
 40
0.0
  9
$LIMCHECK
 70
     0
  9
$BLIPMODE
 70
     0
  9
$CHAMFERA
 40
0.0
  9
$CHAMFERB
 40
0.0
  9
$SKPOLY
 70
     0
  9
$TDCREATE
 40
2450081.367368865
  9
$TDUPDATE
 40
2450723.711421065
  9
$TDINDWG
 40
0.0043520833
  9
$TDUSRTIMER
 40
0.0043520833
  9
$USRTIMER
 70
     1
  9
$ANGBASE
 50
0.0
  9
$ANGDIR
 70
     0
  9
$PDMODE
 70
     0
  9
$PDSIZE
 40
0.0
  9
$PLINEWID
 40
0.0
  9
$COORDS
 70
     2
  9
$SPLFRAME
 70
     0
  9
$SPLINETYPE
 70
     6
  9
$SPLINESEGS
 70
     8
  9
$ATTDIA
 70
     0
  9
$ATTREQ
 70
     1
  9
$HANDLING
 70
     0
  9
$HANDSEED
  5
0
  9
$SURFTAB1
 70
     6
  9
$SURFTAB2
 70
     6
  9
$SURFTYPE
 70
     6
  9
$SURFU
 70
     6
  9
$SURFV
 70
     6
  9
$UCSNAME
  2

  9
$UCSORG
 10
0.0
 20
0.0
 30
0.0
  9
$UCSXDIR
 10
1.0
 20
0.0
 30
0.0
  9
$UCSYDIR
 10
0.0
 20
1.0
 30
0.0
  9
$PUCSNAME
  2

  9
$PUCSORG
 10
0.0
 20
0.0
 30
0.0
  9
$PUCSXDIR
 10
1.0
 20
0.0
 30
0.0
  9
$PUCSYDIR
 10
0.0
 20
1.0
 30
0.0
  9
$USERI1
 70
     0
  9
$USERI2
 70
     0
  9
$USERI3
 70
     0
  9
$USERI4
 70
     0
  9
$USERI5
 70
     0
  9
$USERR1
 40
0.0
  9
$USERR2
 40
0.0
  9
$USERR3
 40
0.0
  9
$USERR4
 40
0.0
  9
$USERR5
 40
0.0
  9
$WORLDVIEW
 70
     1
  9
$SHADEDGE
 70
     3
  9
$SHADEDIF
 70
    70
  9
$TILEMODE
 70
     1
  9
$MAXACTVP
 70
    16
  9
$PINSBASE
 10
0.0
 20
0.0
 30
0.0
  9
$PLIMCHECK
 70
     0
  9
$PEXTMIN
 10
1.000000E+20
 20
1.000000E+20
 30
1.000000E+20
  9
$PEXTMAX
 10
-1.000000E+20
 20
-1.000000E+20
 30
-1.000000E+20
  9
$PLIMMIN
 10
0.0
 20
0.0
  9
$PLIMMAX
 10
12.0
 20
9.0
  9
$UNITMODE
 70
     0
  9
$VISRETAIN
 70
     0
  9
$PLINEGEN
 70
     0
  9
$PSLTSCALE
 70
     0
  9
$TREEDEPTH
 70
  3020
  9
$DWGCODEPAGE
  3
iso8859-1
  0
ENDSEC
  0
SECTION
  2
TABLES
  0
TABLE
  2
VPORT
 70
     1
  0
VPORT
  2
*ACTIVE
 70
     0
 10
0.0
 20
0.0
 11
1.0
 21
1.0
 12
306.774657
 22
20.769896
 13
0.0
 23
0.0
 14
1.0
 24
1.0
 15
10.0
 25
10.0
 16
0.0
 26
0.0
 36
1.0
 17
0.0
 27
0.0
 37
0.0
 40
14.85
 41
1.611024
 42
50.0
 43
0.0
 44
0.0
 50
0.0
 51
0.0
 71
     0
 72
   100
 73
     1
 74
     0
 75
     0
 76
     0
 77
     0
 78
     1
  0
ENDTAB
  0
TABLE
  2
LTYPE
 70
     1
  0
LTYPE
  2
CONTINUOUS
 70
    64
  3
Solid line
 72
    65
 73
     0
 40
0.0
  0
ENDTAB
  0
TABLE
  2
LAYER
 70
     2
  0
LAYER
  2
0
 70
    64
 62
     7
  6
CONTINUOUS
  0
LAYER
  2
DEFPOINTS
 70
    64
 62
     7
  6
CONTINUOUS
  0
ENDTAB
  0
TABLE
  2
STYLE
 70
     2
  0
STYLE
  2
STANDARD
 70
     0
 40
0.0
 41
1.0
 50
0.0
 71
     0
 42
0.1
  3
txt
  4

  0
STYLE
  2
ROMANC
 70
    64
 40
0.0
 41
1.0
 50
0.0
 71
     0
 42
0.1
  3
romanc
  4

  0
ENDTAB
  0
TABLE
  2
VIEW
 70
     0
  0
ENDTAB
  0
TABLE
  2
UCS
 70
     0
  0
ENDTAB
  0
TABLE
  2
APPID
 70
     1
  0
APPID
  2
ACAD
 70
    64
  0
ENDTAB
  0
TABLE
  2
DIMSTYLE
 70
     1
  0
DIMSTYLE
  2
SILVIA
 70
    64
  3

  4

  5

  6

  7

 40
1.5
 41
0.1
 42
0.01
 43
7.0
 44
0.01
 45
0.0
 46
0.0
 47
0.0
 48
0.0
140
0.05
141
0.1
142
0.0
143
25.4
144
1.0
145
0.0
146
70.0
147
0.09
 71
     0
 72
     0
 73
     0
 74
     0
 75
     0
 76
     0
 77
     1
 78
     0
170
     0
171
     2
172
     1
173
     0
174
     1
175
     0
176
     0
177
     0
178
     0
  0
ENDTAB
  0
ENDSEC
  0
SECTION
  2
BLOCKS
  0
BLOCK
  8
0
  2
*D0
 70
    65
 10
0.0
 20
0.0
 30
0.0
  3
*D
  0
LINE
  8
0
  6
BYBLOCK
 62
     0
 10
297.585232
 20
17.810759
 30
0.0
 11
297.585232
 21
17.24149
 31
0.0
  0
LINE
  8
0
  6
BYBLOCK
 62
     0
 10
303.485232
 20
17.810759
 30
0.0
 11
303.485232
 21
17.24149
 31
0.0
  0
LINE
  8
0
  6
BYBLOCK
 62
     0
 10
297.735232
 20
17.25649
 30
0.0
 11
303.335232
 21
17.25649
 31
0.0
  0
SOLID
  8
0
  6
BYBLOCK
 62
     0
 10
297.735232
 20
17.28149
 30
0.0
 11
297.735232
 21
17.23149
 31
0.0
 12
297.585232
 22
17.25649
 32
0.0
 13
297.585232
 23
17.25649
 33
0.0
  0
SOLID
  8
0
  6
BYBLOCK
 62
     0
 10
303.335232
 20
17.28149
 30
0.0
 11
303.335232
 21
17.23149
 31
0.0
 12
303.485232
 22
17.25649
 32
0.0
 13
303.485232
 23
17.25649
 33
0.0
  0
TEXT
  8
0
  6
BYBLOCK
 62
     0
 10
300.410232
 20
17.29399
 30
0.0
 40
0.075
  1
5.90
  7
ROMANC
 72
     1
 11
300.535232
 21
17.33149
 31
0.0
 73
     2
  0
POINT
  8
DEFPOINTS
  6
BYBLOCK
 62
     0
 10
297.585232
 20
17.825759
 30
0.0
  0
POINT
  8
DEFPOINTS
  6
BYBLOCK
 62
     0
 10
303.485232
 20
17.825759
 30
0.0
  0
POINT
  8
DEFPOINTS
  6
BYBLOCK
 62
     0
 10
303.485232
 20
17.25649
 30
0.0
  0
ENDBLK
  8
0
  0
BLOCK
  8
0
  2
*D1
 70
    65
 10
0.0
 20
0.0
 30
0.0
  3
*D
  0
LINE
  8
0
  6
BYBLOCK
 62
     0
 10
303.485232
 20
17.810759
 30
0.0
 11
303.485232
 21
17.24149
 31
0.0
  0
LINE
  8
0
  6
BYBLOCK
 62
     0
 10
304.275232
 20
18.070759
 30
0.0
 11
304.275232
 21
17.24149
 31
0.0
  0
LINE
  8
0
  6
BYBLOCK
 62
     0
 10
303.335232
 20
17.25649
 30
0.0
 11
303.185232
 21
17.25649
 31
0.0
  0
LINE
  8
0
  6
BYBLOCK
 62
     0
 10
304.425232
 20
17.25649
 30
0.0
 11
304.575232
 21
17.25649
 31
0.0
  0
SOLID
  8
0
  6
BYBLOCK
 62
     0
 10
303.335232
 20
17.28149
 30
0.0
 11
303.335232
 21
17.23149
 31
0.0
 12
303.485232
 22
17.25649
 32
0.0
 13
303.485232
 23
17.25649
 33
0.0
  0
SOLID
  8
0
  6
BYBLOCK
 62
     0
 10
304.425232
 20
17.28149
 30
0.0
 11
304.425232
 21
17.23149
 31
0.0
 12
304.275232
 22
17.25649
 32
0.0
 13
304.275232
 23
17.25649
 33
0.0
  0
LINE
  8
0
  6
BYBLOCK
 62
     0
 10
303.485232
 20
17.25649
 30
0.0
 11
304.275232
 21
17.25649
 31
0.0
  0
TEXT
  8
0
  6
BYBLOCK
 62
     0
 10
303.755232
 20
17.29399
 30
0.0
 40
0.075
  1
0.80
  7
ROMANC
 72
     1
 11
303.880232
 21
17.33149
 31
0.0
 73
     2
  0
POINT
  8
DEFPOINTS
  6
BYBLOCK
 62
     0
 10
303.485232
 20
17.825759
 30
0.0
  0
POINT
  8
DEFPOINTS
  6
BYBLOCK
 62
     0
 10
304.275232
 20
18.085759
 30
0.0
  0
POINT
  8
DEFPOINTS
  6
BYBLOCK
 62
     0
 10
304.275232
 20
17.25649
 30
0.0
  0
ENDBLK
  8
0
  0
BLOCK
  8
0
  2
*D2
 70
    65
 10
0.0
 20
0.0
 30
0.0
  3
*D
  0
LINE
  8
0
  6
BYBLOCK
 62
     0
 10
297.585232
 20
17.810759
 30
0.0
 11
297.585232
 21
17.24149
 31
0.0
  0
LINE
  8
0
  6
BYBLOCK
 62
     0
 10
296.785232
 20
18.060759
 30
0.0
 11
296.785232
 21
17.24149
 31
0.0
  0
LINE
  8
0
  6
BYBLOCK
 62
     0
 10
297.435232
 20
17.25649
 30
0.0
 11
296.935232
 21
17.25649
 31
0.0
  0
SOLID
  8
0
  6
BYBLOCK
 62
     0
 10
297.435232
 20
17.28149
 30
0.0
 11
297.435232
 21
17.23149
 31
0.0
 12
297.585232
 22
17.25649
 32
0.0
 13
297.585232
 23
17.25649
 33
0.0
  0
SOLID
  8
0
  6
BYBLOCK
 62
     0
 10
296.935232
 20
17.28149
 30
0.0
 11
296.935232
 21
17.23149
 31
0.0
 12
296.785232
 22
17.25649
 32
0.0
 13
296.785232
 23
17.25649
 33
0.0
  0
TEXT
  8
0
  6
BYBLOCK
 62
     0
 10
297.060232
 20
17.29399
 30
0.0
 40
0.075
  1
0.80
  7
ROMANC
 72
     1
 11
297.185232
 21
17.33149
 31
0.0
 73
     2
  0
POINT
  8
DEFPOINTS
  6
BYBLOCK
 62
     0
 10
297.585232
 20
17.825759
 30
0.0
  0
POINT
  8
DEFPOINTS
  6
BYBLOCK
 62
     0
 10
296.785232
 20
18.075759
 30
0.0
  0
POINT
  8
DEFPOINTS
  6
BYBLOCK
 62
     0
 10
296.785232
 20
17.25649
 30
0.0
  0
ENDBLK
  8
0
  0
BLOCK
  8
0
  2
*D3
 70
    65
 10
0.0
 20
0.0
 30
0.0
  3
*D
  0
LINE
  8
0
  6
BYBLOCK
 62
     0
 10
303.616575
 20
19.627438
 30
0.0
 11
304.083574
 21
19.627438
 31
0.0
  0
LINE
  8
0
  6
BYBLOCK
 62
     0
 10
303.616575
 20
18.141863
 30
0.0
 11
304.083574
 21
18.141863
 31
0.0
  0
LINE
  8
0
  6
BYBLOCK
 62
     0
 10
304.068574
 20
19.477438
 30
0.0
 11
304.068574
 21
18.291863
 31
0.0
  0
SOLID
  8
0
  6
BYBLOCK
 62
     0
 10
304.043574
 20
19.477438
 30
0.0
 11
304.093574
 21
19.477438
 31
0.0
 12
304.068574
 22
19.627438
 32
0.0
 13
304.068574
 23
19.627438
 33
0.0
  0
SOLID
  8
0
  6
BYBLOCK
 62
     0
 10
304.043574
 20
18.291863
 30
0.0
 11
304.093574
 21
18.291863
 31
0.0
 12
304.068574
 22
18.141863
 32
0.0
 13
304.068574
 23
18.141863
 33
0.0
  0
TEXT
  8
0
  6
BYBLOCK
 62
     0
 10
304.031074
 20
18.754293
 30
0.0
 40
0.075
  1
1.50
 50
90.0
  7
ROMANC
 72
     1
 11
303.993574
 21
18.88465
 31
0.0
 73
     2
  0
POINT
  8
DEFPOINTS
  6
BYBLOCK
 62
     0
 10
303.601575
 20
19.627438
 30
0.0
  0
POINT
  8
DEFPOINTS
  6
BYBLOCK
 62
     0
 10
303.601575
 20
18.141863
 30
0.0
  0
POINT
  8
DEFPOINTS
  6
BYBLOCK
 62
     0
 10
304.068574
 20
18.141863
 30
0.0
  0
ENDBLK
  8
0
  0
BLOCK
  8
0
  2
*D4
 70
    65
 10
0.0
 20
0.0
 30
0.0
  3
*D
  0
LINE
  8
0
  6
BYBLOCK
 62
     0
 10
303.616575
 20
19.627438
 30
0.0
 11
304.083574
 21
19.627438
 31
0.0
  0
LINE
  8
0
  6
BYBLOCK
 62
     0
 10
299.776078
 20
21.083249
 30
0.0
 11
304.083574
 21
21.083249
 31
0.0
  0
LINE
  8
0
  6
BYBLOCK
 62
     0
 10
304.068574
 20
19.777438
 30
0.0
 11
304.068574
 21
20.933249
 31
0.0
  0
SOLID
  8
0
  6
BYBLOCK
 62
     0
 10
304.043574
 20
19.777438
 30
0.0
 11
304.093574
 21
19.777438
 31
0.0
 12
304.068574
 22
19.627438
 32
0.0
 13
304.068574
 23
19.627438
 33
0.0
  0
SOLID
  8
0
  6
BYBLOCK
 62
     0
 10
304.043574
 20
20.933249
 30
0.0
 11
304.093574
 21
20.933249
 31
0.0
 12
304.068574
 22
21.083249
 32
0.0
 13
304.068574
 23
21.083249
 33
0.0
  0
TEXT
  8
0
  6
BYBLOCK
 62
     0
 10
304.031074
 20
20.224986
 30
0.0
 40
0.075
  1
1.45
 50
90.0
  7
ROMANC
 72
     1
 11
303.993574
 21
20.355343
 31
0.0
 73
     2
  0
POINT
  8
DEFPOINTS
  6
BYBLOCK
 62
     0
 10
303.601575
 20
19.627438
 30
0.0
  0
POINT
  8
DEFPOINTS
  6
BYBLOCK
 62
     0
 10
299.761078
 20
21.083249
 30
0.0
  0
POINT
  8
DEFPOINTS
  6
BYBLOCK
 62
     0
 10
304.068574
 20
21.083249
 30
0.0
  0
ENDBLK
  8
0
  0
BLOCK
  8
0
  2
*D5
 70
    65
 10
0.0
 20
0.0
 30
0.0
  3
*D
  0
LINE
  8
0
  6
BYBLOCK
 62
     0
 10
303.616575
 20
18.141863
 30
0.0
 11
304.083574
 21
18.141863
 31
0.0
  0
LINE
  8
0
  6
BYBLOCK
 62
     0
 10
302.826575
 20
17.881863
 30
0.0
 11
304.083574
 21
17.881863
 31
0.0
  0
LINE
  8
0
  6
BYBLOCK
 62
     0
 10
304.068574
 20
18.291863
 30
0.0
 11
304.068574
 21
18.441863
 31
0.0
  0
LINE
  8
0
  6
BYBLOCK
 62
     0
 10
304.068574
 20
17.731863
 30
0.0
 11
304.068574
 21
17.581863
 31
0.0
  0
SOLID
  8
0
  6
BYBLOCK
 62
     0
 10
304.043574
 20
18.291863
 30
0.0
 11
304.093574
 21
18.291863
 31
0.0
 12
304.068574
 22
18.141863
 32
0.0
 13
304.068574
 23
18.141863
 33
0.0
  0
SOLID
  8
0
  6
BYBLOCK
 62
     0
 10
304.043574
 20
17.731863
 30
0.0
 11
304.093574
 21
17.731863
 31
0.0
 12
304.068574
 22
17.881863
 32
0.0
 13
304.068574
 23
17.881863
 33
0.0
  0
LINE
  8
0
  6
BYBLOCK
 62
     0
 10
304.068574
 20
18.141863
 30
0.0
 11
304.068574
 21
17.881863
 31
0.0
  0
TEXT
  8
0
  6
BYBLOCK
 62
     0
 10
304.031074
 20
17.886863
 30
0.0
 40
0.075
  1
0.25
 50
90.0
  7
ROMANC
 72
     1
 11
303.993574
 21
18.011863
 31
0.0
 73
     2
  0
POINT
  8
DEFPOINTS
  6
BYBLOCK
 62
     0
 10
303.601575
 20
18.141863
 30
0.0
  0
POINT
  8
DEFPOINTS
  6
BYBLOCK
 62
     0
 10
302.811575
 20
17.881863
 30
0.0
  0
POINT
  8
DEFPOINTS
  6
BYBLOCK
 62
     0
 10
304.068574
 20
17.881863
 30
0.0
  0
ENDBLK
  8
0
  0
BLOCK
  8
0
  2
*D6
 70
    65
 10
0.0
 20
0.0
 30
0.0
  3
*D
  0
LINE
  8
0
  6
BYBLOCK
 62
     0
 10
304.029763
 20
19.627438
 30
0.0
 11
304.496762
 21
19.627438
 31
0.0
  0
LINE
  8
0
  6
BYBLOCK
 62
     0
 10
300.189266
 20
21.083249
 30
0.0
 11
304.496762
 21
21.083249
 31
0.0
  0
LINE
  8
0
  6
BYBLOCK
 62
     0
 10
304.481762
 20
19.777438
 30
0.0
 11
304.481762
 21
20.933249
 31
0.0
  0
SOLID
  8
0
  6
BYBLOCK
 62
     0
 10
304.456762
 20
19.777438
 30
0.0
 11
304.506762
 21
19.777438
 31
0.0
 12
304.481762
 22
19.627438
 32
0.0
 13
304.481762
 23
19.627438
 33
0.0
  0
SOLID
  8
0
  6
BYBLOCK
 62
     0
 10
304.456762
 20
20.933249
 30
0.0
 11
304.506762
 21
20.933249
 31
0.0
 12
304.481762
 22
21.083249
 32
0.0
 13
304.481762
 23
21.083249
 33
0.0
  0
TEXT
  8
0
  6
BYBLOCK
 62
     0
 10
304.444262
 20
20.224986
 30
0.0
 40
0.075
  1
1.45
 50
90.0
  7
ROMANC
 72
     1
 11
304.406762
 21
20.355343
 31
0.0
 73
     2
  0
POINT
  8
DEFPOINTS
  6
BYBLOCK
 62
     0
 10
304.014763
 20
19.627438
 30
0.0
  0
POINT
  8
DEFPOINTS
  6
BYBLOCK
 62
     0
 10
300.174266
 20
21.083249
 30
0.0
  0
POINT
  8
DEFPOINTS
  6
BYBLOCK
 62
     0
 10
304.481762
 20
21.083249
 30
0.0
  0
ENDBLK
  8
0
  0
BLOCK
  8
0
  2
*D7
 70
    65
 10
0.0
 20
0.0
 30
0.0
  3
*D
  0
LINE
  8
0
  6
BYBLOCK
 62
     0
 10
304.029763
 20
19.627438
 30
0.0
 11
304.496762
 21
19.627438
 31
0.0
  0
LINE
  8
0
  6
BYBLOCK
 62
     0
 10
300.189266
 20
21.083249
 30
0.0
 11
304.496762
 21
21.083249
 31
0.0
  0
LINE
  8
0
  6
BYBLOCK
 62
     0
 10
304.481762
 20
19.777438
 30
0.0
 11
304.481762
 21
20.933249
 31
0.0
  0
SOLID
  8
0
  6
BYBLOCK
 62
     0
 10
304.456762
 20
19.777438
 30
0.0
 11
304.506762
 21
19.777438
 31
0.0
 12
304.481762
 22
19.627438
 32
0.0
 13
304.481762
 23
19.627438
 33
0.0
  0
SOLID
  8
0
  6
BYBLOCK
 62
     0
 10
304.456762
 20
20.933249
 30
0.0
 11
304.506762
 21
20.933249
 31
0.0
 12
304.481762
 22
21.083249
 32
0.0
 13
304.481762
 23
21.083249
 33
0.0
  0
TEXT
  8
0
  6
BYBLOCK
 62
     0
 10
304.444262
 20
20.224986
 30
0.0
 40
0.075
  1
1.45
 50
90.0
  7
ROMANC
 72
     1
 11
304.406762
 21
20.355343
 31
0.0
 73
     2
  0
POINT
  8
DEFPOINTS
  6
BYBLOCK
 62
     0
 10
304.014763
 20
19.627438
 30
0.0
  0
POINT
  8
DEFPOINTS
  6
BYBLOCK
 62
     0
 10
300.174266
 20
21.083249
 30
0.0
  0
POINT
  8
DEFPOINTS
  6
BYBLOCK
 62
     0
 10
304.481762
 20
21.083249
 30
0.0
  0
ENDBLK
  8
0
  0
BLOCK
  8
0
  2
*D9
 70
    65
 10
0.0
 20
0.0
 30
0.0
  3
*D
  0
LINE
  8
0
  6
BYBLOCK
 62
     0
 10
304.083574
 20
21.083249
 30
0.0
 11
304.539194
 21
21.083249
 31
0.0
  0
LINE
  8
0
  6
BYBLOCK
 62
     0
 10
304.083574
 20
17.881863
 30
0.0
 11
304.539194
 21
17.881863
 31
0.0
  0
LINE
  8
0
  6
BYBLOCK
 62
     0
 10
304.524194
 20
20.933249
 30
0.0
 11
304.524194
 21
18.031863
 31
0.0
  0
SOLID
  8
0
  6
BYBLOCK
 62
     0
 10
304.499194
 20
20.933249
 30
0.0
 11
304.549194
 21
20.933249
 31
0.0
 12
304.524194
 22
21.083249
 32
0.0
 13
304.524194
 23
21.083249
 33
0.0
  0
SOLID
  8
0
  6
BYBLOCK
 62
     0
 10
304.499194
 20
18.031863
 30
0.0
 11
304.549194
 21
18.031863
 31
0.0
 12
304.524194
 22
17.881863
 32
0.0
 13
304.524194
 23
17.881863
 33
0.0
  0
TEXT
  8
0
  6
BYBLOCK
 62
     0
 10
304.486694
 20
19.357556
 30
0.0
 40
0.075
  1
3.20
 50
90.0
  7
ROMANC
 72
     1
 11
304.449194
 21
19.482556
 31
0.0
 73
     2
  0
POINT
  8
DEFPOINTS
  6
BYBLOCK
 62
     0
 10
304.068574
 20
21.083249
 30
0.0
  0
POINT
  8
DEFPOINTS
  6
BYBLOCK
 62
     0
 10
304.068574
 20
17.881863
 30
0.0
  0
POINT
  8
DEFPOINTS
  6
BYBLOCK
 62
     0
 10
304.524194
 20
17.881863
 30
0.0
  0
ENDBLK
  8
0
  0
BLOCK
  8
0
  2
*D10
 70
    65
 10
0.0
 20
0.0
 30
0.0
  3
*D
  0
LINE
  8
0
  6
BYBLOCK
 62
     0
 10
296.101575
 20
18.106863
 30
0.0
 11
296.101575
 21
16.961028
 31
0.0
  0
LINE
  8
0
  6
BYBLOCK
 62
     0
 10
303.611575
 20
18.116863
 30
0.0
 11
303.611575
 21
16.961028
 31
0.0
  0
LINE
  8
0
  6
BYBLOCK
 62
     0
 10
296.251575
 20
16.976028
 30
0.0
 11
303.461575
 21
16.976028
 31
0.0
  0
SOLID
  8
0
  6
BYBLOCK
 62
     0
 10
296.251575
 20
17.001028
 30
0.0
 11
296.251575
 21
16.951028
 31
0.0
 12
296.101575
 22
16.976028
 32
0.0
 13
296.101575
 23
16.976028
 33
0.0
  0
SOLID
  8
0
  6
BYBLOCK
 62
     0
 10
303.461575
 20
17.001028
 30
0.0
 11
303.461575
 21
16.951028
 31
0.0
 12
303.611575
 22
16.976028
 32
0.0
 13
303.611575
 23
16.976028
 33
0.0
  0
TEXT
  8
0
  6
BYBLOCK
 62
     0
 10
299.735147
 20
17.013528
 30
0.0
 40
0.075
  1
7.51
  7
ROMANC
 72
     1
 11
299.856575
 21
17.051028
 31
0.0
 73
     2
  0
POINT
  8
DEFPOINTS
  6
BYBLOCK
 62
     0
 10
296.101575
 20
18.121863
 30
0.0
  0
POINT
  8
DEFPOINTS
  6
BYBLOCK
 62
     0
 10
303.611575
 20
18.131863
 30
0.0
  0
POINT
  8
DEFPOINTS
  6
BYBLOCK
 62
     0
 10
303.611575
 20
16.976028
 30
0.0
  0
ENDBLK
  8
0
  0
ENDSEC
  0
SECTION
  2
ENTITIES
  0
TEXT
  8
0
 10
297.355874
 20
24.706451
 30
0.0
 40
0.3
  1
S = 2019  dm
  7
ROMANC
  0
TEXT
  8
0
 10
297.34278
 20
25.790755
 30
0.0
 40
0.3
  1
TIPUS   NT2019
  7
ROMANC
  0
LINE
  8
0
 10
294.812807
 20
13.344896
 30
0.0
 11
305.312807
 21
13.344896
 31
0.0
  0
LINE
  8
0
 10
305.312807
 20
28.194896
 30
0.0
 11
294.812807
 21
28.194896
 31
0.0
  0
LINE
  8
0
 10
294.812807
 20
28.194896
 30
0.0
 11
294.812807
 21
13.344896
 31
0.0
  0
TEXT
  8
0
 10
297.304857
 20
24.008872
 30
0.0
 40
0.3
  1
P = 192,3 dm
  7
ROMANC
  0
TEXT
  8
0
 10
297.34278
 20
25.305041
 30
0.0
 40
0.3
  1
ESCALA  1:50
  7
ROMANC
  0
LINE
  8
0
 10
305.312807
 20
13.344896
 30
0.0
 11
305.312807
 21
28.194896
 31
0.0
  0
TEXT
  8
0
 10
301.116226
 20
25.012367
 30
0.0
 40
0.1
  1
2
  7
ROMANC
  0
LINE
  8
0
  6
BYBLOCK
 62
     0
 10
299.67528
 20
21.083249
 30
0.0
 11
303.982776
 21
21.083249
 31
0.0
  0
POINT
  8
DEFPOINTS
  6
BYBLOCK
 62
     0
 10
303.500777
 20
19.627438
 30
0.0
  0
POINT
  8
DEFPOINTS
  6
BYBLOCK
 62
     0
 10
299.66028
 20
21.083249
 30
0.0
  0
POINT
  8
DEFPOINTS
  6
BYBLOCK
 62
     0
 10
303.967776
 20
21.083249
 30
0.0
  0
LINE
  8
0
  6
BYBLOCK
 62
     0
 10
295.58759
 20
18.106863
 30
0.0
 11
295.58759
 21
16.961028
 31
0.0
  0
LINE
  8
0
  6
BYBLOCK
 62
     0
 10
303.09759
 20
18.116863
 30
0.0
 11
303.09759
 21
16.961028
 31
0.0
  0
LINE
  8
0
  6
BYBLOCK
 62
     0
 10
295.73759
 20
16.976028
 30
0.0
 11
302.94759
 21
16.976028
 31
0.0
  0
SOLID
  8
0
  6
BYBLOCK
 62
     0
 10
295.73759
 20
17.001028
 30
0.0
 11
295.73759
 21
16.951028
 31
0.0
 12
295.58759
 22
16.976028
 32
0.0
 13
295.58759
 23
16.976028
 33
0.0
  0
SOLID
  8
0
  6
BYBLOCK
 62
     0
 10
302.94759
 20
17.001028
 30
0.0
 11
302.94759
 21
16.951028
 31
0.0
 12
303.09759
 22
16.976028
 32
0.0
 13
303.09759
 23
16.976028
 33
0.0
  0
TEXT
  8
0
  6
BYBLOCK
 62
     0
 10
299.21759
 20
17.013528
 30
0.0
 40
0.075
  1
7.50
  7
ROMANC
 72
     4
 11
299.34259
 21
17.051028
 31
0.0
  0
POINT
  8
DEFPOINTS
  6
BYBLOCK
 62
     0
 10
295.58759
 20
18.121863
 30
0.0
  0
POINT
  8
DEFPOINTS
  6
BYBLOCK
 62
     0
 10
303.09759
 20
18.131863
 30
0.0
  0
POINT
  8
DEFPOINTS
  6
BYBLOCK
 62
     0
 10
303.09759
 20
16.976028
 30
0.0
  0
LINE
  8
0
  6
BYBLOCK
 62
     0
 10
296.39759
 20
17.866863
 30
0.0
 11
296.39759
 21
17.297594
 31
0.0
  0
LINE
  8
0
  6
BYBLOCK
 62
     0
 10
302.29759
 20
17.866863
 30
0.0
 11
302.29759
 21
17.297594
 31
0.0
  0
LINE
  8
0
  6
BYBLOCK
 62
     0
 10
296.54759
 20
17.312594
 30
0.0
 11
302.14759
 21
17.312594
 31
0.0
  0
SOLID
  8
0
  6
BYBLOCK
 62
     0
 10
296.54759
 20
17.337594
 30
0.0
 11
296.54759
 21
17.287594
 31
0.0
 12
296.39759
 22
17.312594
 32
0.0
 13
296.39759
 23
17.312594
 33
0.0
  0
SOLID
  8
0
  6
BYBLOCK
 62
     0
 10
302.14759
 20
17.337594
 30
0.0
 11
302.14759
 21
17.287594
 31
0.0
 12
302.29759
 22
17.312594
 32
0.0
 13
302.29759
 23
17.312594
 33
0.0
  0
TEXT
  8
0
  6
BYBLOCK
 62
     0
 10
299.22259
 20
17.350094
 30
0.0
 40
0.075
  1
5.90
  7
ROMANC
 72
     1
 11
299.34759
 21
17.387594
 31
0.0
 73
     2
  0
POINT
  8
DEFPOINTS
  6
BYBLOCK
 62
     0
 10
296.39759
 20
17.881863
 30
0.0
  0
POINT
  8
DEFPOINTS
  6
BYBLOCK
 62
     0
 10
302.29759
 20
17.881863
 30
0.0
  0
POINT
  8
DEFPOINTS
  6
BYBLOCK
 62
     0
 10
302.29759
 20
17.312594
 30
0.0
  0
ARC
  8
0
 10
299.34759
 20
15.507725
 30
0.0
 40
5.574138
 50
47.72035
 51
132.27965
  0
LINE
  8
0
 10
295.59759
 20
19.631863
 30
0.0
 11
295.59759
 21
18.131863
 31
0.0
  0
LINE
  8
0
 10
295.59759
 20
18.131863
 30
0.0
 11
296.39759
 21
18.131863
 31
0.0
  0
LINE
  8
0
 10
296.39759
 20
18.131863
 30
0.0
 11
296.39759
 21
17.881863
 31
0.0
  0
LINE
  8
0
 10
296.39759
 20
17.881863
 30
0.0
 11
302.29759
 21
17.881863
 31
0.0
  0
LINE
  8
0
 10
302.29759
 20
17.881863
 30
0.0
 11
302.29759
 21
18.131863
 31
0.0
  0
LINE
  8
0
 10
302.29759
 20
18.131863
 30
0.0
 11
303.09759
 21
18.131863
 31
0.0
  0
LINE
  8
0
 10
303.09759
 20
18.131863
 30
0.0
 11
303.09759
 21
19.631863
 31
0.0
  0
ARC
  8
0
 10
299.34759
 20
15.507725
 30
0.0
 40
5.584138
 50
47.674951
 51
132.325049
  0
LINE
  8
0
 10
295.58759
 20
19.636284
 30
0.0
 11
295.58759
 21
18.121863
 31
0.0
  0
LINE
  8
0
 10
295.58759
 20
18.121863
 30
0.0
 11
296.38759
 21
18.121863
 31
0.0
  0
LINE
  8
0
 10
296.38759
 20
18.121863
 30
0.0
 11
296.38759
 21
17.871863
 31
0.0
  0
LINE
  8
0
 10
296.38759
 20
17.871863
 30
0.0
 11
302.30759
 21
17.871863
 31
0.0
  0
LINE
  8
0
 10
302.30759
 20
17.871863
 30
0.0
 11
302.30759
 21
18.121863
 31
0.0
  0
LINE
  8
0
 10
302.30759
 20
18.121863
 30
0.0
 11
303.10759
 21
18.121863
 31
0.0
  0
LINE
  8
0
 10
303.10759
 20
18.121863
 30
0.0
 11
303.10759
 21
19.636284
 31
0.0
  0
ARC
  8
0
 10
299.34759
 20
15.507725
 30
0.0
 40
5.564138
 50
47.76588
 51
132.23412
  0
LINE
  8
0
 10
295.60759
 20
19.627438
 30
0.0
 11
295.60759
 21
18.141863
 31
0.0
  0
LINE
  8
0
 10
295.60759
 20
18.141863
 30
0.0
 11
296.40759
 21
18.141863
 31
0.0
  0
LINE
  8
0
 10
296.40759
 20
18.141863
 30
0.0
 11
296.40759
 21
17.891863
 31
0.0
  0
LINE
  8
0
 10
296.40759
 20
17.891863
 30
0.0
 11
302.28759
 21
17.891863
 31
0.0
  0
LINE
  8
0
 10
302.28759
 20
17.891863
 30
0.0
 11
302.28759
 21
18.141863
 31
0.0
  0
LINE
  8
0
 10
302.28759
 20
18.141863
 30
0.0
 11
303.08759
 21
18.141863
 31
0.0
  0
LINE
  8
0
 10
303.08759
 20
18.141863
 30
0.0
 11
303.08759
 21
19.627438
 31
0.0
  0
LINE
  8
0
  6
BYBLOCK
 62
     0
 10
303.10259
 20
19.627438
 30
0.0
 11
303.569588
 21
19.627438
 31
0.0
  0
LINE
  8
0
  6
BYBLOCK
 62
     0
 10
299.262093
 20
21.083249
 30
0.0
 11
303.569588
 21
21.083249
 31
0.0
  0
LINE
  8
0
  6
BYBLOCK
 62
     0
 10
303.554588
 20
19.777438
 30
0.0
 11
303.554588
 21
20.933249
 31
0.0
  0
SOLID
  8
0
  6
BYBLOCK
 62
     0
 10
303.529588
 20
19.777438
 30
0.0
 11
303.579588
 21
19.777438
 31
0.0
 12
303.554588
 22
19.627438
 32
0.0
 13
303.554588
 23
19.627438
 33
0.0
  0
SOLID
  8
0
  6
BYBLOCK
 62
     0
 10
303.529588
 20
20.933249
 30
0.0
 11
303.579588
 21
20.933249
 31
0.0
 12
303.554588
 22
21.083249
 32
0.0
 13
303.554588
 23
21.083249
 33
0.0
  0
TEXT
  8
0
  6
BYBLOCK
 62
     0
 10
303.517088
 20
20.224986
 30
0.0
 40
0.075
  1
1.45
 50
90.0
  7
ROMANC
 72
     1
 11
303.479588
 21
20.355343
 31
0.0
 73
     2
  0
POINT
  8
DEFPOINTS
  6
BYBLOCK
 62
     0
 10
303.08759
 20
19.627438
 30
0.0
  0
POINT
  8
DEFPOINTS
  6
BYBLOCK
 62
     0
 10
299.247093
 20
21.083249
 30
0.0
  0
POINT
  8
DEFPOINTS
  6
BYBLOCK
 62
     0
 10
303.554588
 20
21.083249
 30
0.0
  0
LINE
  8
0
  6
BYBLOCK
 62
     0
 10
296.39759
 20
17.866863
 30
0.0
 11
296.39759
 21
17.297594
 31
0.0
  0
LINE
  8
0
  6
BYBLOCK
 62
     0
 10
295.59759
 20
18.116863
 30
0.0
 11
295.59759
 21
17.297594
 31
0.0
  0
LINE
  8
0
  6
BYBLOCK
 62
     0
 10
296.24759
 20
17.312594
 30
0.0
 11
295.74759
 21
17.312594
 31
0.0
  0
SOLID
  8
0
  6
BYBLOCK
 62
     0
 10
296.24759
 20
17.337594
 30
0.0
 11
296.24759
 21
17.287594
 31
0.0
 12
296.39759
 22
17.312594
 32
0.0
 13
296.39759
 23
17.312594
 33
0.0
  0
SOLID
  8
0
  6
BYBLOCK
 62
     0
 10
295.74759
 20
17.337594
 30
0.0
 11
295.74759
 21
17.287594
 31
0.0
 12
295.59759
 22
17.312594
 32
0.0
 13
295.59759
 23
17.312594
 33
0.0
  0
TEXT
  8
0
  6
BYBLOCK
 62
     0
 10
295.87259
 20
17.350094
 30
0.0
 40
0.075
  1
0.80
  7
ROMANC
 72
     1
 11
295.99759
 21
17.387594
 31
0.0
 73
     2
  0
POINT
  8
DEFPOINTS
  6
BYBLOCK
 62
     0
 10
296.39759
 20
17.881863
 30
0.0
  0
POINT
  8
DEFPOINTS
  6
BYBLOCK
 62
     0
 10
295.59759
 20
18.131863
 30
0.0
  0
POINT
  8
DEFPOINTS
  6
BYBLOCK
 62
     0
 10
295.59759
 20
17.312594
 30
0.0
  0
LINE
  8
0
  6
BYBLOCK
 62
     0
 10
303.569588
 20
21.083249
 30
0.0
 11
304.025208
 21
21.083249
 31
0.0
  0
LINE
  8
0
  6
BYBLOCK
 62
     0
 10
303.569588
 20
17.881863
 30
0.0
 11
304.025208
 21
17.881863
 31
0.0
  0
LINE
  8
0
  6
BYBLOCK
 62
     0
 10
304.010208
 20
20.933249
 30
0.0
 11
304.010208
 21
18.031863
 31
0.0
  0
SOLID
  8
0
  6
BYBLOCK
 62
     0
 10
303.985208
 20
20.933249
 30
0.0
 11
304.035208
 21
20.933249
 31
0.0
 12
304.010208
 22
21.083249
 32
0.0
 13
304.010208
 23
21.083249
 33
0.0
  0
SOLID
  8
0
  6
BYBLOCK
 62
     0
 10
303.985208
 20
18.031863
 30
0.0
 11
304.035208
 21
18.031863
 31
0.0
 12
304.010208
 22
17.881863
 32
0.0
 13
304.010208
 23
17.881863
 33
0.0
  0
TEXT
  8
0
  6
BYBLOCK
 62
     0
 10
303.972708
 20
19.357556
 30
0.0
 40
0.075
  1
3.20
 50
90.0
  7
ROMANC
 72
     1
 11
303.935208
 21
19.482556
 31
0.0
 73
     2
  0
POINT
  8
DEFPOINTS
  6
BYBLOCK
 62
     0
 10
303.554588
 20
21.083249
 30
0.0
  0
POINT
  8
DEFPOINTS
  6
BYBLOCK
 62
     0
 10
303.554588
 20
17.881863
 30
0.0
  0
POINT
  8
DEFPOINTS
  6
BYBLOCK
 62
     0
 10
304.010208
 20
17.881863
 30
0.0
  0
LINE
  8
0
  6
BYBLOCK
 62
     0
 10
302.29759
 20
17.866863
 30
0.0
 11
302.29759
 21
17.297594
 31
0.0
  0
LINE
  8
0
  6
BYBLOCK
 62
     0
 10
303.08759
 20
18.126863
 30
0.0
 11
303.08759
 21
17.297594
 31
0.0
  0
LINE
  8
0
  6
BYBLOCK
 62
     0
 10
302.14759
 20
17.312594
 30
0.0
 11
301.99759
 21
17.312594
 31
0.0
  0
LINE
  8
0
  6
BYBLOCK
 62
     0
 10
303.23759
 20
17.312594
 30
0.0
 11
303.38759
 21
17.312594
 31
0.0
  0
SOLID
  8
0
  6
BYBLOCK
 62
     0
 10
302.14759
 20
17.337594
 30
0.0
 11
302.14759
 21
17.287594
 31
0.0
 12
302.29759
 22
17.312594
 32
0.0
 13
302.29759
 23
17.312594
 33
0.0
  0
SOLID
  8
0
  6
BYBLOCK
 62
     0
 10
303.23759
 20
17.337594
 30
0.0
 11
303.23759
 21
17.287594
 31
0.0
 12
303.08759
 22
17.312594
 32
0.0
 13
303.08759
 23
17.312594
 33
0.0
  0
LINE
  8
0
  6
BYBLOCK
 62
     0
 10
302.29759
 20
17.312594
 30
0.0
 11
303.08759
 21
17.312594
 31
0.0
  0
TEXT
  8
0
  6
BYBLOCK
 62
     0
 10
302.56759
 20
17.350094
 30
0.0
 40
0.075
  1
0.80
  7
ROMANC
 72
     1
 11
302.69259
 21
17.387594
 31
0.0
 73
     2
  0
POINT
  8
DEFPOINTS
  6
BYBLOCK
 62
     0
 10
302.29759
 20
17.881863
 30
0.0
  0
POINT
  8
DEFPOINTS
  6
BYBLOCK
 62
     0
 10
303.08759
 20
18.141863
 30
0.0
  0
POINT
  8
DEFPOINTS
  6
BYBLOCK
 62
     0
 10
303.08759
 20
17.312594
 30
0.0
  0
LINE
  8
0
  6
BYBLOCK
 62
     0
 10
303.10259
 20
18.141863
 30
0.0
 11
303.569588
 21
18.141863
 31
0.0
  0
LINE
  8
0
  6
BYBLOCK
 62
     0
 10
302.31259
 20
17.881863
 30
0.0
 11
303.569588
 21
17.881863
 31
0.0
  0
LINE
  8
0
  6
BYBLOCK
 62
     0
 10
303.554588
 20
18.291863
 30
0.0
 11
303.554588
 21
18.441863
 31
0.0
  0
LINE
  8
0
  6
BYBLOCK
 62
     0
 10
303.554588
 20
17.731863
 30
0.0
 11
303.554588
 21
17.581863
 31
0.0
  0
SOLID
  8
0
  6
BYBLOCK
 62
     0
 10
303.529588
 20
18.291863
 30
0.0
 11
303.579588
 21
18.291863
 31
0.0
 12
303.554588
 22
18.141863
 32
0.0
 13
303.554588
 23
18.141863
 33
0.0
  0
SOLID
  8
0
  6
BYBLOCK
 62
     0
 10
303.529588
 20
17.731863
 30
0.0
 11
303.579588
 21
17.731863
 31
0.0
 12
303.554588
 22
17.881863
 32
0.0
 13
303.554588
 23
17.881863
 33
0.0
  0
LINE
  8
0
  6
BYBLOCK
 62
     0
 10
303.554588
 20
18.141863
 30
0.0
 11
303.554588
 21
17.881863
 31
0.0
  0
TEXT
  8
0
  6
BYBLOCK
 62
     0
 10
303.517088
 20
17.886863
 30
0.0
 40
0.075
  1
0.25
 50
90.0
  7
ROMANC
 72
     1
 11
303.479588
 21
18.011863
 31
0.0
 73
     2
  0
POINT
  8
DEFPOINTS
  6
BYBLOCK
 62
     0
 10
303.08759
 20
18.141863
 30
0.0
  0
POINT
  8
DEFPOINTS
  6
BYBLOCK
 62
     0
 10
302.29759
 20
17.881863
 30
0.0
  0
POINT
  8
DEFPOINTS
  6
BYBLOCK
 62
     0
 10
303.554588
 20
17.881863
 30
0.0
  0
LINE
  8
0
  6
BYBLOCK
 62
     0
 10
303.10259
 20
19.627438
 30
0.0
 11
303.569588
 21
19.627438
 31
0.0
  0
LINE
  8
0
  6
BYBLOCK
 62
     0
 10
303.10259
 20
18.141863
 30
0.0
 11
303.569588
 21
18.141863
 31
0.0
  0
LINE
  8
0
  6
BYBLOCK
 62
     0
 10
303.554588
 20
19.477438
 30
0.0
 11
303.554588
 21
18.291863
 31
0.0
  0
SOLID
  8
0
  6
BYBLOCK
 62
     0
 10
303.529588
 20
19.477438
 30
0.0
 11
303.579588
 21
19.477438
 31
0.0
 12
303.554588
 22
19.627438
 32
0.0
 13
303.554588
 23
19.627438
 33
0.0
  0
SOLID
  8
0
  6
BYBLOCK
 62
     0
 10
303.529588
 20
18.291863
 30
0.0
 11
303.579588
 21
18.291863
 31
0.0
 12
303.554588
 22
18.141863
 32
0.0
 13
303.554588
 23
18.141863
 33
0.0
  0
TEXT
  8
0
  6
BYBLOCK
 62
     0
 10
303.517088
 20
18.754293
 30
0.0
 40
0.075
  1
1.50
 50
90.0
  7
ROMANC
 72
     1
 11
303.479588
 21
18.88465
 31
0.0
 73
     2
  0
POINT
  8
DEFPOINTS
  6
BYBLOCK
 62
     0
 10
303.08759
 20
19.627438
 30
0.0
  0
POINT
  8
DEFPOINTS
  6
BYBLOCK
 62
     0
 10
303.08759
 20
18.141863
 30
0.0
  0
POINT
  8
DEFPOINTS
  6
BYBLOCK
 62
     0
 10
303.554588
 20
18.141863
 30
0.0
  0
ENDSEC
  0
EOF
