  0
SECTION
  2
HEADER
  9
$ACADVER
  1
AC1009
  9
$INSBASE
 10
118.728365
 20
81.0629
 30
0.0
  9
$EXTMIN
 10
118.728365
 20
81.0629
 30
0.0
  9
$EXTMAX
 10
129.228365
 20
95.9129
 30
0.0
  9
$LIMMIN
 10
0.0
 20
0.0
  9
$LIMMAX
 10
410.0
 20
287.0
  9
$ORTHOMODE
 70
     1
  9
$REGENMODE
 70
     1
  9
$FILLMODE
 70
     1
  9
$QTEXTMODE
 70
     0
  9
$MIRRTEXT
 70
     1
  9
$DRAGMODE
 70
     2
  9
$LTSCALE
 40
25.0
  9
$OSMODE
 70
    32
  9
$ATTMODE
 70
     1
  9
$TEXTSIZE
 40
0.1
  9
$TRACEWID
 40
1.0
  9
$TEXTSTYLE
  7
ROMANC
  9
$CLAYER
  8
0
  9
$CELTYPE
  6
BYLAYER
  9
$CECOLOR
 62
   256
  9
$DIMSCALE
 40
0.0
  9
$DIMASZ
 40
0.0
  9
$DIMEXO
 40
0.1
  9
$DIMDLI
 40
7.0
  9
$DIMRND
 40
0.0
  9
$DIMDLE
 40
0.0
  9
$DIMEXE
 40
1.8
  9
$DIMTP
 40
0.0
  9
$DIMTM
 40
0.0
  9
$DIMTXT
 40
0.03
  9
$DIMCEN
 40
1.5
  9
$DIMTSZ
 40
1.0
  9
$DIMTOL
 70
     0
  9
$DIMLIM
 70
     0
  9
$DIMTIH
 70
     0
  9
$DIMTOH
 70
     0
  9
$DIMSE1
 70
     0
  9
$DIMSE2
 70
     0
  9
$DIMTAD
 70
     0
  9
$DIMZIN
 70
     0
  9
$DIMBLK
  1

  9
$DIMASO
 70
     1
  9
$DIMSHO
 70
     0
  9
$DIMPOST
  1

  9
$DIMAPOST
  1

  9
$DIMALT
 70
     0
  9
$DIMALTD
 70
     2
  9
$DIMALTF
 40
25.4
  9
$DIMLFAC
 40
1.0
  9
$DIMTOFL
 70
     1
  9
$DIMTVP
 40
0.0
  9
$DIMTIX
 70
     1
  9
$DIMSOXD
 70
     0
  9
$DIMSAH
 70
     0
  9
$DIMBLK1
  1

  9
$DIMBLK2
  1

  9
$DIMSTYLE
  2
*UNNAMED
  9
$DIMCLRD
 70
     0
  9
$DIMCLRE
 70
     0
  9
$DIMCLRT
 70
     0
  9
$DIMTFAC
 40
116.666667
  9
$DIMGAP
 40
0.09
  9
$LUNITS
 70
     2
  9
$LUPREC
 70
     2
  9
$SKETCHINC
 40
1.0
  9
$FILLETRAD
 40
0.0
  9
$AUNITS
 70
     0
  9
$AUPREC
 70
     0
  9
$MENU
  1
acad
  9
$ELEVATION
 40
0.0
  9
$PELEVATION
 40
0.0
  9
$THICKNESS
 40
0.0
  9
$LIMCHECK
 70
     0
  9
$BLIPMODE
 70
     0
  9
$CHAMFERA
 40
0.0
  9
$CHAMFERB
 40
0.0
  9
$SKPOLY
 70
     0
  9
$TDCREATE
 40
2449962.690106366
  9
$TDUPDATE
 40
2449962.690106366
  9
$TDINDWG
 40
0.0000000000
  9
$TDUSRTIMER
 40
0.0000000000
  9
$USRTIMER
 70
     1
  9
$ANGBASE
 50
0.0
  9
$ANGDIR
 70
     0
  9
$PDMODE
 70
     0
  9
$PDSIZE
 40
0.0
  9
$PLINEWID
 40
0.0
  9
$COORDS
 70
     2
  9
$SPLFRAME
 70
     0
  9
$SPLINETYPE
 70
     6
  9
$SPLINESEGS
 70
     8
  9
$ATTDIA
 70
     0
  9
$ATTREQ
 70
     1
  9
$HANDLING
 70
     0
  9
$HANDSEED
  5
0
  9
$SURFTAB1
 70
     6
  9
$SURFTAB2
 70
     6
  9
$SURFTYPE
 70
     6
  9
$SURFU
 70
     6
  9
$SURFV
 70
     6
  9
$UCSNAME
  2

  9
$UCSORG
 10
0.0
 20
0.0
 30
0.0
  9
$UCSXDIR
 10
1.0
 20
0.0
 30
0.0
  9
$UCSYDIR
 10
0.0
 20
1.0
 30
0.0
  9
$PUCSNAME
  2

  9
$PUCSORG
 10
0.0
 20
0.0
 30
0.0
  9
$PUCSXDIR
 10
1.0
 20
0.0
 30
0.0
  9
$PUCSYDIR
 10
0.0
 20
1.0
 30
0.0
  9
$USERI1
 70
     0
  9
$USERI2
 70
     0
  9
$USERI3
 70
     0
  9
$USERI4
 70
     0
  9
$USERI5
 70
     0
  9
$USERR1
 40
0.0
  9
$USERR2
 40
0.0
  9
$USERR3
 40
0.0
  9
$USERR4
 40
0.0
  9
$USERR5
 40
0.0
  9
$WORLDVIEW
 70
     1
  9
$SHADEDGE
 70
     3
  9
$SHADEDIF
 70
    70
  9
$TILEMODE
 70
     1
  9
$MAXACTVP
 70
    16
  9
$PINSBASE
 10
0.0
 20
0.0
 30
0.0
  9
$PLIMCHECK
 70
     0
  9
$PEXTMIN
 10
1.000000E+20
 20
1.000000E+20
 30
1.000000E+20
  9
$PEXTMAX
 10
-1.000000E+20
 20
-1.000000E+20
 30
-1.000000E+20
  9
$PLIMMIN
 10
0.0
 20
0.0
  9
$PLIMMAX
 10
12.0
 20
9.0
  9
$UNITMODE
 70
     0
  9
$VISRETAIN
 70
     0
  9
$PLINEGEN
 70
     0
  9
$PSLTSCALE
 70
     0
  9
$TREEDEPTH
 70
  3020
  9
$DWGCODEPAGE
  3
iso8859-1
  0
ENDSEC
  0
SECTION
  2
TABLES
  0
TABLE
  2
VPORT
 70
     1
  0
VPORT
  2
*ACTIVE
 70
     0
 10
0.0
 20
0.0
 11
1.0
 21
1.0
 12
130.690216
 22
88.4879
 13
0.0
 23
0.0
 14
1.0
 24
1.0
 15
10.0
 25
10.0
 16
0.0
 26
0.0
 36
1.0
 17
0.0
 27
0.0
 37
0.0
 40
14.85
 41
1.611024
 42
50.0
 43
0.0
 44
0.0
 50
0.0
 51
0.0
 71
     0
 72
   100
 73
     1
 74
     0
 75
     0
 76
     0
 77
     0
 78
     2
  0
ENDTAB
  0
TABLE
  2
LTYPE
 70
     1
  0
LTYPE
  2
CONTINUOUS
 70
    64
  3
Solid line
 72
    65
 73
     0
 40
0.0
  0
ENDTAB
  0
TABLE
  2
LAYER
 70
     2
  0
LAYER
  2
0
 70
    64
 62
     7
  6
CONTINUOUS
  0
LAYER
  2
MESURA
 70
    64
 62
     7
  6
CONTINUOUS
  0
ENDTAB
  0
TABLE
  2
STYLE
 70
     2
  0
STYLE
  2
STANDARD
 70
     0
 40
0.0
 41
1.0
 50
0.0
 71
     0
 42
0.1
  3
txt
  4

  0
STYLE
  2
ROMANC
 70
    64
 40
0.0
 41
1.0
 50
0.0
 71
     0
 42
0.1
  3
romanc
  4

  0
ENDTAB
  0
TABLE
  2
VIEW
 70
     0
  0
ENDTAB
  0
TABLE
  2
UCS
 70
     0
  0
ENDTAB
  0
TABLE
  2
APPID
 70
     1
  0
APPID
  2
ACAD
 70
    64
  0
ENDTAB
  0
TABLE
  2
DIMSTYLE
 70
     0
  0
ENDTAB
  0
ENDSEC
  0
SECTION
  2
BLOCKS
  0
ENDSEC
  0
SECTION
  2
ENTITIES
  0
LINE
  8
0
 10
126.554774
 20
86.008058
 30
0.0
 11
126.554774
 21
85.428058
 31
0.0
  0
LINE
  8
0
 10
126.02193
 20
86.008058
 30
0.0
 11
126.02193
 21
84.115214
 31
0.0
  0
LINE
  8
MESURA
  6
BYBLOCK
 62
     0
 10
126.454774
 20
85.908058
 30
0.0
 11
126.654774
 21
86.108058
 31
0.0
  0
LINE
  8
0
 10
120.02193
 20
86.008058
 30
0.0
 11
120.02193
 21
84.115214
 31
0.0
  0
LINE
  8
0
 10
118.728365
 20
95.9129
 30
0.0
 11
118.728365
 21
81.0629
 31
0.0
  0
LINE
  8
0
 10
129.228365
 20
81.0629
 30
0.0
 11
129.228365
 21
95.9129
 31
0.0
  0
LINE
  8
0
 10
127.334774
 20
88.008058
 30
0.0
 11
127.334774
 21
85.428058
 31
0.0
  0
LINE
  8
0
 10
126.02193
 20
84.115214
 30
0.0
 11
120.02193
 21
84.115214
 31
0.0
  0
LINE
  8
0
 10
118.728365
 20
81.0629
 30
0.0
 11
129.228365
 21
81.0629
 31
0.0
  0
LINE
  8
MESURA
  6
BYBLOCK
 62
     0
 10
119.92193
 20
84.015214
 30
0.0
 11
120.12193
 21
84.215214
 31
0.0
  0
TEXT
  8
0
 10
123.083533
 20
83.828037
 30
0.0
 40
0.1
  1
6.0
  7
ROMANC
  0
LINE
  8
0
 10
126.02193
 20
84.695214
 30
0.0
 11
125.24193
 21
84.695214
 31
0.0
  0
LINE
  8
0
 10
125.24193
 20
85.428058
 30
0.0
 11
125.24193
 21
84.695214
 31
0.0
  0
LINE
  8
0
 10
125.24193
 20
85.428058
 30
0.0
 11
126.554774
 21
85.428058
 31
0.0
  0
LINE
  8
0
 10
126.554774
 20
85.428058
 30
0.0
 11
127.334774
 21
85.428058
 31
0.0
  0
LINE
  8
MESURA
  6
BYBLOCK
 62
     0
 10
125.92193
 20
84.015214
 30
0.0
 11
126.12193
 21
84.215214
 31
0.0
  0
LINE
  8
MESURA
  6
BYBLOCK
 62
     0
 10
125.14193
 20
84.595214
 30
0.0
 11
125.34193
 21
84.795214
 31
0.0
  0
LINE
  8
MESURA
  6
BYBLOCK
 62
     0
 10
125.92193
 20
84.595214
 30
0.0
 11
126.12193
 21
84.795214
 31
0.0
  0
LINE
  8
MESURA
  6
BYBLOCK
 62
     0
 10
126.454774
 20
85.328058
 30
0.0
 11
126.654774
 21
85.528058
 31
0.0
  0
LINE
  8
MESURA
  6
BYBLOCK
 62
     0
 10
127.234774
 20
85.328058
 30
0.0
 11
127.434774
 21
85.528058
 31
0.0
  0
TEXT
  8
0
 10
125.423474
 20
84.439959
 30
0.0
 40
0.1
  1
0.78
  7
ROMANC
  0
TEXT
  8
0
 10
126.691853
 20
85.685659
 30
0.0
 40
0.1
  1
0.58
  7
ROMANC
  0
LINE
  8
0
 10
123.02193
 20
89.178058
 30
0.0
 11
127.334774
 21
89.178058
 31
0.0
  0
TEXT
  8
0
 10
121.258338
 20
93.508759
 30
0.0
 40
0.3
  1
TIPUS   NT2009
  7
ROMANC
  0
LINE
  8
0
 10
129.228365
 20
95.9129
 30
0.0
 11
118.728365
 21
95.9129
 31
0.0
  0
TEXT
  8
0
 10
121.29887
 20
91.771523
 30
0.0
 40
0.3
  1
P = 180.3 dm
  7
ROMANC
  0
TEXT
  8
0
 10
121.258338
 20
93.023045
 30
0.0
 40
0.3
  1
ESCALA  1:50
  7
ROMANC
  0
TEXT
  8
0
 10
121.271432
 20
92.424455
 30
0.0
 40
0.3
  1
S = 2009 dm
  7
ROMANC
  0
TEXT
  8
0
 10
124.660537
 20
92.737767
 30
0.0
 40
0.1
  1
2
  7
ROMANC
  0
TEXT
  8
0
 10
127.468464
 20
88.594033
 30
0.0
 40
0.1
  1
1.17
  7
ROMANC
  0
TEXT
  8
0
 10
127.484727
 20
86.69244
 30
0.0
 40
0.1
  1
2.58
  7
ROMANC
  0
LINE
  8
0
 10
127.334774
 20
88.008058
 30
0.0
 11
127.334774
 21
89.178058
 31
0.0
  0
LINE
  8
0
 10
126.02193
 20
88.008058
 30
0.0
 11
127.334774
 21
88.008058
 31
0.0
  0
LINE
  8
MESURA
  6
BYBLOCK
 62
     0
 10
127.234774
 20
87.908058
 30
0.0
 11
127.434774
 21
88.108058
 31
0.0
  0
LINE
  8
0
 10
126.02193
 20
86.008058
 30
0.0
 11
126.554774
 21
86.008058
 31
0.0
  0
LINE
  8
0
 10
123.622461
 20
89.178058
 30
0.0
 11
127.935305
 21
89.178058
 31
0.0
  0
LINE
  8
0
 10
127.935305
 20
88.008058
 30
0.0
 11
127.935305
 21
89.178058
 31
0.0
  0
TEXT
  8
0
 10
128.085259
 20
87.355838
 30
0.0
 40
0.1
  1
3.75
  7
ROMANC
  0
LINE
  8
0
 10
127.155305
 20
85.428058
 30
0.0
 11
127.935305
 21
85.428058
 31
0.0
  0
LINE
  8
MESURA
  6
BYBLOCK
 62
     0
 10
127.835305
 20
85.328058
 30
0.0
 11
128.035305
 21
85.528058
 31
0.0
  0
LINE
  8
0
 10
127.935305
 20
88.008058
 30
0.0
 11
127.935305
 21
85.428058
 31
0.0
  0
LINE
  8
MESURA
  6
BYBLOCK
 62
     0
 10
127.234774
 20
89.078889
 30
0.0
 11
127.434774
 21
89.278889
 31
0.0
  0
LINE
  8
MESURA
  6
BYBLOCK
 62
     0
 10
127.805771
 20
89.049372
 30
0.0
 11
128.005771
 21
89.249372
 31
0.0
  0
LINE
  8
0
 10
120.797039
 20
84.695214
 30
0.0
 11
120.017039
 21
84.695214
 31
0.0
  0
LINE
  8
0
 10
120.017039
 20
85.428058
 30
0.0
 11
120.017039
 21
84.695214
 31
0.0
  0
LINE
  8
MESURA
  6
BYBLOCK
 62
     0
 10
119.917039
 20
84.595214
 30
0.0
 11
120.117039
 21
84.795214
 31
0.0
  0
TEXT
  8
0
 10
120.198583
 20
84.439959
 30
0.0
 40
0.1
  1
0.78
  7
ROMANC
  0
LINE
  8
MESURA
  6
BYBLOCK
 62
     0
 10
120.697039
 20
84.595214
 30
0.0
 11
120.897039
 21
84.795214
 31
0.0
  0
LINE
  8
0
 10
120.797039
 20
86.008058
 30
0.0
 11
120.797039
 21
84.695214
 31
0.0
  0
TEXT
  8
0
 10
123.083533
 20
84.38041
 30
0.0
 40
0.1
  1
4.44
  7
ROMANC
  0
LINE
  8
0
 10
120.797039
 20
84.695214
 30
0.0
 11
125.24193
 21
84.695214
 31
0.0
  0
LINE
  8
0
 10
120.81193
 20
85.438058
 30
0.0
 11
120.81193
 21
86.018058
 31
0.0
  0
LINE
  8
0
 10
120.81193
 20
86.018058
 30
0.0
 11
120.03193
 21
86.018058
 31
0.0
  0
LINE
  8
0
 10
120.03193
 20
86.018058
 30
0.0
 11
120.03193
 21
88.008058
 31
0.0
  0
ARC
  8
0
 10
120.535865
 20
88.008058
 30
0.0
 40
0.503935
 50
133.275438
 51
180.0
  0
ARC
  8
0
 10
121.709326
 20
86.761742
 30
0.0
 40
2.215751
 50
111.305784
 51
133.275438
  0
ARC
  8
0
 10
122.499566
 20
84.735484
 30
0.0
 40
4.390654
 50
99.176473
 51
111.305784
  0
ARC
  8
0
 10
123.02193
 20
81.501901
 30
0.0
 40
7.666157
 50
90.0
 51
99.176473
  0
ARC
  8
0
 10
123.02193
 20
81.501901
 30
0.0
 40
7.666157
 50
80.823527
 51
90.0
  0
ARC
  8
0
 10
123.544294
 20
84.735484
 30
0.0
 40
4.390654
 50
68.694216
 51
80.823527
  0
ARC
  8
0
 10
124.334534
 20
86.761742
 30
0.0
 40
2.215751
 50
46.724562
 51
68.694216
  0
ARC
  8
0
 10
125.507995
 20
88.008058
 30
0.0
 40
0.503935
 50
0.0
 51
46.724562
  0
LINE
  8
0
 10
126.01193
 20
88.008058
 30
0.0
 11
126.01193
 21
86.018058
 31
0.0
  0
LINE
  8
0
 10
126.01193
 20
86.018058
 30
0.0
 11
125.23193
 21
86.018058
 31
0.0
  0
LINE
  8
0
 10
125.23193
 20
86.018058
 30
0.0
 11
125.23193
 21
85.438058
 31
0.0
  0
LINE
  8
0
 10
125.23193
 20
85.438058
 30
0.0
 11
120.81193
 21
85.438058
 31
0.0
  0
LINE
  8
0
 10
120.79193
 20
85.418058
 30
0.0
 11
120.79193
 21
85.998058
 31
0.0
  0
LINE
  8
0
 10
120.79193
 20
85.998058
 30
0.0
 11
120.01193
 21
85.998058
 31
0.0
  0
LINE
  8
0
 10
120.01193
 20
85.998058
 30
0.0
 11
120.01193
 21
88.008058
 31
0.0
  0
ARC
  8
0
 10
120.535865
 20
88.008058
 30
0.0
 40
0.523935
 50
133.275438
 51
180.0
  0
ARC
  8
0
 10
121.709326
 20
86.761742
 30
0.0
 40
2.235751
 50
111.305784
 51
133.275438
  0
ARC
  8
0
 10
122.499566
 20
84.735484
 30
0.0
 40
4.410654
 50
99.176473
 51
111.305784
  0
ARC
  8
0
 10
123.02193
 20
81.501901
 30
0.0
 40
7.686157
 50
90.0
 51
99.176473
  0
ARC
  8
0
 10
123.02193
 20
81.501901
 30
0.0
 40
7.686157
 50
80.823527
 51
90.0
  0
ARC
  8
0
 10
123.544294
 20
84.735484
 30
0.0
 40
4.410654
 50
68.694216
 51
80.823527
  0
ARC
  8
0
 10
124.334534
 20
86.761742
 30
0.0
 40
2.235751
 50
46.724562
 51
68.694216
  0
ARC
  8
0
 10
125.507995
 20
88.008058
 30
0.0
 40
0.523935
 50
0.0
 51
46.724562
  0
LINE
  8
0
 10
126.03193
 20
88.008058
 30
0.0
 11
126.03193
 21
85.998058
 31
0.0
  0
LINE
  8
0
 10
126.03193
 20
85.998058
 30
0.0
 11
125.25193
 21
85.998058
 31
0.0
  0
LINE
  8
0
 10
125.25193
 20
85.998058
 30
0.0
 11
125.25193
 21
85.418058
 31
0.0
  0
LINE
  8
0
 10
125.25193
 20
85.418058
 30
0.0
 11
120.79193
 21
85.418058
 31
0.0
  0
LINE
  8
0
 10
120.80193
 20
85.428058
 30
0.0
 11
120.80193
 21
86.008058
 31
0.0
  0
LINE
  8
0
 10
120.80193
 20
86.008058
 30
0.0
 11
120.02193
 21
86.008058
 31
0.0
  0
LINE
  8
0
 10
120.02193
 20
86.008058
 30
0.0
 11
120.02193
 21
88.008058
 31
0.0
  0
ARC
  8
0
 10
120.535865
 20
88.008058
 30
0.0
 40
0.513935
 50
133.275438
 51
180.0
  0
ARC
  8
0
 10
121.709326
 20
86.761742
 30
0.0
 40
2.225751
 50
111.305784
 51
133.275438
  0
ARC
  8
0
 10
122.499566
 20
84.735484
 30
0.0
 40
4.400654
 50
99.176473
 51
111.305784
  0
ARC
  8
0
 10
123.02193
 20
81.501901
 30
0.0
 40
7.676157
 50
90.0
 51
99.176473
  0
ARC
  8
0
 10
123.02193
 20
81.501901
 30
0.0
 40
7.676157
 50
80.823527
 51
90.0
  0
ARC
  8
0
 10
123.544294
 20
84.735484
 30
0.0
 40
4.400654
 50
68.694216
 51
80.823527
  0
ARC
  8
0
 10
124.334534
 20
86.761742
 30
0.0
 40
2.225751
 50
46.724562
 51
68.694216
  0
ARC
  8
0
 10
125.507995
 20
88.008058
 30
0.0
 40
0.513935
 50
0.0
 51
46.724562
  0
LINE
  8
0
 10
126.02193
 20
88.008058
 30
0.0
 11
126.02193
 21
86.008058
 31
0.0
  0
LINE
  8
0
 10
126.02193
 20
86.008058
 30
0.0
 11
125.24193
 21
86.008058
 31
0.0
  0
LINE
  8
0
 10
125.24193
 20
86.008058
 30
0.0
 11
125.24193
 21
85.428058
 31
0.0
  0
LINE
  8
0
 10
125.24193
 20
85.428058
 30
0.0
 11
120.80193
 21
85.428058
 31
0.0
  0
ARC
  8
0
 10
120.02193
 20
88.008058
 30
0.0
 40
0.0
 50
0.0
 51
0.0
  0
ENDSEC
  0
EOF
