  0
SECTION
  2
HEADER
  9
$ACADVER
  1
AC1009
  9
$INSBASE
 10
0.0
 20
0.0
 30
0.0
  9
$EXTMIN
 10
281.396000
 20
29.897000
 30
-2147483.648000
  9
$EXTMAX
 10
291.896000
 20
44.747000
 30
0.000000
  9
$LIMMIN
 10
280.396000
 20
28.897000
  9
$LIMMAX
 10
292.896000
 20
43.747000
  9
$ORTHOMODE
 70
     0
  9
$REGENMODE
 70
     1
  9
$FILLMODE
 70
     1
  9
$QTEXTMODE
 70
     0
  9
$MIRRTEXT
 70
     1
  9
$DRAGMODE
 70
     2
  9
$LTSCALE
 40
1.0
  9
$OSMODE
 70
     0
  9
$ATTMODE
 70
     1
  9
$TEXTSIZE
 40
0.2
  9
$TRACEWID
 40
0.05
  9
$TEXTSTYLE
  7
STANDARD
  9
$CLAYER
  8
0
  9
$CELTYPE
  6
BYLAYER
  9
$CECOLOR
 62
   256
  9
$DIMSCALE
 40
1.0
  9
$DIMASZ
 40
0.18
  9
$DIMEXO
 40
0.0625
  9
$DIMDLI
 40
0.38
  9
$DIMRND
 40
0.0
  9
$DIMDLE
 40
0.0
  9
$DIMEXE
 40
0.18
  9
$DIMTP
 40
0.0
  9
$DIMTM
 40
0.0
  9
$DIMTXT
 40
0.18
  9
$DIMCEN
 40
0.09
  9
$DIMTSZ
 40
0.0
  9
$DIMTOL
 70
     0
  9
$DIMLIM
 70
     0
  9
$DIMTIH
 70
     1
  9
$DIMTOH
 70
     1
  9
$DIMSE1
 70
     0
  9
$DIMSE2
 70
     0
  9
$DIMTAD
 70
     0
  9
$DIMZIN
 70
     0
  9
$DIMBLK
  1

  9
$DIMASO
 70
     1
  9
$DIMSHO
 70
     1
  9
$DIMPOST
  1

  9
$DIMAPOST
  1

  9
$DIMALT
 70
     0
  9
$DIMALTD
 70
     2
  9
$DIMALTF
 40
25.4
  9
$DIMLFAC
 40
1.0
  9
$DIMTOFL
 70
     0
  9
$DIMTVP
 40
0.0
  9
$DIMTIX
 70
     0
  9
$DIMSOXD
 70
     0
  9
$DIMSAH
 70
     0
  9
$DIMBLK1
  1

  9
$DIMBLK2
  1

  9
$DIMSTYLE
  2
*UNNAMED
  9
$DIMCLRD
 70
     0
  9
$DIMCLRE
 70
     0
  9
$DIMCLRT
 70
     0
  9
$DIMTFAC
 40
1.0
  9
$DIMGAP
 40
0.09
  9
$LUNITS
 70
     2
  9
$LUPREC
 70
     4
  9
$AXISMODE
 70
     0
  9
$AXISUNIT
 10
0.0
 20
0.0
  9
$SKETCHINC
 40
0.1
  9
$FILLETRAD
 40
0.0
  9
$AUNITS
 70
     0
  9
$AUPREC
 70
     0
  9
$MENU
  1
acad
  9
$ELEVATION
 40
0.0
  9
$PELEVATION
 40
0.0
  9
$THICKNESS
 40
0.0
  9
$LIMCHECK
 70
     0
  9
$BLIPMODE
 70
     1
  9
$CHAMFERA
 40
0.0
  9
$CHAMFERB
 40
0.0
  9
$SKPOLY
 70
     0
  9
$TDCREATE
 40
2448315.373408102
  9
$TDUPDATE
 40
2448315.373408102
  9
$TDINDWG
 40
0.0000000000
  9
$TDUSRTIMER
 40
0.0000000000
  9
$USRTIMER
 70
     1
  9
$ANGBASE
 50
0.0
  9
$ANGDIR
 70
     0
  9
$PDMODE
 70
     0
  9
$PDSIZE
 40
0.0
  9
$PLINEWID
 40
0.0
  9
$COORDS
 70
     0
  9
$SPLFRAME
 70
     0
  9
$SPLINETYPE
 70
     6
  9
$SPLINESEGS
 70
     8
  9
$ATTDIA
 70
     0
  9
$ATTREQ
 70
     1
  9
$HANDLING
 70
     0
  9
$HANDSEED
  5
0
  9
$SURFTAB1
 70
     6
  9
$SURFTAB2
 70
     6
  9
$SURFTYPE
 70
     6
  9
$SURFU
 70
     6
  9
$SURFV
 70
     6
  9
$UCSNAME
  2

  9
$UCSORG
 10
0.0
 20
0.0
 30
0.0
  9
$UCSXDIR
 10
1.0
 20
0.0
 30
0.0
  9
$UCSYDIR
 10
0.0
 20
1.0
 30
0.0
  9
$PUCSNAME
  2

  9
$PUCSORG
 10
0.0
 20
0.0
 30
0.0
  9
$PUCSXDIR
 10
1.0
 20
0.0
 30
0.0
  9
$PUCSYDIR
 10
0.0
 20
1.0
 30
0.0
  9
$USERI1
 70
     0
  9
$USERI2
 70
     0
  9
$USERI3
 70
     0
  9
$USERI4
 70
     0
  9
$USERI5
 70
     0
  9
$USERR1
 40
0.0
  9
$USERR2
 40
0.0
  9
$USERR3
 40
0.0
  9
$USERR4
 40
0.0
  9
$USERR5
 40
0.0
  9
$WORLDVIEW
 70
     1
  9
$SHADEDGE
 70
     3
  9
$SHADEDIF
 70
    70
  9
$TILEMODE
 70
     1
  9
$MAXACTVP
 70
    16
  9
$PINSBASE
 10
0.0
 20
0.0
 30
0.0
  9
$PLIMCHECK
 70
     0
  9
$PEXTMIN
 10
1.000000E+20
 20
1.000000E+20
 30
1.000000E+20
  9
$PEXTMAX
 10
-1.000000E+20
 20
-1.000000E+20
 30
-1.000000E+20
  9
$PLIMMIN
 10
0.0
 20
0.0
  9
$PLIMMAX
 10
12.0
 20
9.0
  9
$UNITMODE
 70
     0
  9
$VISRETAIN
 70
     0
  0
ENDSEC
  0
SECTION
  2
TABLES
  0
TABLE
  2
LTYPE
 70
    1
  0
LTYPE
  2
CONTINUOUS
 70
    64
3
Solid line
 72
    65
 73
0
 40
0.000000
  0
ENDTAB
  0
TABLE
  2
LAYER
 70
    8
  0
LAYER
  2
0
 70
    64
 62
7
  6
CONTINUOUS
  0
LAYER
  2
1
 70
    64
 62
7
  6
CONTINUOUS
  0
LAYER
  2
7
 70
    64
 62
7
  6
CONTINUOUS
  0
LAYER
  2
8
 70
    64
 62
7
  6
CONTINUOUS
  0
LAYER
  2
9
 70
    64
 62
7
  6
CONTINUOUS
  0
LAYER
  2
22
 70
    64
 62
7
  6
CONTINUOUS
  0
LAYER
  2
25
 70
    64
 62
7
  6
CONTINUOUS
  0
LAYER
  2
0
 70
    64
 62
7
  6
CONTINUOUS
  0
ENDTAB
  0
TABLE
  2
STYLE
 70
    1
  0
STYLE
  2
ROMANC
70
     0
 40
0.0
 41
1.0
 50
0.0
 71
     0
 42
0.2
  3
ROMANC
  4

  0
ENDTAB
  0
ENDSEC
  0
SECTION
  2
BLOCKS
  0
ENDSEC
  0
SECTION
  2
ENTITIES
  0
TEXT
  8
0
  6
CONTINUOUS
 40
0.100000
 10
287.008000
 20
41.338000
  1
2
  7
ROMANC
  0
TEXT
  8
0
  6
CONTINUOUS
 40
0.300000
 10
283.926000
 20
41.768000
  1
ESCALA  1:50
  7
ROMANC
  0
POLYLINE
  8
0
  6
CONTINUOUS
 66
     1
 70
     1
  0
VERTEX
  8
0
  6
CONTINUOUS
 10
281.396000
 20
44.747000
  0
VERTEX
  8
0
  6
CONTINUOUS
 10
291.896000
 20
44.747000
  0
VERTEX
  8
0
  6
CONTINUOUS
 10
291.896000
 20
29.897000
  0
VERTEX
  8
0
  6
CONTINUOUS
 10
281.396000
 20
29.897000
  0
SEQEND
  8
0
  0
TEXT
  8
0
  6
CONTINUOUS
 40
0.300000
 10
283.945000
 20
41.099000
  1
S = 190 dm
  7
ROMANC
  0
TEXT
  8
0
  6
CONTINUOUS
 40
0.300000
 10
283.922000
 20
40.529000
  1
P = 51 dm
  7
ROMANC
  0
TEXT
  8
0
  6
CONTINUOUS
 40
0.300000
 10
283.926000
 20
42.381000
  1
TIPUS   NT190B
  7
ROMANC
  0
POLYLINE
  8
1
  6
CONTINUOUS
 66
     1
 70
     0
  0
VERTEX
  8
1
  6
CONTINUOUS
 10
285.972048
 20
36.014285
 42
0.031010
  0
VERTEX
  8
1
  6
CONTINUOUS
 10
285.976463
 20
35.956715
 42
0.031482
  0
VERTEX
  8
1
  6
CONTINUOUS
 10
285.987995
 20
35.900144
 42
0.031779
  0
VERTEX
  8
1
  6
CONTINUOUS
 10
286.006259
 20
35.846470
 42
0.033041
  0
VERTEX
  8
1
  6
CONTINUOUS
 10
286.031279
 20
35.795607
 42
0.033583
  0
VERTEX
  8
1
  6
CONTINUOUS
 10
286.061893
 20
35.749975
 42
0.035419
  0
VERTEX
  8
1
  6
CONTINUOUS
 10
286.098459
 20
35.708981
 42
0.036098
  0
VERTEX
  8
1
  6
CONTINUOUS
 10
286.139051
 20
35.674890
 42
0.038026
  0
VERTEX
  8
1
  6
CONTINUOUS
 10
286.184197
 20
35.647149
 42
0.038625
  0
VERTEX
  8
1
  6
CONTINUOUS
 10
286.231688
 20
35.627269
 42
0.039902
  0
VERTEX
  8
1
  6
CONTINUOUS
 10
286.281680
 20
35.615025
 42
0.040146
  0
VERTEX
  8
1
  6
CONTINUOUS
 10
286.332427
 20
35.611033
 42
0.040140
  0
VERTEX
  8
1
  6
CONTINUOUS
 10
286.383162
 20
35.615162
 42
0.039893
  0
VERTEX
  8
1
  6
CONTINUOUS
 10
286.433131
 20
35.627541
 42
0.038606
  0
VERTEX
  8
1
  6
CONTINUOUS
 10
286.480578
 20
35.647548
 42
0.038006
  0
VERTEX
  8
1
  6
CONTINUOUS
 10
286.525668
 20
35.675411
 42
0.036075
  0
VERTEX
  8
1
  6
CONTINUOUS
 10
286.566188
 20
35.709610
 42
0.035397
  0
VERTEX
  8
1
  6
CONTINUOUS
 10
286.602668
 20
35.750702
 42
0.033564
  0
VERTEX
  8
1
  6
CONTINUOUS
 10
286.633188
 20
35.796417
 42
0.033024
  0
VERTEX
  8
1
  6
CONTINUOUS
 10
286.658102
 20
35.847346
 42
0.031769
  0
VERTEX
  8
1
  6
CONTINUOUS
 10
286.676254
 20
35.901070
 42
0.031473
  0
VERTEX
  8
1
  6
CONTINUOUS
 10
286.687669
 20
35.957670
 42
0.031008
  0
VERTEX
  8
1
  6
CONTINUOUS
 10
286.691965
 20
36.015254
  0
SEQEND
  8
0
  0
POLYLINE
  8
1
  6
CONTINUOUS
 66
     1
 70
     0
  0
VERTEX
  8
1
  6
CONTINUOUS
 10
285.962189
 20
36.007580
 42
0.030824
  0
VERTEX
  8
1
  6
CONTINUOUS
 10
285.967447
 20
35.949268
 42
0.031318
  0
VERTEX
  8
1
  6
CONTINUOUS
 10
285.979868
 20
35.892057
 42
0.031616
  0
VERTEX
  8
1
  6
CONTINUOUS
 10
285.999040
 20
35.837863
 42
0.032854
  0
VERTEX
  8
1
  6
CONTINUOUS
 10
286.024992
 20
35.786584
 42
0.033381
  0
VERTEX
  8
1
  6
CONTINUOUS
 10
286.056542
 20
35.740615
 42
0.035150
  0
VERTEX
  8
1
  6
CONTINUOUS
 10
286.094043
 20
35.699381
 42
0.035799
  0
VERTEX
  8
1
  6
CONTINUOUS
 10
286.135574
 20
35.665099
 42
0.037633
  0
VERTEX
  8
1
  6
CONTINUOUS
 10
286.181640
 20
35.637244
 42
0.038199
  0
VERTEX
  8
1
  6
CONTINUOUS
 10
286.230058
 20
35.617286
 42
0.039402
  0
VERTEX
  8
1
  6
CONTINUOUS
 10
286.280956
 20
35.605016
 42
0.039630
  0
VERTEX
  8
1
  6
CONTINUOUS
 10
286.332611
 20
35.601032
 42
0.039622
  0
VERTEX
  8
1
  6
CONTINUOUS
 10
286.384250
 20
35.605209
 42
0.039389
  0
VERTEX
  8
1
  6
CONTINUOUS
 10
286.435115
 20
35.617670
 42
0.038174
  0
VERTEX
  8
1
  6
CONTINUOUS
 10
286.483472
 20
35.637808
 42
0.037606
  0
VERTEX
  8
1
  6
CONTINUOUS
 10
286.529458
 20
35.665836
 42
0.035769
  0
VERTEX
  8
1
  6
CONTINUOUS
 10
286.570888
 20
35.700272
 42
0.035120
  0
VERTEX
  8
1
  6
CONTINUOUS
 10
286.608269
 20
35.741645
 42
0.033355
  0
VERTEX
  8
1
  6
CONTINUOUS
 10
286.639686
 20
35.787733
 42
0.032831
  0
VERTEX
  8
1
  6
CONTINUOUS
 10
286.665489
 20
35.839107
 42
0.031601
  0
VERTEX
  8
1
  6
CONTINUOUS
 10
286.684504
 20
35.893374
 42
0.031306
  0
VERTEX
  8
1
  6
CONTINUOUS
 10
286.696759
 20
35.950628
 42
0.030821
  0
VERTEX
  8
1
  6
CONTINUOUS
 10
286.701848
 20
36.008962
  0
SEQEND
  8
0
  0
ARC
  8
1
  6
CONTINUOUS
 10
286.332000
 20
36.677250
 40
0.753750
 50
298.535411
 51
601.585000
  0
ARC
  8
1
  6
CONTINUOUS
 10
286.332000
 20
36.677250
 40
0.763750
 50
298.954514
 51
601.247225
  0
ARC
  8
1
  6
CONTINUOUS
 10
286.332000
 20
36.677250
 40
0.743750
 50
-61.927511
 51
241.927514
  0
POLYLINE
  8
1
  6
CONTINUOUS
 66
     1
 70
     0
  0
VERTEX
  8
1
  6
CONTINUOUS
 10
285.982000
 20
36.021015
 42
0.028600
  0
VERTEX
  8
1
  6
CONTINUOUS
 10
285.984988
 20
35.968906
 42
0.028943
  0
VERTEX
  8
1
  6
CONTINUOUS
 10
285.993923
 20
35.917485
 42
0.029171
  0
VERTEX
  8
1
  6
CONTINUOUS
 10
286.008548
 20
35.868209
 42
0.030167
  0
VERTEX
  8
1
  6
CONTINUOUS
 10
286.028886
 20
35.821011
 42
0.030601
  0
VERTEX
  8
1
  6
CONTINUOUS
 10
286.054106
 20
35.777842
 42
0.032120
  0
VERTEX
  8
1
  6
CONTINUOUS
 10
286.084506
 20
35.738165
 42
0.032695
  0
VERTEX
  8
1
  6
CONTINUOUS
 10
286.118626
 20
35.703948
 42
0.034433
  0
VERTEX
  8
1
  6
CONTINUOUS
 10
286.156993
 20
35.674595
 42
0.035011
  0
VERTEX
  8
1
  6
CONTINUOUS
 10
286.197781
 20
35.651602
 42
0.036452
  0
VERTEX
  8
1
  6
CONTINUOUS
 10
286.241406
 20
35.634632
 42
0.036827
  0
VERTEX
  8
1
  6
CONTINUOUS
 10
286.286198
 20
35.624463
 42
0.037396
  0
VERTEX
  8
1
  6
CONTINUOUS
 10
286.331994
 20
35.621000
 42
0.037396
  0
VERTEX
  8
1
  6
CONTINUOUS
 10
286.377789
 20
35.624461
 42
0.036827
  0
VERTEX
  8
1
  6
CONTINUOUS
 10
286.422581
 20
35.634628
 42
0.036452
  0
VERTEX
  8
1
  6
CONTINUOUS
 10
286.466207
 20
35.651596
 42
0.035012
  0
VERTEX
  8
1
  6
CONTINUOUS
 10
286.506996
 20
35.674587
 42
0.034433
  0
VERTEX
  8
1
  6
CONTINUOUS
 10
286.545364
 20
35.703939
 42
0.032696
  0
VERTEX
  8
1
  6
CONTINUOUS
 10
286.579485
 20
35.738155
 42
0.032120
  0
VERTEX
  8
1
  6
CONTINUOUS
 10
286.609886
 20
35.777830
 42
0.030602
  0
VERTEX
  8
1
  6
CONTINUOUS
 10
286.635108
 20
35.820998
 42
0.030167
  0
VERTEX
  8
1
  6
CONTINUOUS
 10
286.655447
 20
35.868195
 42
0.029171
  0
VERTEX
  8
1
  6
CONTINUOUS
 10
286.670074
 20
35.917471
 42
0.028943
  0
VERTEX
  8
1
  6
CONTINUOUS
 10
286.679010
 20
35.968892
 42
0.028600
  0
VERTEX
  8
1
  6
CONTINUOUS
 10
286.682000
 20
36.021000
  0
SEQEND
  8
0
  0
TEXT
  8
1
  6
CONTINUOUS
 40
0.075000
 10
286.195000
 20
35.180000
  1
0.70
  7
ROMANC
  0
LINE
  8
1
  6
CONTINUOUS
 10
286.157000
 20
35.218000
 11
285.982000
 21
35.218000
  0
LINE
  8
1
  6
CONTINUOUS
 10
286.506000
 20
35.218000
 11
286.682000
 21
35.218000
  0
LINE
  8
1
  6
CONTINUOUS
 10
285.944000
 20
35.199000
 11
286.020000
 21
35.237000
  0
LINE
  8
1
  6
CONTINUOUS
 10
286.720000
 20
35.237000
 11
286.644000
 21
35.199000
  0
LINE
  8
1
  6
CONTINUOUS
 10
285.982000
 20
35.945000
 11
285.982000
 21
35.180000
  0
LINE
  8
1
  6
CONTINUOUS
 10
286.682000
 20
35.945000
 11
286.682000
 21
35.180000
  0
TEXT
  8
1
  6
CONTINUOUS
 40
0.075000
 10
287.248000
 20
36.208000
  1
0.40
 50
90.000000
  7
ROMANC
  0
LINE
  8
1
  6
CONTINUOUS
 10
287.211000
 20
36.094000
 11
287.211000
 21
36.021000
  0
LINE
  8
1
  6
CONTINUOUS
 10
287.211000
 20
35.471000
 11
287.211000
 21
35.621000
  0
LINE
  8
1
  6
CONTINUOUS
 10
287.230000
 20
35.984000
 11
287.192000
 21
36.058000
  0
LINE
  8
1
  6
CONTINUOUS
 10
287.192000
 20
35.658000
 11
287.230000
 21
35.584000
  0
LINE
  8
1
  6
CONTINUOUS
 10
286.758000
 20
36.021000
 11
287.249000
 21
36.021000
  0
LINE
  8
1
  6
CONTINUOUS
 10
286.408000
 20
35.621000
 11
287.249000
 21
35.621000
  0
TEXT
  8
1
  6
CONTINUOUS
 40
0.075000
 10
287.680000
 20
36.385000
  1
1.80
 50
90.000000
  7
ROMANC
  0
LINE
  8
1
  6
CONTINUOUS
 10
287.642000
 20
36.696000
 11
287.642000
 21
37.421000
  0
LINE
  8
1
  6
CONTINUOUS
 10
287.642000
 20
36.347000
 11
287.642000
 21
35.621000
  0
LINE
  8
1
  6
CONTINUOUS
 10
287.623000
 20
37.458000
 11
287.661000
 21
37.384000
  0
LINE
  8
1
  6
CONTINUOUS
 10
287.661000
 20
35.584000
 11
287.623000
 21
35.658000
  0
LINE
  8
1
  6
CONTINUOUS
 10
286.395000
 20
37.421000
 11
287.680000
 21
37.421000
  0
LINE
  8
1
  6
CONTINUOUS
 10
286.408000
 20
35.621000
 11
287.680000
 21
35.621000
  0
ENDSEC
  0
EOF
