  0
SECTION
  2
HEADER
  9
$ACADVER
  1
AC1009
  9
$INSBASE
 10
0.0
 20
0.0
 30
0.0
  9
$EXTMIN
 10
281.396000
 20
29.897000
 30
-2147483.648000
  9
$EXTMAX
 10
291.896000
 20
44.747000
 30
0.000000
  9
$LIMMIN
 10
280.396000
 20
28.897000
  9
$LIMMAX
 10
292.896000
 20
43.747000
  9
$ORTHOMODE
 70
     0
  9
$REGENMODE
 70
     1
  9
$FILLMODE
 70
     1
  9
$QTEXTMODE
 70
     0
  9
$MIRRTEXT
 70
     1
  9
$DRAGMODE
 70
     2
  9
$LTSCALE
 40
1.0
  9
$OSMODE
 70
     0
  9
$ATTMODE
 70
     1
  9
$TEXTSIZE
 40
0.2
  9
$TRACEWID
 40
0.05
  9
$TEXTSTYLE
  7
STANDARD
  9
$CLAYER
  8
0
  9
$CELTYPE
  6
BYLAYER
  9
$CECOLOR
 62
   256
  9
$DIMSCALE
 40
1.0
  9
$DIMASZ
 40
0.18
  9
$DIMEXO
 40
0.0625
  9
$DIMDLI
 40
0.38
  9
$DIMRND
 40
0.0
  9
$DIMDLE
 40
0.0
  9
$DIMEXE
 40
0.18
  9
$DIMTP
 40
0.0
  9
$DIMTM
 40
0.0
  9
$DIMTXT
 40
0.18
  9
$DIMCEN
 40
0.09
  9
$DIMTSZ
 40
0.0
  9
$DIMTOL
 70
     0
  9
$DIMLIM
 70
     0
  9
$DIMTIH
 70
     1
  9
$DIMTOH
 70
     1
  9
$DIMSE1
 70
     0
  9
$DIMSE2
 70
     0
  9
$DIMTAD
 70
     0
  9
$DIMZIN
 70
     0
  9
$DIMBLK
  1

  9
$DIMASO
 70
     1
  9
$DIMSHO
 70
     1
  9
$DIMPOST
  1

  9
$DIMAPOST
  1

  9
$DIMALT
 70
     0
  9
$DIMALTD
 70
     2
  9
$DIMALTF
 40
25.4
  9
$DIMLFAC
 40
1.0
  9
$DIMTOFL
 70
     0
  9
$DIMTVP
 40
0.0
  9
$DIMTIX
 70
     0
  9
$DIMSOXD
 70
     0
  9
$DIMSAH
 70
     0
  9
$DIMBLK1
  1

  9
$DIMBLK2
  1

  9
$DIMSTYLE
  2
*UNNAMED
  9
$DIMCLRD
 70
     0
  9
$DIMCLRE
 70
     0
  9
$DIMCLRT
 70
     0
  9
$DIMTFAC
 40
1.0
  9
$DIMGAP
 40
0.09
  9
$LUNITS
 70
     2
  9
$LUPREC
 70
     4
  9
$AXISMODE
 70
     0
  9
$AXISUNIT
 10
0.0
 20
0.0
  9
$SKETCHINC
 40
0.1
  9
$FILLETRAD
 40
0.0
  9
$AUNITS
 70
     0
  9
$AUPREC
 70
     0
  9
$MENU
  1
acad
  9
$ELEVATION
 40
0.0
  9
$PELEVATION
 40
0.0
  9
$THICKNESS
 40
0.0
  9
$LIMCHECK
 70
     0
  9
$BLIPMODE
 70
     1
  9
$CHAMFERA
 40
0.0
  9
$CHAMFERB
 40
0.0
  9
$SKPOLY
 70
     0
  9
$TDCREATE
 40
2448315.373408102
  9
$TDUPDATE
 40
2448315.373408102
  9
$TDINDWG
 40
0.0000000000
  9
$TDUSRTIMER
 40
0.0000000000
  9
$USRTIMER
 70
     1
  9
$ANGBASE
 50
0.0
  9
$ANGDIR
 70
     0
  9
$PDMODE
 70
     0
  9
$PDSIZE
 40
0.0
  9
$PLINEWID
 40
0.0
  9
$COORDS
 70
     0
  9
$SPLFRAME
 70
     0
  9
$SPLINETYPE
 70
     6
  9
$SPLINESEGS
 70
     8
  9
$ATTDIA
 70
     0
  9
$ATTREQ
 70
     1
  9
$HANDLING
 70
     0
  9
$HANDSEED
  5
0
  9
$SURFTAB1
 70
     6
  9
$SURFTAB2
 70
     6
  9
$SURFTYPE
 70
     6
  9
$SURFU
 70
     6
  9
$SURFV
 70
     6
  9
$UCSNAME
  2

  9
$UCSORG
 10
0.0
 20
0.0
 30
0.0
  9
$UCSXDIR
 10
1.0
 20
0.0
 30
0.0
  9
$UCSYDIR
 10
0.0
 20
1.0
 30
0.0
  9
$PUCSNAME
  2

  9
$PUCSORG
 10
0.0
 20
0.0
 30
0.0
  9
$PUCSXDIR
 10
1.0
 20
0.0
 30
0.0
  9
$PUCSYDIR
 10
0.0
 20
1.0
 30
0.0
  9
$USERI1
 70
     0
  9
$USERI2
 70
     0
  9
$USERI3
 70
     0
  9
$USERI4
 70
     0
  9
$USERI5
 70
     0
  9
$USERR1
 40
0.0
  9
$USERR2
 40
0.0
  9
$USERR3
 40
0.0
  9
$USERR4
 40
0.0
  9
$USERR5
 40
0.0
  9
$WORLDVIEW
 70
     1
  9
$SHADEDGE
 70
     3
  9
$SHADEDIF
 70
    70
  9
$TILEMODE
 70
     1
  9
$MAXACTVP
 70
    16
  9
$PINSBASE
 10
0.0
 20
0.0
 30
0.0
  9
$PLIMCHECK
 70
     0
  9
$PEXTMIN
 10
1.000000E+20
 20
1.000000E+20
 30
1.000000E+20
  9
$PEXTMAX
 10
-1.000000E+20
 20
-1.000000E+20
 30
-1.000000E+20
  9
$PLIMMIN
 10
0.0
 20
0.0
  9
$PLIMMAX
 10
12.0
 20
9.0
  9
$UNITMODE
 70
     0
  9
$VISRETAIN
 70
     0
  0
ENDSEC
  0
SECTION
  2
TABLES
  0
TABLE
  2
LTYPE
 70
    1
  0
LTYPE
  2
CONTINUOUS
 70
    64
  3
Solid Line
 72
    65
 73
0
 40
0.0
  0
ENDTAB
  0
TABLE
  2
LAYER
 70
    8
  0
LAYER
  2
0
 70
    64
 62
7
  6
CONTINUOUS
  0
LAYER
  2
1
 70
    64
 62
7
  6
CONTINUOUS
  0
LAYER
  2
7
 70
    64
 62
7
  6
CONTINUOUS
  0
LAYER
  2
8
 70
    64
 62
7
  6
CONTINUOUS
  0
LAYER
  2
9
 70
    64
 62
7
  6
CONTINUOUS
  0
LAYER
  2
22
 70
    64
 62
7
  6
CONTINUOUS
  0
LAYER
  2
25
 70
    64
 62
7
  6
CONTINUOUS
  0
LAYER
  2
0
 70
    64
 62
7
  6
CONTINUOUS
  0
ENDTAB
  0
TABLE
  2
STYLE
 70
    1
  0
STYLE
  2
ROMANC
70
     0
 40
0.0
 41
1.0
 50
0.0
 71
     0
 42
0.2
  3
ROMANC
  4

  0
ENDTAB
  0
ENDSEC
  0
SECTION
  2
BLOCKS
  0
ENDSEC
  0
SECTION
  2
ENTITIES
  0
TEXT
  8
0
  6
*CONTINUOUS,SOLID
 40
0.100000
 10
287.008000
 20
41.338000
  1
2
  7
ROMANC
  0
TEXT
  8
0
  6
*CONTINUOUS,SOLID
 40
0.300000
 10
283.926000
 20
41.768000
  1
ESCALA  1:50
  7
ROMANC
  0
POLYLINE
  8
0
  6
*CONTINUOUS,SOLID
 66
     1
 70
     1
  0
VERTEX
  8
0
  6
*CONTINUOUS,SOLID
 10
281.396000
 20
44.747000
  0
VERTEX
  8
0
  6
*CONTINUOUS,SOLID
 10
291.896000
 20
44.747000
  0
VERTEX
  8
0
  6
*CONTINUOUS,SOLID
 10
291.896000
 20
29.897000
  0
VERTEX
  8
0
  6
*CONTINUOUS,SOLID
 10
281.396000
 20
29.897000
  0
SEQEND
  8
0
  0
TEXT
  8
0
  6
*CONTINUOUS,SOLID
 40
0.300000
 10
283.945000
 20
41.099000
  1
S = 190 dm
  7
ROMANC
  0
TEXT
  8
0
  6
*CONTINUOUS,SOLID
 40
0.300000
 10
283.922000
 20
40.529000
  1
P = 62 dm
  7
ROMANC
  0
TEXT
  8
0
  6
*CONTINUOUS,SOLID
 40
0.300000
 10
283.926000
 20
42.381000
  1
TIPUS   NT190A
  7
ROMANC
  0
LINE
  8
1
  6
*CONTINUOUS,SOLID
 10
286.894000
 20
37.398000
 11
286.769000
 21
35.348000
  0
LINE
  8
1
  6
*CONTINUOUS,SOLID
 10
286.110000
 20
35.338000
 11
285.984000
 21
37.398000
  0
LINE
  8
1
  6
*CONTINUOUS,SOLID
 10
286.100000
 20
35.328000
 11
285.974000
 21
37.398000
  0
ARC
  8
1
  6
*CONTINUOUS,SOLID
 10
286.444000
 20
37.344875
 40
0.463125
 50
6.732919
 51
173.408364
  0
ARC
  8
1
  6
*CONTINUOUS,SOLID
 10
286.444000
 20
37.344875
 40
0.473125
 50
7.132181
 51
173.545150
  0
LINE
  8
1
  6
*CONTINUOUS,SOLID
 10
286.903000
 20
37.397000
 11
286.777000
 21
35.338000
  0
LINE
  8
1
  6
*CONTINUOUS,SOLID
 10
286.913000
 20
37.404000
 11
286.787000
 21
35.328000
  0
LINE
  8
1
  6
*CONTINUOUS,SOLID
 10
286.284000
 20
35.338000
 11
286.110000
 21
35.338000
  0
LINE
  8
1
  6
*CONTINUOUS,SOLID
 10
286.275000
 20
35.328000
 11
286.100000
 21
35.328000
  0
ARC
  8
1
  6
*CONTINUOUS,SOLID
 10
286.444000
 20
35.348000
 40
0.160000
 50
183.583322
 51
356.416678
  0
ARC
  8
1
  6
*CONTINUOUS,SOLID
 10
286.444000
 20
35.348000
 40
0.170000
 50
186.756328
 51
353.243672
  0
LINE
  8
1
  6
*CONTINUOUS,SOLID
 10
286.777000
 20
35.338000
 11
286.604000
 21
35.338000
  0
LINE
  8
1
  6
*CONTINUOUS,SOLID
 10
286.787000
 20
35.328000
 11
286.613000
 21
35.328000
  0
ARC
  8
1
  6
*CONTINUOUS,SOLID
 10
286.444000
 20
35.348000
 40
0.150000
 50
180.000000
 51
360.000000
  0
LINE
  8
1
  6
*CONTINUOUS,SOLID
 10
286.769000
 20
35.348000
 11
286.594000
 21
35.348000
  0
TEXT
  8
1
  6
*CONTINUOUS,SOLID
 40
0.075000
 10
285.819000
 20
34.938000
  1
0.30
  7
ROMANC
  0
LINE
  8
1
  6
*CONTINUOUS,SOLID
 10
286.169000
 20
34.975000
 11
286.294000
 21
34.975000
  0
LINE
  8
1
  6
*CONTINUOUS,SOLID
 10
286.744000
 20
34.975000
 11
286.594000
 21
34.975000
  0
LINE
  8
1
  6
*CONTINUOUS,SOLID
 10
286.332000
 20
34.994000
 11
286.256000
 21
34.956000
  0
LINE
  8
1
  6
*CONTINUOUS,SOLID
 10
286.556000
 20
34.956000
 11
286.632000
 21
34.994000
  0
LINE
  8
1
  6
*CONTINUOUS,SOLID
 10
286.294000
 20
35.310000
 11
286.294000
 21
34.937000
  0
LINE
  8
1
  6
*CONTINUOUS,SOLID
 10
286.594000
 20
35.310000
 11
286.594000
 21
34.937000
  0
LINE
  8
1
  6
*CONTINUOUS,SOLID
 10
286.294000
 20
35.348000
 11
286.119000
 21
35.348000
  0
TEXT
  8
1
  6
*CONTINUOUS,SOLID
 40
0.075000
 10
286.325000
 20
34.588000
  1
0.65
  7
ROMANC
  0
LINE
  8
1
  6
*CONTINUOUS,SOLID
 10
286.287000
 20
34.625000
 11
286.119000
 21
34.625000
  0
LINE
  8
1
  6
*CONTINUOUS,SOLID
 10
286.599000
 20
34.625000
 11
286.769000
 21
34.625000
  0
LINE
  8
1
  6
*CONTINUOUS,SOLID
 10
286.082000
 20
34.606000
 11
286.156000
 21
34.644000
  0
LINE
  8
1
  6
*CONTINUOUS,SOLID
 10
286.806000
 20
34.644000
 11
286.732000
 21
34.606000
  0
LINE
  8
1
  6
*CONTINUOUS,SOLID
 10
286.119000
 20
35.310000
 11
286.119000
 21
34.587000
  0
LINE
  8
1
  6
*CONTINUOUS,SOLID
 10
286.769000
 20
35.310000
 11
286.769000
 21
34.587000
  0
TEXT
  8
1
  6
*CONTINUOUS,SOLID
 40
0.075000
 10
285.736000
 20
35.610000
  1
0.15
 50
90.000000
  7
ROMANC
  0
LINE
  8
1
  6
*CONTINUOUS,SOLID
 10
285.698000
 20
35.496000
 11
285.698000
 21
35.348000
  0
LINE
  8
1
  6
*CONTINUOUS,SOLID
 10
285.698000
 20
35.048000
 11
285.698000
 21
35.198000
  0
LINE
  8
1
  6
*CONTINUOUS,SOLID
 10
285.717000
 20
35.310000
 11
285.679000
 21
35.386000
  0
LINE
  8
1
  6
*CONTINUOUS,SOLID
 10
285.679000
 20
35.236000
 11
285.717000
 21
35.160000
  0
LINE
  8
1
  6
*CONTINUOUS,SOLID
 10
286.081000
 20
35.348000
 11
285.660000
 21
35.348000
  0
LINE
  8
1
  6
*CONTINUOUS,SOLID
 10
286.406000
 20
35.198000
 11
285.660000
 21
35.198000
  0
LINE
  8
1
  6
*CONTINUOUS,SOLID
 10
286.119000
 20
35.348000
 11
285.994000
 21
37.398000
  0
TEXT
  8
1
  6
*CONTINUOUS,SOLID
 40
0.075000
 10
285.300000
 20
36.254000
  1
2.05
 50
90.000000
  7
ROMANC
  0
LINE
  8
1
  6
*CONTINUOUS,SOLID
 10
285.263000
 20
36.216000
 11
285.263000
 21
35.348000
  0
LINE
  8
1
  6
*CONTINUOUS,SOLID
 10
285.263000
 20
36.528000
 11
285.263000
 21
37.398000
  0
LINE
  8
1
  6
*CONTINUOUS,SOLID
 10
285.282000
 20
35.310000
 11
285.244000
 21
35.386000
  0
LINE
  8
1
  6
*CONTINUOUS,SOLID
 10
285.244000
 20
37.436000
 11
285.282000
 21
37.360000
  0
LINE
  8
1
  6
*CONTINUOUS,SOLID
 10
286.081000
 20
35.348000
 11
285.225000
 21
35.348000
  0
LINE
  8
1
  6
*CONTINUOUS,SOLID
 10
285.956000
 20
37.398000
 11
285.225000
 21
37.398000
  0
ARC
  8
1
  6
*CONTINUOUS,SOLID
 10
286.444000
 20
37.344875
 40
0.453125
 50
6.732919
 51
173.267078
  0
TEXT
  8
1
  6
*CONTINUOUS,SOLID
 40
0.075000
 10
287.376000
 20
36.378000
  1
2.60
 50
90.000000
  7
ROMANC
  0
LINE
  8
1
  6
*CONTINUOUS,SOLID
 10
287.338000
 20
36.340000
 11
287.338000
 21
35.198000
  0
LINE
  8
1
  6
*CONTINUOUS,SOLID
 10
287.338000
 20
36.652000
 11
287.338000
 21
37.795000
  0
LINE
  8
1
  6
*CONTINUOUS,SOLID
 10
287.357000
 20
35.160000
 11
287.319000
 21
35.236000
  0
LINE
  8
1
  6
*CONTINUOUS,SOLID
 10
287.319000
 20
37.832000
 11
287.357000
 21
37.758000
  0
LINE
  8
1
  6
*CONTINUOUS,SOLID
 10
286.444000
 20
35.198000
 11
287.376000
 21
35.198000
  0
LINE
  8
1
  6
*CONTINUOUS,SOLID
 10
286.535000
 20
37.795000
 11
287.376000
 21
37.795000
  0
TEXT
  8
1
  6
*CONTINUOUS,SOLID
 40
0.075000
 10
286.325000
 20
38.186000
  1
0.90
  7
ROMANC
  0
LINE
  8
1
  6
*CONTINUOUS,SOLID
 10
286.287000
 20
38.224000
 11
285.994000
 21
38.224000
  0
LINE
  8
1
  6
*CONTINUOUS,SOLID
 10
286.599000
 20
38.224000
 11
286.894000
 21
38.224000
  0
LINE
  8
1
  6
*CONTINUOUS,SOLID
 10
285.956000
 20
38.205000
 11
286.032000
 21
38.243000
  0
LINE
  8
1
  6
*CONTINUOUS,SOLID
 10
286.932000
 20
38.243000
 11
286.856000
 21
38.205000
  0
LINE
  8
1
  6
*CONTINUOUS,SOLID
 10
285.994000
 20
37.436000
 11
285.994000
 21
38.262000
  0
LINE
  8
1
  6
*CONTINUOUS,SOLID
 10
286.894000
 20
37.436000
 11
286.894000
 21
38.262000
  0
ENDSEC
  0
EOF
