  0
SECTION
  2
HEADER
  9
$ACADVER
  1
AC1009
  9
$INSBASE
 10
0.0
 20
0.0
 30
0.0
  9
$EXTMIN
 10
318.829805
 20
29.85788
 30
0.0
  9
$EXTMAX
 10
329.371339
 20
44.72551
 30
0.0
  9
$LIMMIN
 10
0.0
 20
0.0
  9
$LIMMAX
 10
410.0
 20
287.0
  9
$ORTHOMODE
 70
     1
  9
$REGENMODE
 70
     1
  9
$FILLMODE
 70
     1
  9
$QTEXTMODE
 70
     0
  9
$MIRRTEXT
 70
     1
  9
$DRAGMODE
 70
     2
  9
$LTSCALE
 40
25.0
  9
$OSMODE
 70
     0
  9
$ATTMODE
 70
     1
  9
$TEXTSIZE
 40
0.1
  9
$TRACEWID
 40
1.0
  9
$TEXTSTYLE
  7
ROMANC
  9
$CLAYER
  8
0
  9
$CELTYPE
  6
BYLAYER
  9
$CECOLOR
 62
   256
  9
$DIMSCALE
 40
1.5
  9
$DIMASZ
 40
0.1
  9
$DIMEXO
 40
0.01
  9
$DIMDLI
 40
7.0
  9
$DIMRND
 40
0.0
  9
$DIMDLE
 40
0.0
  9
$DIMEXE
 40
0.01
  9
$DIMTP
 40
0.0
  9
$DIMTM
 40
0.0
  9
$DIMTXT
 40
0.05
  9
$DIMCEN
 40
0.0
  9
$DIMTSZ
 40
0.0
  9
$DIMTOL
 70
     0
  9
$DIMLIM
 70
     0
  9
$DIMTIH
 70
     0
  9
$DIMTOH
 70
     0
  9
$DIMSE1
 70
     0
  9
$DIMSE2
 70
     0
  9
$DIMTAD
 70
     1
  9
$DIMZIN
 70
     0
  9
$DIMBLK
  1

  9
$DIMASO
 70
     1
  9
$DIMSHO
 70
     0
  9
$DIMPOST
  1

  9
$DIMAPOST
  1

  9
$DIMALT
 70
     0
  9
$DIMALTD
 70
     2
  9
$DIMALTF
 40
25.4
  9
$DIMLFAC
 40
1.0
  9
$DIMTOFL
 70
     1
  9
$DIMTVP
 40
0.0
  9
$DIMTIX
 70
     1
  9
$DIMSOXD
 70
     0
  9
$DIMSAH
 70
     0
  9
$DIMBLK1
  1

  9
$DIMBLK2
  1

  9
$DIMSTYLE
  2
MERITXELL
  9
$DIMCLRD
 70
     0
  9
$DIMCLRE
 70
     0
  9
$DIMCLRT
 70
     0
  9
$DIMTFAC
 40
70.0
  9
$DIMGAP
 40
0.025
  9
$LUNITS
 70
     2
  9
$LUPREC
 70
     2
  9
$SKETCHINC
 40
1.0
  9
$FILLETRAD
 40
0.0
  9
$AUNITS
 70
     0
  9
$AUPREC
 70
     0
  9
$MENU
  1
acad
  9
$ELEVATION
 40
0.0
  9
$PELEVATION
 40
0.0
  9
$THICKNESS
 40
0.0
  9
$LIMCHECK
 70
     0
  9
$BLIPMODE
 70
     0
  9
$CHAMFERA
 40
0.0
  9
$CHAMFERB
 40
0.0
  9
$SKPOLY
 70
     0
  9
$TDCREATE
 40
2450927.46195
  9
$TDUPDATE
 40
2450996.357125
  9
$TDINDWG
 40
0.041949
  9
$TDUSRTIMER
 40
0.041949
  9
$USRTIMER
 70
     1
  9
$ANGBASE
 50
0.0
  9
$ANGDIR
 70
     0
  9
$PDMODE
 70
     0
  9
$PDSIZE
 40
0.0
  9
$PLINEWID
 40
0.0
  9
$COORDS
 70
     2
  9
$SPLFRAME
 70
     0
  9
$SPLINETYPE
 70
     6
  9
$SPLINESEGS
 70
     8
  9
$ATTDIA
 70
     0
  9
$ATTREQ
 70
     1
  9
$HANDLING
 70
     1
  9
$HANDSEED
  5
21A
  9
$SURFTAB1
 70
     6
  9
$SURFTAB2
 70
     6
  9
$SURFTYPE
 70
     6
  9
$SURFU
 70
     6
  9
$SURFV
 70
     6
  9
$UCSNAME
  2

  9
$UCSORG
 10
0.0
 20
0.0
 30
0.0
  9
$UCSXDIR
 10
1.0
 20
0.0
 30
0.0
  9
$UCSYDIR
 10
0.0
 20
1.0
 30
0.0
  9
$PUCSNAME
  2

  9
$PUCSORG
 10
0.0
 20
0.0
 30
0.0
  9
$PUCSXDIR
 10
1.0
 20
0.0
 30
0.0
  9
$PUCSYDIR
 10
0.0
 20
1.0
 30
0.0
  9
$USERI1
 70
     0
  9
$USERI2
 70
     0
  9
$USERI3
 70
     0
  9
$USERI4
 70
     0
  9
$USERI5
 70
     0
  9
$USERR1
 40
0.0
  9
$USERR2
 40
0.0
  9
$USERR3
 40
0.0
  9
$USERR4
 40
0.0
  9
$USERR5
 40
0.0
  9
$WORLDVIEW
 70
     1
  9
$SHADEDGE
 70
     3
  9
$SHADEDIF
 70
    70
  9
$TILEMODE
 70
     1
  9
$MAXACTVP
 70
    16
  9
$PLIMCHECK
 70
     0
  9
$PEXTMIN
 10
1.000000E+020
 20
1.000000E+020
 30
1.000000E+020
  9
$PEXTMAX
 10
-1.000000E+020
 20
-1.000000E+020
 30
-1.000000E+020
  9
$PLIMMIN
 10
0.0
 20
0.0
  9
$PLIMMAX
 10
12.0
 20
9.0
  9
$UNITMODE
 70
     0
  9
$VISRETAIN
 70
     0
  9
$PLINEGEN
 70
     0
  9
$PSLTSCALE
 70
     0
  0
ENDSEC
  0
SECTION
  2
TABLES
  0
TABLE
  2
VPORT
 70
     6
  0
VPORT
  2
*ACTIVE
 70
     0
 10
0.0
 20
0.0
 11
1.0
 21
1.0
 12
324.100572
 22
37.291695
 13
0.0
 23
0.0
 14
1.0
 24
1.0
 15
10.0
 25
10.0
 16
0.0
 26
0.0
 36
1.0
 17
0.0
 27
0.0
 37
0.0
 40
14.996726
 41
1.662319
 42
50.0
 43
0.0
 44
0.0
 50
0.0
 51
0.0
 71
     0
 72
   100
 73
     1
 74
     0
 75
     0
 76
     0
 77
     0
 78
     1
  0
ENDTAB
  0
TABLE
  2
LTYPE
 70
     1
  0
LTYPE
  2
CONTINUOUS
 70
     0
  3
Solid line
 72
    65
 73
     0
 40
0.0
  0
ENDTAB
  0
TABLE
  2
LAYER
 70
     2
  0
LAYER
  2
0
 70
     0
 62
     7
  6
CONTINUOUS
  0
LAYER
  2
DEFPOINTS
 70
     0
 62
     7
  6
CONTINUOUS
  0
ENDTAB
  0
TABLE
  2
STYLE
 70
     2
  0
STYLE
  2
STANDARD
 70
     0
 40
0.0
 41
1.0
 50
0.0
 71
     0
 42
0.1
  3
txt
  4

  0
STYLE
  2
ROMANC
 70
     0
 40
0.0
 41
1.0
 50
0.0
 71
     0
 42
0.1
  3
romanc
  4

  0
ENDTAB
  0
TABLE
  2
VIEW
 70
     0
  0
ENDTAB
  0
TABLE
  2
UCS
 70
     0
  0
ENDTAB
  0
TABLE
  2
APPID
 70
     1
  0
APPID
  2
ACAD
 70
     0
  0
ENDTAB
  0
TABLE
  2
DIMSTYLE
 70
     1
  0
DIMSTYLE
  2
MERITXELL
 70
     0
  3

  4

  5

  6

  7

 40
1.5
 41
0.1
 42
0.01
 43
7.0
 44
0.01
 45
0.0
 46
0.0
 47
0.0
 48
0.0
140
0.05
141
0.1
142
0.0
143
25.4
144
1.0
145
0.0
146
70.0
147
0.09
 71
     0
 72
     0
 73
     0
 74
     0
 75
     0
 76
     0
 77
     1
 78
     0
170
     0
171
     2
172
     1
173
     0
174
     1
175
     0
176
     0
177
     0
178
     0
  0
ENDTAB
  0
ENDSEC
  0
SECTION
  2
BLOCKS
  0
BLOCK
  8
0
  2
$MODEL_SPACE
 70
     0
 10
0.0
 20
0.0
 30
0.0
  3
$MODEL_SPACE
  1

  0
ENDBLK
  5
24
  8
0
  0
BLOCK
 67
     1
  8
0
  2
$PAPER_SPACE
 70
     0
 10
0.0
 20
0.0
 30
0.0
  3
$PAPER_SPACE
  1

  0
ENDBLK
  5
22
 67
     1
  8
0
  0
BLOCK
  8
0
  2
*D3
 70
     1
 10
0.0
 20
0.0
 30
0.0
  3
*D3
  1

  0
LINE
  5
90
  8
0
  6
BYBLOCK
 62
     0
 10
324.645591
 20
36.219039
 30
0.0
 11
325.103622
 21
36.219039
 31
0.0
  0
LINE
  5
91
  8
0
  6
BYBLOCK
 62
     0
 10
324.645591
 20
34.519039
 30
0.0
 11
325.103622
 21
34.519039
 31
0.0
  0
LINE
  5
92
  8
0
  6
BYBLOCK
 62
     0
 10
325.088622
 20
36.069039
 30
0.0
 11
325.088622
 21
34.669039
 31
0.0
  0
SOLID
  5
93
  8
0
  6
BYBLOCK
 62
     0
 10
325.063622
 20
36.069039
 30
0.0
 11
325.113622
 21
36.069039
 31
0.0
 12
325.088622
 22
36.219039
 32
0.0
 13
325.088622
 23
36.219039
 33
0.0
  0
SOLID
  5
94
  8
0
  6
BYBLOCK
 62
     0
 10
325.063622
 20
34.669039
 30
0.0
 11
325.113622
 21
34.669039
 31
0.0
 12
325.088622
 22
34.519039
 32
0.0
 13
325.088622
 23
34.519039
 33
0.0
  0
TEXT
  8
0
  40
0.075
  5
20C
  62
0
  72
0
  71
0
 10
324.864
 20
35.2363
 30
0.000000
  1
1.70
  7
ROMANC
  0
POINT
  5
96
  8
DEFPOINTS
  6
BYBLOCK
 62
     0
 10
324.630591
 20
36.219039
 30
0.0
  0
POINT
  5
97
  8
DEFPOINTS
  6
BYBLOCK
 62
     0
 10
324.630591
 20
34.519039
 30
0.0
  0
POINT
  5
98
  8
DEFPOINTS
  6
BYBLOCK
 62
     0
 10
325.088622
 20
34.519039
 30
0.0
  0
ENDBLK
  5
99
  8
0
  0
BLOCK
  8
0
  2
*D5
 70
     1
 10
0.0
 20
0.0
 30
0.0
  3
*D5
  1

  0
LINE
  5
C0
  8
0
  6
BYBLOCK
 62
     0
 10
322.730591
 20
34.504039
 30
0.0
 11
322.730591
 21
33.951746
 31
0.0
  0
LINE
  5
C1
  8
0
  6
BYBLOCK
 62
     0
 10
324.630591
 20
34.504039
 30
0.0
 11
324.630591
 21
33.951746
 31
0.0
  0
LINE
  5
C2
  8
0
  6
BYBLOCK
 62
     0
 10
322.880591
 20
33.966746
 30
0.0
 11
324.480591
 21
33.966746
 31
0.0
  0
SOLID
  5
C3
  8
0
  6
BYBLOCK
 62
     0
 10
322.880591
 20
33.991746
 30
0.0
 11
322.880591
 21
33.941746
 31
0.0
 12
322.730591
 22
33.966746
 32
0.0
 13
322.730591
 23
33.966746
 33
0.0
  0
SOLID
  5
C4
  8
0
  6
BYBLOCK
 62
     0
 10
324.480591
 20
33.991746
 30
0.0
 11
324.480591
 21
33.941746
 31
0.0
 12
324.630591
 22
33.966746
 32
0.0
 13
324.630591
 23
33.966746
 33
0.0
  0
TEXT
  8
0
  40
0.075
  5
20D
  62
0
  72
0
  71
0
 10
323.531
 20
33.9090
 30
0.000000
  1
1.90
  7
ROMANC
  0
POINT
  5
C6
  8
DEFPOINTS
  6
BYBLOCK
 62
     0
 10
322.730591
 20
34.519039
 30
0.0
  0
POINT
  5
C7
  8
DEFPOINTS
  6
BYBLOCK
 62
     0
 10
324.630591
 20
34.519039
 30
0.0
  0
POINT
  5
C8
  8
DEFPOINTS
  6
BYBLOCK
 62
     0
 10
324.630591
 20
33.966746
 30
0.0
  0
ENDBLK
  5
C9
  8
0
  0
BLOCK
  8
0
  2
*D6
 70
     1
 10
0.0
 20
0.0
 30
0.0
  3
*D6
  1

  0
LINE
  5
107
  8
0
  6
BYBLOCK
 62
     0
 10
324.645591
 20
34.519039
 30
0.0
 11
325.103622
 21
34.519039
 31
0.0
  0
LINE
  5
108
  8
0
  6
BYBLOCK
 62
     0
 10
323.695591
 20
34.369039
 30
0.0
 11
325.103622
 21
34.369039
 31
0.0
  0
LINE
  5
109
  8
0
  6
BYBLOCK
 62
     0
 10
325.088622
 20
34.669039
 30
0.0
 11
325.088622
 21
34.819039
 31
0.0
  0
LINE
  5
10A
  8
0
  6
BYBLOCK
 62
     0
 10
325.088622
 20
34.219039
 30
0.0
 11
325.088622
 21
34.069039
 31
0.0
  0
TEXT
  8
0
  40
0.075
  5
20E
  62
0
  72
0
  71
0
 10
324.851
 20
34.0793
 30
0.000000
  1
0.15
  7
ROMANC
  0
LINE
  5
10C
  8
0
  6
BYBLOCK
 62
     0
 10
325.088622
 20
34.519039
 30
0.0
 11
325.088622
 21
34.369039
 31
0.0
  0
LINE
  5
10D
  8
0
  6
BYBLOCK
 62
     0
 10
325.088622
 20
34.519039
 30
0.0
 11
325.088622
 21
34.369039
 31
0.0
  0
SOLID
  5
10E
  8
0
  6
BYBLOCK
 62
     0
 10
325.063622
 20
34.669039
 30
0.0
 11
325.113622
 21
34.669039
 31
0.0
 12
325.088622
 22
34.519039
 32
0.0
 13
325.088622
 23
34.519039
 33
0.0
  0
SOLID
  5
10F
  8
0
  6
BYBLOCK
 62
     0
 10
325.063622
 20
34.219039
 30
0.0
 11
325.113622
 21
34.219039
 31
0.0
 12
325.088622
 22
34.369039
 32
0.0
 13
325.088622
 23
34.369039
 33
0.0
  0
POINT
  5
110
  8
DEFPOINTS
  6
BYBLOCK
 62
     0
 10
324.630591
 20
34.519039
 30
0.0
  0
POINT
  5
111
  8
DEFPOINTS
  6
BYBLOCK
 62
     0
 10
323.680591
 20
34.369039
 30
0.0
  0
POINT
  5
112
  8
DEFPOINTS
  6
BYBLOCK
 62
     0
 10
325.088622
 20
34.369039
 30
0.0
  0
ENDBLK
  5
113
  8
0
  0
BLOCK
  8
0
  2
*D7
 70
     1
 10
0.0
 20
0.0
 30
0.0
  3
*D7
  1

  0
LINE
  5
116
  8
0
  6
BYBLOCK
 62
     0
 10
324.645591
 20
36.219039
 30
0.0
 11
325.501023
 21
36.219039
 31
0.0
  0
LINE
  5
117
  8
0
  6
BYBLOCK
 62
     0
 10
323.695591
 20
34.369039
 30
0.0
 11
325.501023
 21
34.369039
 31
0.0
  0
LINE
  5
118
  8
0
  6
BYBLOCK
 62
     0
 10
325.486023
 20
36.069039
 30
0.0
 11
325.486023
 21
34.519039
 31
0.0
  0
SOLID
  5
119
  8
0
  6
BYBLOCK
 62
     0
 10
325.461023
 20
36.069039
 30
0.0
 11
325.511023
 21
36.069039
 31
0.0
 12
325.486023
 22
36.219039
 32
0.0
 13
325.486023
 23
36.219039
 33
0.0
  0
SOLID
  5
11A
  8
0
  6
BYBLOCK
 62
     0
 10
325.461023
 20
34.519039
 30
0.0
 11
325.511023
 21
34.519039
 31
0.0
 12
325.486023
 22
34.369039
 32
0.0
 13
325.486023
 23
34.369039
 33
0.0
  0
TEXT
  8
0
  40
0.075
  5
20F
  62
0
  72
0
  71
0
 10
325.261
 20
35.1613
 30
0.000000
  1
1.85
  7
ROMANC
  0
POINT
  5
11C
  8
DEFPOINTS
  6
BYBLOCK
 62
     0
 10
324.630591
 20
36.219039
 30
0.0
  0
POINT
  5
11D
  8
DEFPOINTS
  6
BYBLOCK
 62
     0
 10
323.680591
 20
34.369039
 30
0.0
  0
POINT
  5
11E
  8
DEFPOINTS
  6
BYBLOCK
 62
     0
 10
325.486023
 20
34.369039
 30
0.0
  0
ENDBLK
  5
11F
  8
0
  0
BLOCK
  8
0
  2
*D8
 70
     1
 10
0.0
 20
0.0
 30
0.0
  3
*D8
  1

  0
LINE
  5
15F
  8
0
  6
BYBLOCK
 62
     0
 10
324.312254
 20
33.801488
 30
0.0
 11
324.728231
 21
33.801488
 31
0.0
  0
LINE
  5
160
  8
0
  6
BYBLOCK
 62
     0
 10
324.312254
 20
35.961488
 30
0.0
 11
324.728231
 21
35.961488
 31
0.0
  0
LINE
  5
161
  8
0
  6
BYBLOCK
 62
     0
 10
324.713231
 20
33.951488
 30
0.0
 11
324.713231
 21
35.811488
 31
0.0
  0
SOLID
  5
162
  8
0
  6
BYBLOCK
 62
     0
 10
324.688231
 20
33.951488
 30
0.0
 11
324.738231
 21
33.951488
 31
0.0
 12
324.713231
 22
33.801488
 32
0.0
 13
324.713231
 23
33.801488
 33
0.0
  0
SOLID
  5
163
  8
0
  6
BYBLOCK
 62
     0
 10
324.688231
 20
35.811488
 30
0.0
 11
324.738231
 21
35.811488
 31
0.0
 12
324.713231
 22
35.961488
 32
0.0
 13
324.713231
 23
35.961488
 33
0.0
  0
TEXT
  8
0
  40
0.075
  5
210
  62
0
  72
0
  71
0
 10
324.488
 20
34.7487
 30
0.000000
  1
2.16
  7
ROMANC
  0
POINT
  5
165
  8
DEFPOINTS
  6
BYBLOCK
 62
     0
 10
324.297254
 20
33.801488
 30
0.0
  0
POINT
  5
166
  8
DEFPOINTS
  6
BYBLOCK
 62
     0
 10
324.297254
 20
35.961488
 30
0.0
  0
POINT
  5
167
  8
DEFPOINTS
  6
BYBLOCK
 62
     0
 10
324.713231
 20
35.961488
 30
0.0
  0
ENDBLK
  5
168
  8
0
  0
BLOCK
  8
0
  2
*D9
 70
     1
 10
0.0
 20
0.0
 30
0.0
  3
*D9
  1

  0
LINE
  5
195
  8
0
  6
BYBLOCK
 62
     0
 10
323.377254
 20
34.286488
 30
0.0
 11
323.377254
 21
33.44004
 31
0.0
  0
LINE
  5
196
  8
0
  6
BYBLOCK
 62
     0
 10
323.097254
 20
34.286488
 30
0.0
 11
323.097254
 21
33.44004
 31
0.0
  0
LINE
  5
197
  8
0
  6
BYBLOCK
 62
     0
 10
323.527254
 20
33.45504
 30
0.0
 11
323.677254
 21
33.45504
 31
0.0
  0
LINE
  5
198
  8
0
  6
BYBLOCK
 62
     0
 10
322.947254
 20
33.45504
 30
0.0
 11
322.797254
 21
33.45504
 31
0.0
  0
LINE
  5
199
  8
0
  6
BYBLOCK
 62
     0
 10
323.377254
 20
33.45504
 30
0.0
 11
323.097254
 21
33.45504
 31
0.0
  0
SOLID
  5
19A
  8
0
  6
BYBLOCK
 62
     0
 10
323.527254
 20
33.48004
 30
0.0
 11
323.527254
 21
33.43004
 31
0.0
 12
323.377254
 22
33.45504
 32
0.0
 13
323.377254
 23
33.45504
 33
0.0
  0
SOLID
  5
19B
  8
0
  6
BYBLOCK
 62
     0
 10
322.947254
 20
33.48004
 30
0.0
 11
322.947254
 21
33.43004
 31
0.0
 12
323.097254
 22
33.45504
 32
0.0
 13
323.097254
 23
33.45504
 33
0.0
  0
TEXT
  8
0
  40
0.075
  5
211
  62
0
  72
0
  71
0
 10
323.087
 20
33.3973
 30
0.000000
  1
0.28
  7
ROMANC
  0
POINT
  5
19D
  8
DEFPOINTS
  6
BYBLOCK
 62
     0
 10
323.377254
 20
34.301488
 30
0.0
  0
POINT
  5
19E
  8
DEFPOINTS
  6
BYBLOCK
 62
     0
 10
323.097254
 20
34.301488
 30
0.0
  0
POINT
  5
19F
  8
DEFPOINTS
  6
BYBLOCK
 62
     0
 10
323.097254
 20
33.45504
 30
0.0
  0
ENDBLK
  5
1A0
  8
0
  0
BLOCK
  8
0
  2
*D10
 70
     1
 10
0.0
 20
0.0
 30
0.0
  3
*D10
  1

  0
LINE
  5
1BC
  8
0
  6
BYBLOCK
 62
     0
 10
323.053568
 20
34.301488
 30
0.0
 11
322.694766
 21
34.301488
 31
0.0
  0
LINE
  5
1BD
  8
0
  6
BYBLOCK
 62
     0
 10
323.362254
 20
33.801488
 30
0.0
 11
322.694766
 21
33.801488
 31
0.0
  0
LINE
  5
1BE
  8
0
  6
BYBLOCK
 62
     0
 10
322.709766
 20
34.151488
 30
0.0
 11
322.709766
 21
33.951488
 31
0.0
  0
SOLID
  5
1BF
  8
0
  6
BYBLOCK
 62
     0
 10
322.684766
 20
34.151488
 30
0.0
 11
322.734766
 21
34.151488
 31
0.0
 12
322.709766
 22
34.301488
 32
0.0
 13
322.709766
 23
34.301488
 33
0.0
  0
SOLID
  5
1C0
  8
0
  6
BYBLOCK
 62
     0
 10
322.684766
 20
33.951488
 30
0.0
 11
322.734766
 21
33.951488
 31
0.0
 12
322.709766
 22
33.801488
 32
0.0
 13
322.709766
 23
33.801488
 33
0.0
  0
TEXT
  8
0
  40
0.075
  5
212
  62
0
  72
0
  71
0
 10
322.485
 20
33.9187
 30
0.000000
  1
0.50
  7
ROMANC
  0
POINT
  5
1C2
  8
DEFPOINTS
  6
BYBLOCK
 62
     0
 10
323.068568
 20
34.301488
 30
0.0
  0
POINT
  5
1C3
  8
DEFPOINTS
  6
BYBLOCK
 62
     0
 10
323.377254
 20
33.801488
 30
0.0
  0
POINT
  5
1C4
  8
DEFPOINTS
  6
BYBLOCK
 62
     0
 10
322.709766
 20
33.801488
 30
0.0
  0
ENDBLK
  5
1C5
  8
0
  0
BLOCK
  8
0
  2
*D11
 70
     1
 10
0.0
 20
0.0
 30
0.0
  3
*D11
  1

  0
LINE
  5
1A3
  8
0
  6
BYBLOCK
 62
     0
 10
324.297254
 20
33.786488
 30
0.0
 11
324.297254
 21
33.44004
 31
0.0
  0
LINE
  5
1A4
  8
0
  6
BYBLOCK
 62
     0
 10
323.377254
 20
33.786488
 30
0.0
 11
323.377254
 21
33.44004
 31
0.0
  0
LINE
  5
1A5
  8
0
  6
BYBLOCK
 62
     0
 10
324.147254
 20
33.45504
 30
0.0
 11
323.527254
 21
33.45504
 31
0.0
  0
SOLID
  5
1A6
  8
0
  6
BYBLOCK
 62
     0
 10
324.147254
 20
33.48004
 30
0.0
 11
324.147254
 21
33.43004
 31
0.0
 12
324.297254
 22
33.45504
 32
0.0
 13
324.297254
 23
33.45504
 33
0.0
  0
SOLID
  5
1A7
  8
0
  6
BYBLOCK
 62
     0
 10
323.527254
 20
33.48004
 30
0.0
 11
323.527254
 21
33.43004
 31
0.0
 12
323.377254
 22
33.45504
 32
0.0
 13
323.377254
 23
33.45504
 33
0.0
  0
TEXT
  8
0
  40
0.075
  5
213
  62
0
  72
0
  71
0
 10
323.687
 20
33.3973
 30
0.000000
  1
0.92
  7
ROMANC
  0
POINT
  5
1A9
  8
DEFPOINTS
  6
BYBLOCK
 62
     0
 10
324.297254
 20
33.801488
 30
0.0
  0
POINT
  5
1AA
  8
DEFPOINTS
  6
BYBLOCK
 62
     0
 10
323.377254
 20
33.801488
 30
0.0
  0
POINT
  5
1AB
  8
DEFPOINTS
  6
BYBLOCK
 62
     0
 10
323.377254
 20
33.45504
 30
0.0
  0
ENDBLK
  5
1AC
  8
0
  0
BLOCK
  8
0
  2
*D12
 70
     1
 10
0.0
 20
0.0
 30
0.0
  3
*D12
  1

  0
LINE
  5
1B0
  8
0
  6
BYBLOCK
 62
     0
 10
323.097254
 20
34.286488
 30
0.0
 11
323.097254
 21
33.113144
 31
0.0
  0
LINE
  5
1B1
  8
0
  6
BYBLOCK
 62
     0
 10
324.297254
 20
33.786488
 30
0.0
 11
324.297254
 21
33.113144
 31
0.0
  0
LINE
  5
1B2
  8
0
  6
BYBLOCK
 62
     0
 10
323.247254
 20
33.128144
 30
0.0
 11
324.147254
 21
33.128144
 31
0.0
  0
SOLID
  5
1B3
  8
0
  6
BYBLOCK
 62
     0
 10
323.247254
 20
33.153144
 30
0.0
 11
323.247254
 21
33.103144
 31
0.0
 12
323.097254
 22
33.128144
 32
0.0
 13
323.097254
 23
33.128144
 33
0.0
  0
SOLID
  5
1B4
  8
0
  6
BYBLOCK
 62
     0
 10
324.147254
 20
33.153144
 30
0.0
 11
324.147254
 21
33.103144
 31
0.0
 12
324.297254
 22
33.128144
 32
0.0
 13
324.297254
 23
33.128144
 33
0.0
  0
TEXT
  8
0
  40
0.075
  5
214
  62
0
  72
0
  71
0
 10
323.547
 20
33.0704
 30
0.000000
  1
1.20
  7
ROMANC
  0
POINT
  5
1B6
  8
DEFPOINTS
  6
BYBLOCK
 62
     0
 10
323.097254
 20
34.301488
 30
0.0
  0
POINT
  5
1B7
  8
DEFPOINTS
  6
BYBLOCK
 62
     0
 10
324.297254
 20
33.801488
 30
0.0
  0
POINT
  5
1B8
  8
DEFPOINTS
  6
BYBLOCK
 62
     0
 10
324.297254
 20
33.128144
 30
0.0
  0
ENDBLK
  5
1B9
  8
0
  0
ENDSEC
  0
SECTION
  2
ENTITIES
  0
LINE
  5
27
  8
0
 10
329.348696
 20
29.863623
 30
0.0
 11
329.348696
 21
44.713623
 31
0.0
  0
LINE
  5
28
  8
0
 10
318.848696
 20
44.713623
 30
0.0
 11
318.848696
 21
29.863623
 31
0.0
  0
LINE
  5
29
  8
0
 10
318.848696
 20
29.863623
 30
0.0
 11
329.348696
 21
29.863623
 31
0.0
  0
TEXT
  5
2A
  8
0
 10
321.378668
 20
42.309482
 30
0.0
 40
0.3
  1
TIPUS   NT189B
  7
ROMANC
  0
TEXT
  5
2D
  8
0
 10
321.340746
 20
40.527599
 30
0.0
 40
0.3
  1
P = 60,4 dm
  7
ROMANC
  0
TEXT
  5
2E
  8
0
 10
321.391762
 20
41.225178
 30
0.0
 40
0.3
  1
S = 189 dm
  7
ROMANC
  0
TEXT
  5
2F
  8
0
 10
321.378668
 20
41.823768
 30
0.0
 40
0.3
  1
ESCALA  1:50
  7
ROMANC
  0
TEXT
  5
30
  8
0
 10
324.546276
 20
41.531094
 30
0.0
 40
0.1
  1
2
  7
ROMANC
  0
LINE
  5
31
  8
0
 10
329.348696
 20
44.713623
 30
0.0
 11
318.848696
 21
44.713623
 31
0.0
  0
LINE
  5
1CD
  8
0
 10
323.943091
 20
33.786488
 30
0.0
 11
322.993091
 21
33.786488
 31
0.0
  0
LINE
  5
1CE
  8
0
 10
322.993091
 20
33.786488
 30
0.0
 11
322.993091
 21
34.286488
 31
0.0
  0
LINE
  5
1CF
  8
0
 10
322.993091
 20
34.286488
 30
0.0
 11
322.712724
 21
34.286488
 31
0.0
  0
ARC
  5
1D0
  8
0
 10
324.547737
 20
34.249817
 30
0.0
 40
1.835379
 50
109.234736
 51
178.855131
  0
LINE
  5
1D1
  8
0
 10
323.943091
 20
35.982739
 30
0.0
 11
323.943091
 21
33.786488
 31
0.0
  0
LINE
  5
1D2
  8
0
 10
323.935591
 20
33.793988
 30
0.0
 11
323.000591
 21
33.793988
 31
0.0
  0
LINE
  5
1D3
  8
0
 10
323.000591
 20
33.793988
 30
0.0
 11
323.000591
 21
34.293988
 31
0.0
  0
LINE
  5
1D4
  8
0
 10
323.000591
 20
34.293988
 30
0.0
 11
322.720391
 21
34.293988
 31
0.0
  0
ARC
  5
1D5
  8
0
 10
324.547737
 20
34.249817
 30
0.0
 40
1.827879
 50
109.566091
 51
178.615284
  0
LINE
  5
1D6
  8
0
 10
323.935591
 20
35.972147
 30
0.0
 11
323.935591
 21
33.793988
 31
0.0
  0
LINE
  5
1D7
  8
0
 10
323.928091
 20
33.801488
 30
0.0
 11
323.008091
 21
33.801488
 31
0.0
  0
LINE
  5
1D8
  8
0
 10
323.008091
 20
33.801488
 30
0.0
 11
323.008091
 21
34.301488
 31
0.0
  0
LINE
  5
1D9
  8
0
 10
323.008091
 20
34.301488
 30
0.0
 11
322.728091
 21
34.301488
 31
0.0
  0
ARC
  5
1DA
  8
0
 10
324.547737
 20
34.249817
 30
0.0
 40
1.820379
 50
109.900866
 51
178.373436
  0
LINE
  5
1DB
  8
0
 10
323.928091
 20
35.961488
 30
0.0
 11
323.928091
 21
33.801488
 31
0.0
  0
LINE
  5
1DC
  8
0
  6
BYBLOCK
 62
     0
 10
322.728091
 20
34.286488
 30
0.0
 11
322.728091
 21
33.113144
 31
0.0
  0
LINE
  5
1DD
  8
0
  6
BYBLOCK
 62
     0
 10
323.928091
 20
33.786488
 30
0.0
 11
323.928091
 21
33.113144
 31
0.0
  0
LINE
  5
1DE
  8
0
  6
BYBLOCK
 62
     0
 10
322.878091
 20
33.128144
 30
0.0
 11
323.778091
 21
33.128144
 31
0.0
  0
SOLID
  5
1DF
  8
0
  6
BYBLOCK
 62
     0
 10
322.878091
 20
33.153144
 30
0.0
 11
322.878091
 21
33.103144
 31
0.0
 12
322.728091
 22
33.128144
 32
0.0
 13
322.728091
 23
33.128144
 33
0.0
  0
SOLID
  5
1E0
  8
0
  6
BYBLOCK
 62
     0
 10
323.778091
 20
33.153144
 30
0.0
 11
323.778091
 21
33.103144
 31
0.0
 12
323.928091
 22
33.128144
 32
0.0
 13
323.928091
 23
33.128144
 33
0.0
  0
TEXT
  8
0
  40
0.075
  5
215
  62
0
  72
0
  71
0
 10
323.178
 20
33.0704
 30
0.000000
  1
1.20
  7
ROMANC
  0
POINT
  5
1E2
  8
DEFPOINTS
  6
BYBLOCK
 62
     0
 10
322.728091
 20
34.301488
 30
0.0
  0
POINT
  5
1E3
  8
DEFPOINTS
  6
BYBLOCK
 62
     0
 10
323.928091
 20
33.801488
 30
0.0
  0
POINT
  5
1E4
  8
DEFPOINTS
  6
BYBLOCK
 62
     0
 10
323.928091
 20
33.128144
 30
0.0
  0
LINE
  5
1E5
  8
0
  6
BYBLOCK
 62
     0
 10
323.928091
 20
33.786488
 30
0.0
 11
323.928091
 21
33.44004
 31
0.0
  0
LINE
  5
1E6
  8
0
  6
BYBLOCK
 62
     0
 10
323.008091
 20
33.786488
 30
0.0
 11
323.008091
 21
33.44004
 31
0.0
  0
LINE
  5
1E7
  8
0
  6
BYBLOCK
 62
     0
 10
323.778091
 20
33.45504
 30
0.0
 11
323.158091
 21
33.45504
 31
0.0
  0
SOLID
  5
1E8
  8
0
  6
BYBLOCK
 62
     0
 10
323.778091
 20
33.48004
 30
0.0
 11
323.778091
 21
33.43004
 31
0.0
 12
323.928091
 22
33.45504
 32
0.0
 13
323.928091
 23
33.45504
 33
0.0
  0
SOLID
  5
1E9
  8
0
  6
BYBLOCK
 62
     0
 10
323.158091
 20
33.48004
 30
0.0
 11
323.158091
 21
33.43004
 31
0.0
 12
323.008091
 22
33.45504
 32
0.0
 13
323.008091
 23
33.45504
 33
0.0
  0
TEXT
  8
0
  40
0.075
  5
216
  62
0
  72
0
  71
0
 10
323.318
 20
33.3973
 30
0.000000
  1
0.92
  7
ROMANC
  0
POINT
  5
1EB
  8
DEFPOINTS
  6
BYBLOCK
 62
     0
 10
323.928091
 20
33.801488
 30
0.0
  0
POINT
  5
1EC
  8
DEFPOINTS
  6
BYBLOCK
 62
     0
 10
323.008091
 20
33.801488
 30
0.0
  0
POINT
  5
1ED
  8
DEFPOINTS
  6
BYBLOCK
 62
     0
 10
323.008091
 20
33.45504
 30
0.0
  0
LINE
  5
1EE
  8
0
  6
BYBLOCK
 62
     0
 10
322.684406
 20
34.301488
 30
0.0
 11
322.325603
 21
34.301488
 31
0.0
  0
LINE
  5
1EF
  8
0
  6
BYBLOCK
 62
     0
 10
322.993091
 20
33.801488
 30
0.0
 11
322.325603
 21
33.801488
 31
0.0
  0
LINE
  5
1F0
  8
0
  6
BYBLOCK
 62
     0
 10
322.340603
 20
34.151488
 30
0.0
 11
322.340603
 21
33.951488
 31
0.0
  0
SOLID
  5
1F1
  8
0
  6
BYBLOCK
 62
     0
 10
322.315603
 20
34.151488
 30
0.0
 11
322.365603
 21
34.151488
 31
0.0
 12
322.340603
 22
34.301488
 32
0.0
 13
322.340603
 23
34.301488
 33
0.0
  0
SOLID
  5
1F2
  8
0
  6
BYBLOCK
 62
     0
 10
322.315603
 20
33.951488
 30
0.0
 11
322.365603
 21
33.951488
 31
0.0
 12
322.340603
 22
33.801488
 32
0.0
 13
322.340603
 23
33.801488
 33
0.0
  0
TEXT
  8
0
  40
0.075
  5
217
  62
0
  72
0
  71
0
 10
322.116
 20
33.9187
 30
0.000000
  1
0.50
  7
ROMANC
  0
POINT
  5
1F4
  8
DEFPOINTS
  6
BYBLOCK
 62
     0
 10
322.699406
 20
34.301488
 30
0.0
  0
POINT
  5
1F5
  8
DEFPOINTS
  6
BYBLOCK
 62
     0
 10
323.008091
 20
33.801488
 30
0.0
  0
POINT
  5
1F6
  8
DEFPOINTS
  6
BYBLOCK
 62
     0
 10
322.340603
 20
33.801488
 30
0.0
  0
LINE
  5
1F7
  8
0
  6
BYBLOCK
 62
     0
 10
323.008091
 20
34.286488
 30
0.0
 11
323.008091
 21
33.44004
 31
0.0
  0
LINE
  5
1F8
  8
0
  6
BYBLOCK
 62
     0
 10
322.728091
 20
34.286488
 30
0.0
 11
322.728091
 21
33.44004
 31
0.0
  0
LINE
  5
1F9
  8
0
  6
BYBLOCK
 62
     0
 10
323.158091
 20
33.45504
 30
0.0
 11
323.308091
 21
33.45504
 31
0.0
  0
LINE
  5
1FA
  8
0
  6
BYBLOCK
 62
     0
 10
322.578091
 20
33.45504
 30
0.0
 11
322.428091
 21
33.45504
 31
0.0
  0
LINE
  5
1FB
  8
0
  6
BYBLOCK
 62
     0
 10
323.008091
 20
33.45504
 30
0.0
 11
322.728091
 21
33.45504
 31
0.0
  0
SOLID
  5
1FC
  8
0
  6
BYBLOCK
 62
     0
 10
323.158091
 20
33.48004
 30
0.0
 11
323.158091
 21
33.43004
 31
0.0
 12
323.008091
 22
33.45504
 32
0.0
 13
323.008091
 23
33.45504
 33
0.0
  0
SOLID
  5
1FD
  8
0
  6
BYBLOCK
 62
     0
 10
322.578091
 20
33.48004
 30
0.0
 11
322.578091
 21
33.43004
 31
0.0
 12
322.728091
 22
33.45504
 32
0.0
 13
322.728091
 23
33.45504
 33
0.0
  0
TEXT
  8
0
  40
0.075
  5
218
  62
0
  72
0
  71
0
 10
322.718
 20
33.3973
 30
0.000000
  1
0.28
  7
ROMANC
  0
POINT
  5
1FF
  8
DEFPOINTS
  6
BYBLOCK
 62
     0
 10
323.008091
 20
34.301488
 30
0.0
  0
POINT
  5
200
  8
DEFPOINTS
  6
BYBLOCK
 62
     0
 10
322.728091
 20
34.301488
 30
0.0
  0
POINT
  5
201
  8
DEFPOINTS
  6
BYBLOCK
 62
     0
 10
322.728091
 20
33.45504
 30
0.0
  0
LINE
  5
202
  8
0
  6
BYBLOCK
 62
     0
 10
323.943091
 20
33.801488
 30
0.0
 11
324.359068
 21
33.801488
 31
0.0
  0
LINE
  5
203
  8
0
  6
BYBLOCK
 62
     0
 10
323.943091
 20
35.961488
 30
0.0
 11
324.359068
 21
35.961488
 31
0.0
  0
LINE
  5
204
  8
0
  6
BYBLOCK
 62
     0
 10
324.344068
 20
33.951488
 30
0.0
 11
324.344068
 21
35.811488
 31
0.0
  0
SOLID
  5
205
  8
0
  6
BYBLOCK
 62
     0
 10
324.319068
 20
33.951488
 30
0.0
 11
324.369068
 21
33.951488
 31
0.0
 12
324.344068
 22
33.801488
 32
0.0
 13
324.344068
 23
33.801488
 33
0.0
  0
SOLID
  5
206
  8
0
  6
BYBLOCK
 62
     0
 10
324.319068
 20
35.811488
 30
0.0
 11
324.369068
 21
35.811488
 31
0.0
 12
324.344068
 22
35.961488
 32
0.0
 13
324.344068
 23
35.961488
 33
0.0
  0
TEXT
  8
0
  40
0.075
  5
219
  62
0
  72
0
  71
0
 10
324.119
 20
34.7487
 30
0.000000
  1
2.16
  7
ROMANC
  0
POINT
  5
208
  8
DEFPOINTS
  6
BYBLOCK
 62
     0
 10
323.928091
 20
33.801488
 30
0.0
  0
POINT
  5
209
  8
DEFPOINTS
  6
BYBLOCK
 62
     0
 10
323.928091
 20
35.961488
 30
0.0
  0
POINT
  5
20A
  8
DEFPOINTS
  6
BYBLOCK
 62
     0
 10
324.344068
 20
35.961488
 30
0.0
  0
ENDSEC
  0
EOF
