  0
SECTION
  2
HEADER
  9
$ACADVER
  1
AC1009
  9
$INSBASE
 10
0.0
 20
0.0
 30
0.0
  9
$EXTMIN
 10
281.396000
 20
29.897000
 30
-2147483.648000
  9
$EXTMAX
 10
291.896000
 20
44.747000
 30
0.000000
  9
$LIMMIN
 10
280.396000
 20
28.897000
  9
$LIMMAX
 10
292.896000
 20
43.747000
  9
$ORTHOMODE
 70
     0
  9
$REGENMODE
 70
     1
  9
$FILLMODE
 70
     1
  9
$QTEXTMODE
 70
     0
  9
$MIRRTEXT
 70
     1
  9
$DRAGMODE
 70
     2
  9
$LTSCALE
 40
1.0
  9
$OSMODE
 70
     0
  9
$ATTMODE
 70
     1
  9
$TEXTSIZE
 40
0.2
  9
$TRACEWID
 40
0.05
  9
$TEXTSTYLE
  7
STANDARD
  9
$CLAYER
  8
0
  9
$CELTYPE
  6
BYLAYER
  9
$CECOLOR
 62
   256
  9
$DIMSCALE
 40
1.0
  9
$DIMASZ
 40
0.18
  9
$DIMEXO
 40
0.0625
  9
$DIMDLI
 40
0.38
  9
$DIMRND
 40
0.0
  9
$DIMDLE
 40
0.0
  9
$DIMEXE
 40
0.18
  9
$DIMTP
 40
0.0
  9
$DIMTM
 40
0.0
  9
$DIMTXT
 40
0.18
  9
$DIMCEN
 40
0.09
  9
$DIMTSZ
 40
0.0
  9
$DIMTOL
 70
     0
  9
$DIMLIM
 70
     0
  9
$DIMTIH
 70
     1
  9
$DIMTOH
 70
     1
  9
$DIMSE1
 70
     0
  9
$DIMSE2
 70
     0
  9
$DIMTAD
 70
     0
  9
$DIMZIN
 70
     0
  9
$DIMBLK
  1

  9
$DIMASO
 70
     1
  9
$DIMSHO
 70
     1
  9
$DIMPOST
  1

  9
$DIMAPOST
  1

  9
$DIMALT
 70
     0
  9
$DIMALTD
 70
     2
  9
$DIMALTF
 40
25.4
  9
$DIMLFAC
 40
1.0
  9
$DIMTOFL
 70
     0
  9
$DIMTVP
 40
0.0
  9
$DIMTIX
 70
     0
  9
$DIMSOXD
 70
     0
  9
$DIMSAH
 70
     0
  9
$DIMBLK1
  1

  9
$DIMBLK2
  1

  9
$DIMSTYLE
  2
*UNNAMED
  9
$DIMCLRD
 70
     0
  9
$DIMCLRE
 70
     0
  9
$DIMCLRT
 70
     0
  9
$DIMTFAC
 40
1.0
  9
$DIMGAP
 40
0.09
  9
$LUNITS
 70
     2
  9
$LUPREC
 70
     4
  9
$AXISMODE
 70
     0
  9
$AXISUNIT
 10
0.0
 20
0.0
  9
$SKETCHINC
 40
0.1
  9
$FILLETRAD
 40
0.0
  9
$AUNITS
 70
     0
  9
$AUPREC
 70
     0
  9
$MENU
  1
acad
  9
$ELEVATION
 40
0.0
  9
$PELEVATION
 40
0.0
  9
$THICKNESS
 40
0.0
  9
$LIMCHECK
 70
     0
  9
$BLIPMODE
 70
     1
  9
$CHAMFERA
 40
0.0
  9
$CHAMFERB
 40
0.0
  9
$SKPOLY
 70
     0
  9
$TDCREATE
 40
2448315.373408102
  9
$TDUPDATE
 40
2448315.373408102
  9
$TDINDWG
 40
0.0000000000
  9
$TDUSRTIMER
 40
0.0000000000
  9
$USRTIMER
 70
     1
  9
$ANGBASE
 50
0.0
  9
$ANGDIR
 70
     0
  9
$PDMODE
 70
     0
  9
$PDSIZE
 40
0.0
  9
$PLINEWID
 40
0.0
  9
$COORDS
 70
     0
  9
$SPLFRAME
 70
     0
  9
$SPLINETYPE
 70
     6
  9
$SPLINESEGS
 70
     8
  9
$ATTDIA
 70
     0
  9
$ATTREQ
 70
     1
  9
$HANDLING
 70
     0
  9
$HANDSEED
  5
0
  9
$SURFTAB1
 70
     6
  9
$SURFTAB2
 70
     6
  9
$SURFTYPE
 70
     6
  9
$SURFU
 70
     6
  9
$SURFV
 70
     6
  9
$UCSNAME
  2

  9
$UCSORG
 10
0.0
 20
0.0
 30
0.0
  9
$UCSXDIR
 10
1.0
 20
0.0
 30
0.0
  9
$UCSYDIR
 10
0.0
 20
1.0
 30
0.0
  9
$PUCSNAME
  2

  9
$PUCSORG
 10
0.0
 20
0.0
 30
0.0
  9
$PUCSXDIR
 10
1.0
 20
0.0
 30
0.0
  9
$PUCSYDIR
 10
0.0
 20
1.0
 30
0.0
  9
$USERI1
 70
     0
  9
$USERI2
 70
     0
  9
$USERI3
 70
     0
  9
$USERI4
 70
     0
  9
$USERI5
 70
     0
  9
$USERR1
 40
0.0
  9
$USERR2
 40
0.0
  9
$USERR3
 40
0.0
  9
$USERR4
 40
0.0
  9
$USERR5
 40
0.0
  9
$WORLDVIEW
 70
     1
  9
$SHADEDGE
 70
     3
  9
$SHADEDIF
 70
    70
  9
$TILEMODE
 70
     1
  9
$MAXACTVP
 70
    16
  9
$PINSBASE
 10
0.0
 20
0.0
 30
0.0
  9
$PLIMCHECK
 70
     0
  9
$PEXTMIN
 10
1.000000E+20
 20
1.000000E+20
 30
1.000000E+20
  9
$PEXTMAX
 10
-1.000000E+20
 20
-1.000000E+20
 30
-1.000000E+20
  9
$PLIMMIN
 10
0.0
 20
0.0
  9
$PLIMMAX
 10
12.0
 20
9.0
  9
$UNITMODE
 70
     0
  9
$VISRETAIN
 70
     0
  0
ENDSEC
  0
SECTION
  2
TABLES
  0
TABLE
  2
LTYPE
 70
    1
  0
LTYPE
  2
CONTINUOUS
 70
    64
3
Solid line
 72
    65
 73
0
 40
0.000000
  0
ENDTAB
  0
TABLE
  2
LAYER
 70
    8
  0
LAYER
  2
0
 70
    64
 62
7
  6
CONTINUOUS
  0
LAYER
  2
1
 70
    64
 62
7
  6
CONTINUOUS
  0
LAYER
  2
7
 70
    64
 62
7
  6
CONTINUOUS
  0
LAYER
  2
8
 70
    64
 62
7
  6
CONTINUOUS
  0
LAYER
  2
9
 70
    64
 62
7
  6
CONTINUOUS
  0
LAYER
  2
22
 70
    64
 62
7
  6
CONTINUOUS
  0
LAYER
  2
25
 70
    64
 62
7
  6
CONTINUOUS
  0
LAYER
  2
0
 70
    64
 62
7
  6
CONTINUOUS
  0
ENDTAB
  0
TABLE
  2
STYLE
 70
    1
  0
STYLE
  2
ROMANC
70
     0
 40
0.0
 41
1.0
 50
0.0
 71
     0
 42
0.2
  3
ROMANC
  4

  0
ENDTAB
  0
ENDSEC
  0
SECTION
  2
BLOCKS
  0
ENDSEC
  0
SECTION
  2
ENTITIES
  0
TEXT
  8
0
  6
CONTINUOUS
 40
0.100000
 10
286.909000
 20
41.324000
  1
2
  7
ROMANC
  0
TEXT
  8
0
  6
CONTINUOUS
 40
0.300000
 10
283.926000
 20
41.768000
  1
ESCALA  1:50
  7
ROMANC
  0
POLYLINE
  8
0
  6
CONTINUOUS
 66
     1
 70
     1
  0
VERTEX
  8
0
  6
CONTINUOUS
 10
281.396000
 20
44.747000
  0
VERTEX
  8
0
  6
CONTINUOUS
 10
291.896000
 20
44.747000
  0
VERTEX
  8
0
  6
CONTINUOUS
 10
291.896000
 20
29.897000
  0
VERTEX
  8
0
  6
CONTINUOUS
 10
281.396000
 20
29.897000
  0
SEQEND
  8
0
  0
ARC
  8
1
  6
CONTINUOUS
 10
286.140000
 20
33.843432
 40
0.575568
 50
362.546058
 51
537.453939
  0
TEXT
  8
0
  6
CONTINUOUS
 40
0.300000
 10
283.922000
 20
40.529000
  1
P = 54 dm
  7
ROMANC
  0
TEXT
  8
0
  6
CONTINUOUS
 40
0.300000
 10
283.945000
 20
41.099000
  1
S = 188 dm
  7
ROMANC
  0
LINE
  8
1
  6
CONTINUOUS
 10
285.565000
 20
32.719000
 11
285.940000
 21
32.719000
  0
ARC
  8
1
  6
CONTINUOUS
 10
286.140000
 20
32.719000
 40
0.200000
 50
180.000000
 51
360.000000
  0
TEXT
  8
1
  6
CONTINUOUS
 40
0.075000
 10
286.018000
 20
32.342000
  1
0.40
  7
ROMANC
  0
LINE
  8
1
  6
CONTINUOUS
 10
285.790000
 20
32.379000
 11
285.940000
 21
32.379000
  0
LINE
  8
1
  6
CONTINUOUS
 10
286.490000
 20
32.379000
 11
286.340000
 21
32.379000
  0
LINE
  8
1
  6
CONTINUOUS
 10
285.978000
 20
32.398000
 11
285.902000
 21
32.360000
  0
LINE
  8
1
  6
CONTINUOUS
 10
286.302000
 20
32.360000
 11
286.378000
 21
32.398000
  0
LINE
  8
1
  6
CONTINUOUS
 10
285.940000
 20
32.681000
 11
285.940000
 21
32.341000
  0
LINE
  8
1
  6
CONTINUOUS
 10
286.340000
 20
32.681000
 11
286.340000
 21
32.341000
  0
LINE
  8
1
  6
CONTINUOUS
 10
285.565000
 20
33.869000
 11
285.565000
 21
32.719000
  0
LINE
  8
1
  6
CONTINUOUS
 10
286.340000
 20
32.719000
 11
286.715000
 21
32.719000
  0
TEXT
  8
1
  6
CONTINUOUS
 40
0.075000
 10
286.039000
 20
32.170000
  1
1.15
  7
ROMANC
  0
LINE
  8
1
  6
CONTINUOUS
 10
286.001000
 20
32.207000
 11
285.565000
 21
32.207000
  0
LINE
  8
1
  6
CONTINUOUS
 10
286.278000
 20
32.207000
 11
286.715000
 21
32.207000
  0
LINE
  8
1
  6
CONTINUOUS
 10
285.528000
 20
32.188000
 11
285.602000
 21
32.226000
  0
LINE
  8
1
  6
CONTINUOUS
 10
286.752000
 20
32.226000
 11
286.678000
 21
32.188000
  0
LINE
  8
1
  6
CONTINUOUS
 10
285.565000
 20
32.681000
 11
285.565000
 21
32.169000
  0
LINE
  8
1
  6
CONTINUOUS
 10
286.715000
 20
32.681000
 11
286.715000
 21
32.169000
  0
LINE
  8
1
  6
CONTINUOUS
 10
286.715000
 20
32.719000
 11
286.715000
 21
33.869000
  0
TEXT
  8
1
  6
CONTINUOUS
 40
0.075000
 10
286.910000
 20
32.882000
  1
0.20
 50
90.000000
  7
ROMANC
  0
LINE
  8
1
  6
CONTINUOUS
 10
286.872000
 20
32.369000
 11
286.872000
 21
32.519000
  0
LINE
  8
1
  6
CONTINUOUS
 10
286.872000
 20
32.844000
 11
286.872000
 21
32.719000
  0
LINE
  8
1
  6
CONTINUOUS
 10
286.853000
 20
32.556000
 11
286.891000
 21
32.482000
  0
LINE
  8
1
  6
CONTINUOUS
 10
286.891000
 20
32.682000
 11
286.853000
 21
32.756000
  0
LINE
  8
1
  6
CONTINUOUS
 10
286.178000
 20
32.519000
 11
286.910000
 21
32.519000
  0
LINE
  8
1
  6
CONTINUOUS
 10
286.753000
 20
32.719000
 11
286.910000
 21
32.719000
  0
TEXT
  8
1
  6
CONTINUOUS
 40
0.075000
 10
287.098000
 20
33.193000
  1
1.15
 50
90.000000
  7
ROMANC
  0
LINE
  8
1
  6
CONTINUOUS
 10
287.060000
 20
33.155000
 11
287.060000
 21
32.719000
  0
LINE
  8
1
  6
CONTINUOUS
 10
287.060000
 20
33.432000
 11
287.060000
 21
33.869000
  0
LINE
  8
1
  6
CONTINUOUS
 10
287.079000
 20
32.682000
 11
287.041000
 21
32.756000
  0
LINE
  8
1
  6
CONTINUOUS
 10
287.041000
 20
33.906000
 11
287.079000
 21
33.832000
  0
LINE
  8
1
  6
CONTINUOUS
 10
286.753000
 20
32.719000
 11
287.098000
 21
32.719000
  0
LINE
  8
1
  6
CONTINUOUS
 10
286.753000
 20
33.869000
 11
287.098000
 21
33.869000
  0
TEXT
  8
1
  6
CONTINUOUS
 40
0.075000
 10
287.316000
 20
33.359000
  1
1.90
 50
90.000000
  7
ROMANC
  0
LINE
  8
1
  6
CONTINUOUS
 10
287.278000
 20
33.321000
 11
287.278000
 21
32.519000
  0
LINE
  8
1
  6
CONTINUOUS
 10
287.278000
 20
33.616000
 11
287.278000
 21
34.419000
  0
LINE
  8
1
  6
CONTINUOUS
 10
287.297000
 20
32.482000
 11
287.259000
 21
32.556000
  0
LINE
  8
1
  6
CONTINUOUS
 10
287.259000
 20
34.456000
 11
287.297000
 21
34.382000
  0
LINE
  8
1
  6
CONTINUOUS
 10
286.178000
 20
32.519000
 11
287.316000
 21
32.519000
  0
LINE
  8
1
  6
CONTINUOUS
 10
286.178000
 20
34.419000
 11
287.316000
 21
34.419000
  0
LINE
  8
1
  6
CONTINUOUS
 10
285.555000
 20
32.709000
 11
285.930000
 21
32.709000
  0
LINE
  8
1
  6
CONTINUOUS
 10
285.545000
 20
32.699000
 11
285.921000
 21
32.699000
  0
ARC
  8
1
  6
CONTINUOUS
 10
286.140000
 20
32.719000
 40
0.210000
 50
182.729403
 51
357.270597
  0
ARC
  8
1
  6
CONTINUOUS
 10
286.140000
 20
32.719000
 40
0.220000
 50
185.215908
 51
354.784092
  0
LINE
  8
1
  6
CONTINUOUS
 10
286.350000
 20
32.709000
 11
286.725000
 21
32.709000
  0
LINE
  8
1
  6
CONTINUOUS
 10
286.359000
 20
32.699000
 11
286.735000
 21
32.699000
  0
LINE
  8
1
  6
CONTINUOUS
 10
286.725000
 20
32.709000
 11
286.725000
 21
33.869000
  0
LINE
  8
1
  6
CONTINUOUS
 10
286.735000
 20
32.699000
 11
286.735000
 21
33.869000
  0
LINE
  8
1
  6
CONTINUOUS
 10
285.555000
 20
33.869000
 11
285.555000
 21
32.709000
  0
LINE
  8
1
  6
CONTINUOUS
 10
285.545000
 20
33.869000
 11
285.545000
 21
32.699000
  0
ARC
  8
1
  6
CONTINUOUS
 10
286.140000
 20
33.843432
 40
0.585568
 50
362.546058
 51
537.453939
  0
ARC
  8
1
  6
CONTINUOUS
 10
286.140000
 20
33.843432
 40
0.595568
 50
362.546058
 51
537.453939
  0
TEXT
  8
0
  6
CONTINUOUS
 40
0.300000
 10
283.926000
 20
42.381000
  1
TIPUS   NT188B
  7
ROMANC
  0
ENDSEC
  0
EOF
