  0
SECTION
  2
HEADER
  9
$ACADVER
  1
AC1009
  9
$INSBASE
 10
0.0
 20
0.0
 30
0.0
  9
$EXTMIN
 10
249.776434
 20
-27.532393
 30
0.0
  9
$EXTMAX
 10
304.966879
 20
44.88984
 30
0.0
  9
$LIMMIN
 10
0.0
 20
0.0
  9
$LIMMAX
 10
410.0
 20
287.0
  9
$ORTHOMODE
 70
     1
  9
$REGENMODE
 70
     1
  9
$FILLMODE
 70
     1
  9
$QTEXTMODE
 70
     0
  9
$MIRRTEXT
 70
     1
  9
$DRAGMODE
 70
     2
  9
$LTSCALE
 40
25.0
  9
$OSMODE
 70
    32
  9
$ATTMODE
 70
     1
  9
$TEXTSIZE
 40
0.1
  9
$TRACEWID
 40
1.0
  9
$TEXTSTYLE
  7
ROMANC
  9
$CLAYER
  8
0
  9
$CELTYPE
  6
BYLAYER
  9
$CECOLOR
 62
   256
  9
$DIMSCALE
 40
1.5
  9
$DIMASZ
 40
0.1
  9
$DIMEXO
 40
0.01
  9
$DIMDLI
 40
7.0
  9
$DIMRND
 40
0.0
  9
$DIMDLE
 40
0.0
  9
$DIMEXE
 40
0.01
  9
$DIMTP
 40
0.0
  9
$DIMTM
 40
0.0
  9
$DIMTXT
 40
0.05
  9
$DIMCEN
 40
0.1
  9
$DIMTSZ
 40
0.0
  9
$DIMTOL
 70
     0
  9
$DIMLIM
 70
     0
  9
$DIMTIH
 70
     0
  9
$DIMTOH
 70
     0
  9
$DIMSE1
 70
     0
  9
$DIMSE2
 70
     0
  9
$DIMTAD
 70
     1
  9
$DIMZIN
 70
     0
  9
$DIMBLK
  1

  9
$DIMASO
 70
     1
  9
$DIMSHO
 70
     0
  9
$DIMPOST
  1

  9
$DIMAPOST
  1

  9
$DIMALT
 70
     0
  9
$DIMALTD
 70
     2
  9
$DIMALTF
 40
25.4
  9
$DIMLFAC
 40
1.0
  9
$DIMTOFL
 70
     1
  9
$DIMTVP
 40
0.0
  9
$DIMTIX
 70
     1
  9
$DIMSOXD
 70
     0
  9
$DIMSAH
 70
     0
  9
$DIMBLK1
  1

  9
$DIMBLK2
  1

  9
$DIMSTYLE
  2
SILVIA
  9
$DIMCLRD
 70
     0
  9
$DIMCLRE
 70
     0
  9
$DIMCLRT
 70
     0
  9
$DIMTFAC
 40
70.0
  9
$DIMGAP
 40
0.09
  9
$LUNITS
 70
     2
  9
$LUPREC
 70
     2
  9
$SKETCHINC
 40
1.0
  9
$FILLETRAD
 40
0.0
  9
$AUNITS
 70
     0
  9
$AUPREC
 70
     0
  9
$MENU
  1
acad
  9
$ELEVATION
 40
0.0
  9
$PELEVATION
 40
0.0
  9
$THICKNESS
 40
0.0
  9
$LIMCHECK
 70
     0
  9
$BLIPMODE
 70
     0
  9
$CHAMFERA
 40
0.0
  9
$CHAMFERB
 40
0.0
  9
$SKPOLY
 70
     0
  9
$TDCREATE
 40
2450128.560089352
  9
$TDUPDATE
 40
2450207.432597337
  9
$TDINDWG
 40
0.0001812500
  9
$TDUSRTIMER
 40
0.0001812500
  9
$USRTIMER
 70
     1
  9
$ANGBASE
 50
0.0
  9
$ANGDIR
 70
     0
  9
$PDMODE
 70
     0
  9
$PDSIZE
 40
0.0
  9
$PLINEWID
 40
0.0
  9
$COORDS
 70
     2
  9
$SPLFRAME
 70
     0
  9
$SPLINETYPE
 70
     6
  9
$SPLINESEGS
 70
     8
  9
$ATTDIA
 70
     0
  9
$ATTREQ
 70
     1
  9
$HANDLING
 70
     0
  9
$HANDSEED
  5
0
  9
$SURFTAB1
 70
     6
  9
$SURFTAB2
 70
     6
  9
$SURFTYPE
 70
     6
  9
$SURFU
 70
     6
  9
$SURFV
 70
     6
  9
$UCSNAME
  2

  9
$UCSORG
 10
0.0
 20
0.0
 30
0.0
  9
$UCSXDIR
 10
1.0
 20
0.0
 30
0.0
  9
$UCSYDIR
 10
0.0
 20
1.0
 30
0.0
  9
$PUCSNAME
  2

  9
$PUCSORG
 10
0.0
 20
0.0
 30
0.0
  9
$PUCSXDIR
 10
1.0
 20
0.0
 30
0.0
  9
$PUCSYDIR
 10
0.0
 20
1.0
 30
0.0
  9
$USERI1
 70
     0
  9
$USERI2
 70
     0
  9
$USERI3
 70
     0
  9
$USERI4
 70
     0
  9
$USERI5
 70
     0
  9
$USERR1
 40
0.0
  9
$USERR2
 40
0.0
  9
$USERR3
 40
0.0
  9
$USERR4
 40
0.0
  9
$USERR5
 40
0.0
  9
$WORLDVIEW
 70
     1
  9
$SHADEDGE
 70
     3
  9
$SHADEDIF
 70
    70
  9
$TILEMODE
 70
     1
  9
$MAXACTVP
 70
    16
  9
$PINSBASE
 10
0.0
 20
0.0
 30
0.0
  9
$PLIMCHECK
 70
     0
  9
$PEXTMIN
 10
1.000000E+20
 20
1.000000E+20
 30
1.000000E+20
  9
$PEXTMAX
 10
-1.000000E+20
 20
-1.000000E+20
 30
-1.000000E+20
  9
$PLIMMIN
 10
0.0
 20
0.0
  9
$PLIMMAX
 10
12.0
 20
9.0
  9
$UNITMODE
 70
     0
  9
$VISRETAIN
 70
     0
  9
$PLINEGEN
 70
     0
  9
$PSLTSCALE
 70
     0
  9
$TREEDEPTH
 70
  3020
  9
$DWGCODEPAGE
  3
iso8859-1
  0
ENDSEC
  0
SECTION
  2
TABLES
  0
TABLE
  2
VPORT
 70
     1
  0
VPORT
  2
*ACTIVE
 70
     0
 10
0.0
 20
0.0
 11
1.0
 21
1.0
 12
302.741283
 22
34.711225
 13
0.0
 23
0.0
 14
1.0
 24
1.0
 15
10.0
 25
10.0
 16
0.0
 26
0.0
 36
1.0
 17
0.0
 27
0.0
 37
0.0
 40
48.13781
 41
1.65
 42
50.0
 43
0.0
 44
0.0
 50
0.0
 51
0.0
 71
     0
 72
   100
 73
     1
 74
     0
 75
     0
 76
     0
 77
     0
 78
     1
  0
ENDTAB
  0
TABLE
  2
LTYPE
 70
     1
  0
LTYPE
  2
CONTINUOUS
 70
    64
  3
Solid line
 72
    65
 73
     0
 40
0.0
  0
ENDTAB
  0
TABLE
  2
LAYER
 70
     2
  0
LAYER
  2
0
 70
    64
 62
     7
  6
CONTINUOUS
  0
LAYER
  2
DEFPOINTS
 70
    64
 62
     7
  6
CONTINUOUS
  0
ENDTAB
  0
TABLE
  2
STYLE
 70
     2
  0
STYLE
  2
STANDARD
 70
     0
 40
0.0
 41
1.0
 50
0.0
 71
     0
 42
0.1
  3
txt
  4

  0
STYLE
  2
ROMANC
 70
    64
 40
0.0
 41
1.0
 50
0.0
 71
     0
 42
0.1
  3
romanc
  4

  0
ENDTAB
  0
TABLE
  2
VIEW
 70
     0
  0
ENDTAB
  0
TABLE
  2
UCS
 70
     0
  0
ENDTAB
  0
TABLE
  2
APPID
 70
     1
  0
APPID
  2
ACAD
 70
    64
  0
ENDTAB
  0
TABLE
  2
DIMSTYLE
 70
     1
  0
DIMSTYLE
  2
SILVIA
 70
    64
  3

  4

  5

  6

  7

 40
1.5
 41
0.1
 42
0.01
 43
7.0
 44
0.01
 45
0.0
 46
0.0
 47
0.0
 48
0.0
140
0.05
141
0.1
142
0.0
143
25.4
144
1.0
145
0.0
146
70.0
147
0.09
 71
     0
 72
     0
 73
     0
 74
     0
 75
     0
 76
     0
 77
     1
 78
     0
170
     0
171
     2
172
     1
173
     0
174
     1
175
     0
176
     0
177
     0
178
     0
  0
ENDTAB
  0
ENDSEC
  0
SECTION
  2
BLOCKS
  0
BLOCK
  8
0
  2
*D0
 70
    65
 10
0.0
 20
0.0
 30
0.0
  3
*D
  0
LINE
  8
0
  6
BYBLOCK
 62
     0
 10
295.489042
 20
32.64427
 30
0.0
 11
295.489042
 21
32.174355
 31
0.0
  0
LINE
  8
0
  6
BYBLOCK
 62
     0
 10
300.519042
 20
32.64427
 30
0.0
 11
300.519042
 21
32.174355
 31
0.0
  0
LINE
  8
0
  6
BYBLOCK
 62
     0
 10
295.639042
 20
32.189355
 30
0.0
 11
300.369042
 21
32.189355
 31
0.0
  0
SOLID
  8
0
  6
BYBLOCK
 62
     0
 10
295.639042
 20
32.214355
 30
0.0
 11
295.639042
 21
32.164355
 31
0.0
 12
295.489042
 22
32.189355
 32
0.0
 13
295.489042
 23
32.189355
 33
0.0
  0
SOLID
  8
0
  6
BYBLOCK
 62
     0
 10
300.369042
 20
32.214355
 30
0.0
 11
300.369042
 21
32.164355
 31
0.0
 12
300.519042
 22
32.189355
 32
0.0
 13
300.519042
 23
32.189355
 33
0.0
  0
TEXT
  8
0
  6
BYBLOCK
 62
     0
 10
297.879042
 20
32.226855
 30
0.0
 40
0.075
  1
5.05
  7
ROMANC
 72
     1
 11
298.004042
 21
32.264355
 31
0.0
 73
     2
  0
POINT
  8
DEFPOINTS
  6
BYBLOCK
 62
     0
 10
295.489042
 20
32.65927
 30
0.0
  0
POINT
  8
DEFPOINTS
  6
BYBLOCK
 62
     0
 10
300.519042
 20
32.65927
 30
0.0
  0
POINT
  8
DEFPOINTS
  6
BYBLOCK
 62
     0
 10
300.519042
 20
32.189355
 30
0.0
  0
ENDBLK
  8
0
  0
BLOCK
  8
0
  2
*D1
 70
    65
 10
0.0
 20
0.0
 30
0.0
  3
*D
  0
LINE
  8
0
  6
BYBLOCK
 62
     0
 10
300.519042
 20
32.64427
 30
0.0
 11
300.519042
 21
32.174355
 31
0.0
  0
LINE
  8
0
  6
BYBLOCK
 62
     0
 10
301.439042
 20
33.02427
 30
0.0
 11
301.439042
 21
32.174355
 31
0.0
  0
LINE
  8
0
  6
BYBLOCK
 62
     0
 10
300.669042
 20
32.189355
 30
0.0
 11
301.289042
 21
32.189355
 31
0.0
  0
SOLID
  8
0
  6
BYBLOCK
 62
     0
 10
300.669042
 20
32.214355
 30
0.0
 11
300.669042
 21
32.164355
 31
0.0
 12
300.519042
 22
32.189355
 32
0.0
 13
300.519042
 23
32.189355
 33
0.0
  0
SOLID
  8
0
  6
BYBLOCK
 62
     0
 10
301.289042
 20
32.214355
 30
0.0
 11
301.289042
 21
32.164355
 31
0.0
 12
301.439042
 22
32.189355
 32
0.0
 13
301.439042
 23
32.189355
 33
0.0
  0
TEXT
  8
0
  6
BYBLOCK
 62
     0
 10
300.854042
 20
32.226855
 30
0.0
 40
0.075
  1
0.90
  7
ROMANC
 72
     1
 11
300.979042
 21
32.264355
 31
0.0
 73
     2
  0
POINT
  8
DEFPOINTS
  6
BYBLOCK
 62
     0
 10
300.519042
 20
32.65927
 30
0.0
  0
POINT
  8
DEFPOINTS
  6
BYBLOCK
 62
     0
 10
301.439042
 20
33.03927
 30
0.0
  0
POINT
  8
DEFPOINTS
  6
BYBLOCK
 62
     0
 10
301.439042
 20
32.189355
 30
0.0
  0
ENDBLK
  8
0
  0
BLOCK
  8
0
  2
*D2
 70
    65
 10
0.0
 20
0.0
 30
0.0
  3
*D
  0
LINE
  8
0
  6
BYBLOCK
 62
     0
 10
301.434042
 20
35.593551
 30
0.0
 11
302.044158
 21
35.593551
 31
0.0
  0
LINE
  8
0
  6
BYBLOCK
 62
     0
 10
301.434042
 20
33.05927
 30
0.0
 11
302.044158
 21
33.05927
 31
0.0
  0
LINE
  8
0
  6
BYBLOCK
 62
     0
 10
302.029158
 20
35.443551
 30
0.0
 11
302.029158
 21
33.20927
 31
0.0
  0
SOLID
  8
0
  6
BYBLOCK
 62
     0
 10
302.004158
 20
35.443551
 30
0.0
 11
302.054158
 21
35.443551
 31
0.0
 12
302.029158
 22
35.593551
 32
0.0
 13
302.029158
 23
35.593551
 33
0.0
  0
SOLID
  8
0
  6
BYBLOCK
 62
     0
 10
302.004158
 20
33.20927
 30
0.0
 11
302.054158
 21
33.20927
 31
0.0
 12
302.029158
 22
33.05927
 32
0.0
 13
302.029158
 23
33.05927
 33
0.0
  0
TEXT
  8
0
  6
BYBLOCK
 62
     0
 10
301.991658
 20
34.201411
 30
0.0
 40
0.075
  1
2.55
 50
90.0
  7
ROMANC
 72
     1
 11
301.954158
 21
34.326411
 31
0.0
 73
     2
  0
POINT
  8
DEFPOINTS
  6
BYBLOCK
 62
     0
 10
301.419042
 20
35.593551
 30
0.0
  0
POINT
  8
DEFPOINTS
  6
BYBLOCK
 62
     0
 10
301.419042
 20
33.05927
 30
0.0
  0
POINT
  8
DEFPOINTS
  6
BYBLOCK
 62
     0
 10
302.029158
 20
33.05927
 30
0.0
  0
ENDBLK
  8
0
  0
BLOCK
  8
0
  2
*D3
 70
    65
 10
0.0
 20
0.0
 30
0.0
  3
*D
  0
LINE
  8
0
  6
BYBLOCK
 62
     0
 10
301.434042
 20
33.05927
 30
0.0
 11
302.044158
 21
33.05927
 31
0.0
  0
LINE
  8
0
  6
BYBLOCK
 62
     0
 10
300.544042
 20
32.64927
 30
0.0
 11
302.044158
 21
32.64927
 31
0.0
  0
LINE
  8
0
  6
BYBLOCK
 62
     0
 10
302.029158
 20
33.20927
 30
0.0
 11
302.029158
 21
33.35927
 31
0.0
  0
LINE
  8
0
  6
BYBLOCK
 62
     0
 10
302.029158
 20
32.49927
 30
0.0
 11
302.029158
 21
32.34927
 31
0.0
  0
SOLID
  8
0
  6
BYBLOCK
 62
     0
 10
302.004158
 20
33.20927
 30
0.0
 11
302.054158
 21
33.20927
 31
0.0
 12
302.029158
 22
33.05927
 32
0.0
 13
302.029158
 23
33.05927
 33
0.0
  0
SOLID
  8
0
  6
BYBLOCK
 62
     0
 10
302.004158
 20
32.49927
 30
0.0
 11
302.054158
 21
32.49927
 31
0.0
 12
302.029158
 22
32.64927
 32
0.0
 13
302.029158
 23
32.64927
 33
0.0
  0
LINE
  8
0
  6
BYBLOCK
 62
     0
 10
302.029158
 20
33.05927
 30
0.0
 11
302.029158
 21
32.64927
 31
0.0
  0
TEXT
  8
0
  6
BYBLOCK
 62
     0
 10
301.991658
 20
32.72927
 30
0.0
 40
0.075
  1
0.40
 50
90.0
  7
ROMANC
 72
     1
 11
301.954158
 21
32.85427
 31
0.0
 73
     2
  0
POINT
  8
DEFPOINTS
  6
BYBLOCK
 62
     0
 10
301.419042
 20
33.05927
 30
0.0
  0
POINT
  8
DEFPOINTS
  6
BYBLOCK
 62
     0
 10
300.529042
 20
32.64927
 30
0.0
  0
POINT
  8
DEFPOINTS
  6
BYBLOCK
 62
     0
 10
302.029158
 20
32.64927
 30
0.0
  0
ENDBLK
  8
0
  0
BLOCK
  8
0
  2
*D4
 70
    65
 10
0.0
 20
0.0
 30
0.0
  3
*D
  0
LINE
  8
0
  6
BYBLOCK
 62
     0
 10
301.434042
 20
35.593551
 30
0.0
 11
302.044158
 21
35.593551
 31
0.0
  0
LINE
  8
0
  6
BYBLOCK
 62
     0
 10
300.931319
 20
35.88927
 30
0.0
 11
302.044158
 21
35.88927
 31
0.0
  0
LINE
  8
0
  6
BYBLOCK
 62
     0
 10
302.029158
 20
35.443551
 30
0.0
 11
302.029158
 21
35.293551
 31
0.0
  0
LINE
  8
0
  6
BYBLOCK
 62
     0
 10
302.029158
 20
36.03927
 30
0.0
 11
302.029158
 21
36.18927
 31
0.0
  0
SOLID
  8
0
  6
BYBLOCK
 62
     0
 10
302.004158
 20
35.443551
 30
0.0
 11
302.054158
 21
35.443551
 31
0.0
 12
302.029158
 22
35.593551
 32
0.0
 13
302.029158
 23
35.593551
 33
0.0
  0
SOLID
  8
0
  6
BYBLOCK
 62
     0
 10
302.004158
 20
36.03927
 30
0.0
 11
302.054158
 21
36.03927
 31
0.0
 12
302.029158
 22
35.88927
 32
0.0
 13
302.029158
 23
35.88927
 33
0.0
  0
LINE
  8
0
  6
BYBLOCK
 62
     0
 10
302.029158
 20
35.593551
 30
0.0
 11
302.029158
 21
35.88927
 31
0.0
  0
TEXT
  8
0
  6
BYBLOCK
 62
     0
 10
301.991658
 20
35.616411
 30
0.0
 40
0.075
  1
0.30
 50
90.0
  7
ROMANC
 72
     1
 11
301.954158
 21
35.741411
 31
0.0
 73
     2
  0
POINT
  8
DEFPOINTS
  6
BYBLOCK
 62
     0
 10
301.419042
 20
35.593551
 30
0.0
  0
POINT
  8
DEFPOINTS
  6
BYBLOCK
 62
     0
 10
300.916319
 20
35.88927
 30
0.0
  0
POINT
  8
DEFPOINTS
  6
BYBLOCK
 62
     0
 10
302.029158
 20
35.88927
 30
0.0
  0
ENDBLK
  8
0
  0
BLOCK
  8
0
  2
*D5
 70
    65
 10
0.0
 20
0.0
 30
0.0
  3
*D
  0
LINE
  8
0
  6
BYBLOCK
 62
     0
 10
300.936042
 20
35.90427
 30
0.0
 11
300.936042
 21
36.343594
 31
0.0
  0
LINE
  8
0
  6
BYBLOCK
 62
     0
 10
301.429042
 20
35.61427
 30
0.0
 11
301.429042
 21
36.343594
 31
0.0
  0
LINE
  8
0
  6
BYBLOCK
 62
     0
 10
300.786042
 20
36.328594
 30
0.0
 11
300.636042
 21
36.328594
 31
0.0
  0
LINE
  8
0
  6
BYBLOCK
 62
     0
 10
301.579042
 20
36.328594
 30
0.0
 11
301.729042
 21
36.328594
 31
0.0
  0
SOLID
  8
0
  6
BYBLOCK
 62
     0
 10
300.786042
 20
36.353594
 30
0.0
 11
300.786042
 21
36.303594
 31
0.0
 12
300.936042
 22
36.328594
 32
0.0
 13
300.936042
 23
36.328594
 33
0.0
  0
SOLID
  8
0
  6
BYBLOCK
 62
     0
 10
301.579042
 20
36.353594
 30
0.0
 11
301.579042
 21
36.303594
 31
0.0
 12
301.429042
 22
36.328594
 32
0.0
 13
301.429042
 23
36.328594
 33
0.0
  0
LINE
  8
0
  6
BYBLOCK
 62
     0
 10
300.936042
 20
36.328594
 30
0.0
 11
301.429042
 21
36.328594
 31
0.0
  0
TEXT
  8
0
  6
BYBLOCK
 62
     0
 10
301.061114
 20
36.366094
 30
0.0
 40
0.075
  1
0.51
  7
ROMANC
 72
     1
 11
301.182542
 21
36.403594
 31
0.0
 73
     2
  0
POINT
  8
DEFPOINTS
  6
BYBLOCK
 62
     0
 10
300.936042
 20
35.88927
 30
0.0
  0
POINT
  8
DEFPOINTS
  6
BYBLOCK
 62
     0
 10
301.429042
 20
35.59927
 30
0.0
  0
POINT
  8
DEFPOINTS
  6
BYBLOCK
 62
     0
 10
301.429042
 20
36.328594
 30
0.0
  0
ENDBLK
  8
0
  0
ENDSEC
  0
SECTION
  2
ENTITIES
  0
LINE
  8
0
 10
304.282937
 20
29.897444
 30
0.0
 11
304.282937
 21
44.747444
 31
0.0
  0
LINE
  8
0
 10
293.782937
 20
44.747444
 30
0.0
 11
293.782937
 21
29.897444
 31
0.0
  0
LINE
  8
0
 10
293.782937
 20
29.897444
 30
0.0
 11
304.282937
 21
29.897444
 31
0.0
  0
LINE
  8
0
 10
304.282937
 20
44.747444
 30
0.0
 11
293.782937
 21
44.747444
 31
0.0
  0
TEXT
  8
0
 10
296.274987
 20
40.56142
 30
0.0
 40
0.3
  1
P = 179.6 dm
  7
ROMANC
  0
TEXT
  8
0
 10
296.326003
 20
41.258999
 30
0.0
 40
0.3
  1
S=  1882 dm
  7
ROMANC
  0
TEXT
  8
0
 10
296.312909
 20
42.343303
 30
0.0
 40
0.3
  1
TIPUS   NT1882
  7
ROMANC
  0
TEXT
  8
0
 10
296.312909
 20
41.857589
 30
0.0
 40
0.3
  1
ESCALA  1:50
  7
ROMANC
  0
TEXT
  8
0
 10
299.883778
 20
41.564915
 30
0.0
 40
0.1
  1
2
  7
ROMANC
  0
LINE
  8
0
  6
BYBLOCK
 62
     0
 10
302.151603
 20
36.917636
 30
0.0
 11
302.761719
 21
36.917636
 31
0.0
  0
LINE
  8
0
  6
BYBLOCK
 62
     0
 10
301.64888
 20
37.213356
 30
0.0
 11
302.761719
 21
37.213356
 31
0.0
  0
LINE
  8
0
  6
BYBLOCK
 62
     0
 10
302.746719
 20
36.767636
 30
0.0
 11
302.746719
 21
36.617636
 31
0.0
  0
LINE
  8
0
  6
BYBLOCK
 62
     0
 10
302.746719
 20
37.363356
 30
0.0
 11
302.746719
 21
37.513356
 31
0.0
  0
SOLID
  8
0
  6
BYBLOCK
 62
     0
 10
302.721719
 20
36.767636
 30
0.0
 11
302.771719
 21
36.767636
 31
0.0
 12
302.746719
 22
36.917636
 32
0.0
 13
302.746719
 23
36.917636
 33
0.0
  0
SOLID
  8
0
  6
BYBLOCK
 62
     0
 10
302.721719
 20
37.363356
 30
0.0
 11
302.771719
 21
37.363356
 31
0.0
 12
302.746719
 22
37.213356
 32
0.0
 13
302.746719
 23
37.213356
 33
0.0
  0
LINE
  8
0
  6
BYBLOCK
 62
     0
 10
302.746719
 20
36.917636
 30
0.0
 11
302.746719
 21
37.213356
 31
0.0
  0
TEXT
  8
0
  6
BYBLOCK
 62
     0
 10
302.709219
 20
36.940496
 30
0.0
 40
0.075
  1
0.30
 50
90.0
  7
ROMANC
 72
     1
 11
302.671719
 21
37.065496
 31
0.0
 73
     2
  0
POINT
  8
DEFPOINTS
  6
BYBLOCK
 62
     0
 10
302.136603
 20
36.917636
 30
0.0
  0
POINT
  8
DEFPOINTS
  6
BYBLOCK
 62
     0
 10
301.63388
 20
37.213356
 30
0.0
  0
POINT
  8
DEFPOINTS
  6
BYBLOCK
 62
     0
 10
302.746719
 20
37.213356
 30
0.0
  0
LINE
  8
0
  6
BYBLOCK
 62
     0
 10
302.151603
 20
34.383356
 30
0.0
 11
302.761719
 21
34.383356
 31
0.0
  0
LINE
  8
0
  6
BYBLOCK
 62
     0
 10
301.261603
 20
33.973356
 30
0.0
 11
302.761719
 21
33.973356
 31
0.0
  0
LINE
  8
0
  6
BYBLOCK
 62
     0
 10
302.746719
 20
34.533356
 30
0.0
 11
302.746719
 21
34.683356
 31
0.0
  0
LINE
  8
0
  6
BYBLOCK
 62
     0
 10
302.746719
 20
33.823356
 30
0.0
 11
302.746719
 21
33.673356
 31
0.0
  0
SOLID
  8
0
  6
BYBLOCK
 62
     0
 10
302.721719
 20
34.533356
 30
0.0
 11
302.771719
 21
34.533356
 31
0.0
 12
302.746719
 22
34.383356
 32
0.0
 13
302.746719
 23
34.383356
 33
0.0
  0
SOLID
  8
0
  6
BYBLOCK
 62
     0
 10
302.721719
 20
33.823356
 30
0.0
 11
302.771719
 21
33.823356
 31
0.0
 12
302.746719
 22
33.973356
 32
0.0
 13
302.746719
 23
33.973356
 33
0.0
  0
LINE
  8
0
  6
BYBLOCK
 62
     0
 10
302.746719
 20
34.383356
 30
0.0
 11
302.746719
 21
33.973356
 31
0.0
  0
TEXT
  8
0
  6
BYBLOCK
 62
     0
 10
302.709219
 20
34.053356
 30
0.0
 40
0.075
  1
0.40
 50
90.0
  7
ROMANC
 72
     1
 11
302.671719
 21
34.178356
 31
0.0
 73
     2
  0
POINT
  8
DEFPOINTS
  6
BYBLOCK
 62
     0
 10
302.136603
 20
34.383356
 30
0.0
  0
POINT
  8
DEFPOINTS
  6
BYBLOCK
 62
     0
 10
301.246603
 20
33.973356
 30
0.0
  0
POINT
  8
DEFPOINTS
  6
BYBLOCK
 62
     0
 10
302.746719
 20
33.973356
 30
0.0
  0
LINE
  8
0
  6
BYBLOCK
 62
     0
 10
301.236603
 20
33.968356
 30
0.0
 11
301.236603
 21
33.49844
 31
0.0
  0
LINE
  8
0
  6
BYBLOCK
 62
     0
 10
302.156603
 20
34.348356
 30
0.0
 11
302.156603
 21
33.49844
 31
0.0
  0
LINE
  8
0
  6
BYBLOCK
 62
     0
 10
301.386603
 20
33.51344
 30
0.0
 11
302.006603
 21
33.51344
 31
0.0
  0
SOLID
  8
0
  6
BYBLOCK
 62
     0
 10
301.386603
 20
33.53844
 30
0.0
 11
301.386603
 21
33.48844
 31
0.0
 12
301.236603
 22
33.51344
 32
0.0
 13
301.236603
 23
33.51344
 33
0.0
  0
SOLID
  8
0
  6
BYBLOCK
 62
     0
 10
302.006603
 20
33.53844
 30
0.0
 11
302.006603
 21
33.48844
 31
0.0
 12
302.156603
 22
33.51344
 32
0.0
 13
302.156603
 23
33.51344
 33
0.0
  0
TEXT
  8
0
  6
BYBLOCK
 62
     0
 10
301.571603
 20
33.55094
 30
0.0
 40
0.075
  1
0.90
  7
ROMANC
 72
     1
 11
301.696603
 21
33.58844
 31
0.0
 73
     2
  0
POINT
  8
DEFPOINTS
  6
BYBLOCK
 62
     0
 10
301.236603
 20
33.983356
 30
0.0
  0
POINT
  8
DEFPOINTS
  6
BYBLOCK
 62
     0
 10
302.156603
 20
34.363356
 30
0.0
  0
POINT
  8
DEFPOINTS
  6
BYBLOCK
 62
     0
 10
302.156603
 20
33.51344
 30
0.0
  0
LINE
  8
0
  6
BYBLOCK
 62
     0
 10
302.151603
 20
36.917636
 30
0.0
 11
302.761719
 21
36.917636
 31
0.0
  0
LINE
  8
0
  6
BYBLOCK
 62
     0
 10
302.151603
 20
34.383356
 30
0.0
 11
302.761719
 21
34.383356
 31
0.0
  0
LINE
  8
0
  6
BYBLOCK
 62
     0
 10
302.746719
 20
36.767636
 30
0.0
 11
302.746719
 21
34.533356
 31
0.0
  0
SOLID
  8
0
  6
BYBLOCK
 62
     0
 10
302.721719
 20
36.767636
 30
0.0
 11
302.771719
 21
36.767636
 31
0.0
 12
302.746719
 22
36.917636
 32
0.0
 13
302.746719
 23
36.917636
 33
0.0
  0
SOLID
  8
0
  6
BYBLOCK
 62
     0
 10
302.721719
 20
34.533356
 30
0.0
 11
302.771719
 21
34.533356
 31
0.0
 12
302.746719
 22
34.383356
 32
0.0
 13
302.746719
 23
34.383356
 33
0.0
  0
TEXT
  8
0
  6
BYBLOCK
 62
     0
 10
302.709219
 20
35.525496
 30
0.0
 40
0.075
  1
2.55
 50
90.0
  7
ROMANC
 72
     1
 11
302.671719
 21
35.650496
 31
0.0
 73
     2
  0
POINT
  8
DEFPOINTS
  6
BYBLOCK
 62
     0
 10
302.136603
 20
36.917636
 30
0.0
  0
POINT
  8
DEFPOINTS
  6
BYBLOCK
 62
     0
 10
302.136603
 20
34.383356
 30
0.0
  0
POINT
  8
DEFPOINTS
  6
BYBLOCK
 62
     0
 10
302.746719
 20
34.383356
 30
0.0
  0
LINE
  8
0
  6
BYBLOCK
 62
     0
 10
301.653603
 20
37.228356
 30
0.0
 11
301.653603
 21
37.667679
 31
0.0
  0
LINE
  8
0
  6
BYBLOCK
 62
     0
 10
302.146603
 20
36.938356
 30
0.0
 11
302.146603
 21
37.667679
 31
0.0
  0
LINE
  8
0
  6
BYBLOCK
 62
     0
 10
301.503603
 20
37.652679
 30
0.0
 11
301.353603
 21
37.652679
 31
0.0
  0
LINE
  8
0
  6
BYBLOCK
 62
     0
 10
302.296603
 20
37.652679
 30
0.0
 11
302.446603
 21
37.652679
 31
0.0
  0
SOLID
  8
0
  6
BYBLOCK
 62
     0
 10
301.503603
 20
37.677679
 30
0.0
 11
301.503603
 21
37.627679
 31
0.0
 12
301.653603
 22
37.652679
 32
0.0
 13
301.653603
 23
37.652679
 33
0.0
  0
SOLID
  8
0
  6
BYBLOCK
 62
     0
 10
302.296603
 20
37.677679
 30
0.0
 11
302.296603
 21
37.627679
 31
0.0
 12
302.146603
 22
37.652679
 32
0.0
 13
302.146603
 23
37.652679
 33
0.0
  0
LINE
  8
0
  6
BYBLOCK
 62
     0
 10
301.653603
 20
37.652679
 30
0.0
 11
302.146603
 21
37.652679
 31
0.0
  0
TEXT
  8
0
  6
BYBLOCK
 62
     0
 10
301.778675
 20
37.690179
 30
0.0
 40
0.075
  1
0.51
  7
ROMANC
 72
     1
 11
301.900103
 21
37.727679
 31
0.0
 73
     2
  0
POINT
  8
DEFPOINTS
  6
BYBLOCK
 62
     0
 10
301.653603
 20
37.213356
 30
0.0
  0
POINT
  8
DEFPOINTS
  6
BYBLOCK
 62
     0
 10
302.146603
 20
36.923356
 30
0.0
  0
POINT
  8
DEFPOINTS
  6
BYBLOCK
 62
     0
 10
302.146603
 20
37.652679
 30
0.0
  0
LINE
  8
0
 10
296.709326
 20
37.213356
 30
0.0
 11
301.63388
 21
37.213356
 31
0.0
  0
LINE
  8
0
 10
301.63388
 20
37.213356
 30
0.0
 11
302.136603
 21
36.917636
 31
0.0
  0
LINE
  8
0
 10
302.136603
 20
36.917636
 30
0.0
 11
302.136603
 21
34.383356
 31
0.0
  0
LINE
  8
0
 10
302.136603
 20
34.383356
 30
0.0
 11
301.236603
 21
34.383356
 31
0.0
  0
LINE
  8
0
 10
301.236603
 20
34.383356
 30
0.0
 11
301.236603
 21
33.983356
 31
0.0
  0
LINE
  8
0
 10
301.236603
 20
33.983356
 30
0.0
 11
296.206603
 21
33.983356
 31
0.0
  0
LINE
  8
0
 10
296.206603
 20
33.983356
 30
0.0
 11
296.206603
 21
36.917636
 31
0.0
  0
LINE
  8
0
 10
296.206603
 20
36.917636
 30
0.0
 11
296.709326
 21
37.213356
 31
0.0
  0
LINE
  8
0
 10
296.70388
 20
37.233356
 30
0.0
 11
301.639326
 21
37.233356
 31
0.0
  0
LINE
  8
0
 10
301.639326
 20
37.233356
 30
0.0
 11
302.156603
 21
36.929075
 31
0.0
  0
LINE
  8
0
 10
302.156603
 20
36.929075
 30
0.0
 11
302.156603
 21
34.363356
 31
0.0
  0
LINE
  8
0
 10
302.156603
 20
34.363356
 30
0.0
 11
301.256603
 21
34.363356
 31
0.0
  0
LINE
  8
0
 10
301.256603
 20
34.363356
 30
0.0
 11
301.256603
 21
33.963356
 31
0.0
  0
LINE
  8
0
 10
301.256603
 20
33.963356
 30
0.0
 11
296.186603
 21
33.963356
 31
0.0
  0
LINE
  8
0
 10
296.186603
 20
33.963356
 30
0.0
 11
296.186603
 21
36.929075
 31
0.0
  0
LINE
  8
0
 10
296.186603
 20
36.929075
 30
0.0
 11
296.70388
 21
37.233356
 31
0.0
  0
LINE
  8
0
 10
296.706603
 20
37.223356
 30
0.0
 11
301.636603
 21
37.223356
 31
0.0
  0
LINE
  8
0
 10
301.636603
 20
37.223356
 30
0.0
 11
302.146603
 21
36.923356
 31
0.0
  0
LINE
  8
0
 10
302.146603
 20
36.923356
 30
0.0
 11
302.146603
 21
34.373356
 31
0.0
  0
LINE
  8
0
 10
302.146603
 20
34.373356
 30
0.0
 11
301.246603
 21
34.373356
 31
0.0
  0
LINE
  8
0
 10
301.246603
 20
34.373356
 30
0.0
 11
301.246603
 21
33.973356
 31
0.0
  0
LINE
  8
0
 10
301.246603
 20
33.973356
 30
0.0
 11
296.196603
 21
33.973356
 31
0.0
  0
LINE
  8
0
 10
296.196603
 20
33.973356
 30
0.0
 11
296.196603
 21
36.923356
 31
0.0
  0
LINE
  8
0
 10
296.196603
 20
36.923356
 30
0.0
 11
296.706603
 21
37.223356
 31
0.0
  0
LINE
  8
0
  6
BYBLOCK
 62
     0
 10
296.206603
 20
33.968356
 30
0.0
 11
296.206603
 21
33.49844
 31
0.0
  0
LINE
  8
0
  6
BYBLOCK
 62
     0
 10
301.236603
 20
33.968356
 30
0.0
 11
301.236603
 21
33.49844
 31
0.0
  0
LINE
  8
0
  6
BYBLOCK
 62
     0
 10
296.356603
 20
33.51344
 30
0.0
 11
301.086603
 21
33.51344
 31
0.0
  0
SOLID
  8
0
  6
BYBLOCK
 62
     0
 10
296.356603
 20
33.53844
 30
0.0
 11
296.356603
 21
33.48844
 31
0.0
 12
296.206603
 22
33.51344
 32
0.0
 13
296.206603
 23
33.51344
 33
0.0
  0
SOLID
  8
0
  6
BYBLOCK
 62
     0
 10
301.086603
 20
33.53844
 30
0.0
 11
301.086603
 21
33.48844
 31
0.0
 12
301.236603
 22
33.51344
 32
0.0
 13
301.236603
 23
33.51344
 33
0.0
  0
TEXT
  8
0
  6
BYBLOCK
 62
     0
 10
298.596603
 20
33.55094
 30
0.0
 40
0.075
  1
5.05
  7
ROMANC
 72
     1
 11
298.721603
 21
33.58844
 31
0.0
 73
     2
  0
POINT
  8
DEFPOINTS
  6
BYBLOCK
 62
     0
 10
296.206603
 20
33.983356
 30
0.0
  0
POINT
  8
DEFPOINTS
  6
BYBLOCK
 62
     0
 10
301.236603
 20
33.983356
 30
0.0
  0
POINT
  8
DEFPOINTS
  6
BYBLOCK
 62
     0
 10
301.236603
 20
33.51344
 30
0.0
  0
ENDSEC
  0
EOF
