  0
SECTION
  2
HEADER
  9
$ACADVER
  1
AC1009
  9
$INSBASE
 10
0.0
 20
0.0
 30
0.0
  9
$EXTMIN
 10
281.396000
 20
29.897000
 30
-2147483.648000
  9
$EXTMAX
 10
291.896000
 20
44.747000
 30
0.000000
  9
$LIMMIN
 10
280.396000
 20
28.897000
  9
$LIMMAX
 10
292.896000
 20
43.747000
  9
$ORTHOMODE
 70
     0
  9
$REGENMODE
 70
     1
  9
$FILLMODE
 70
     1
  9
$QTEXTMODE
 70
     0
  9
$MIRRTEXT
 70
     1
  9
$DRAGMODE
 70
     2
  9
$LTSCALE
 40
1.0
  9
$OSMODE
 70
     0
  9
$ATTMODE
 70
     1
  9
$TEXTSIZE
 40
0.2
  9
$TRACEWID
 40
0.05
  9
$TEXTSTYLE
  7
STANDARD
  9
$CLAYER
  8
0
  9
$CELTYPE
  6
BYLAYER
  9
$CECOLOR
 62
   256
  9
$DIMSCALE
 40
1.0
  9
$DIMASZ
 40
0.18
  9
$DIMEXO
 40
0.0625
  9
$DIMDLI
 40
0.38
  9
$DIMRND
 40
0.0
  9
$DIMDLE
 40
0.0
  9
$DIMEXE
 40
0.18
  9
$DIMTP
 40
0.0
  9
$DIMTM
 40
0.0
  9
$DIMTXT
 40
0.18
  9
$DIMCEN
 40
0.09
  9
$DIMTSZ
 40
0.0
  9
$DIMTOL
 70
     0
  9
$DIMLIM
 70
     0
  9
$DIMTIH
 70
     1
  9
$DIMTOH
 70
     1
  9
$DIMSE1
 70
     0
  9
$DIMSE2
 70
     0
  9
$DIMTAD
 70
     0
  9
$DIMZIN
 70
     0
  9
$DIMBLK
  1

  9
$DIMASO
 70
     1
  9
$DIMSHO
 70
     1
  9
$DIMPOST
  1

  9
$DIMAPOST
  1

  9
$DIMALT
 70
     0
  9
$DIMALTD
 70
     2
  9
$DIMALTF
 40
25.4
  9
$DIMLFAC
 40
1.0
  9
$DIMTOFL
 70
     0
  9
$DIMTVP
 40
0.0
  9
$DIMTIX
 70
     0
  9
$DIMSOXD
 70
     0
  9
$DIMSAH
 70
     0
  9
$DIMBLK1
  1

  9
$DIMBLK2
  1

  9
$DIMSTYLE
  2
*UNNAMED
  9
$DIMCLRD
 70
     0
  9
$DIMCLRE
 70
     0
  9
$DIMCLRT
 70
     0
  9
$DIMTFAC
 40
1.0
  9
$DIMGAP
 40
0.09
  9
$LUNITS
 70
     2
  9
$LUPREC
 70
     4
  9
$AXISMODE
 70
     0
  9
$AXISUNIT
 10
0.0
 20
0.0
  9
$SKETCHINC
 40
0.1
  9
$FILLETRAD
 40
0.0
  9
$AUNITS
 70
     0
  9
$AUPREC
 70
     0
  9
$MENU
  1
acad
  9
$ELEVATION
 40
0.0
  9
$PELEVATION
 40
0.0
  9
$THICKNESS
 40
0.0
  9
$LIMCHECK
 70
     0
  9
$BLIPMODE
 70
     1
  9
$CHAMFERA
 40
0.0
  9
$CHAMFERB
 40
0.0
  9
$SKPOLY
 70
     0
  9
$TDCREATE
 40
2448315.373408102
  9
$TDUPDATE
 40
2448315.373408102
  9
$TDINDWG
 40
0.0000000000
  9
$TDUSRTIMER
 40
0.0000000000
  9
$USRTIMER
 70
     1
  9
$ANGBASE
 50
0.0
  9
$ANGDIR
 70
     0
  9
$PDMODE
 70
     0
  9
$PDSIZE
 40
0.0
  9
$PLINEWID
 40
0.0
  9
$COORDS
 70
     0
  9
$SPLFRAME
 70
     0
  9
$SPLINETYPE
 70
     6
  9
$SPLINESEGS
 70
     8
  9
$ATTDIA
 70
     0
  9
$ATTREQ
 70
     1
  9
$HANDLING
 70
     0
  9
$HANDSEED
  5
0
  9
$SURFTAB1
 70
     6
  9
$SURFTAB2
 70
     6
  9
$SURFTYPE
 70
     6
  9
$SURFU
 70
     6
  9
$SURFV
 70
     6
  9
$UCSNAME
  2

  9
$UCSORG
 10
0.0
 20
0.0
 30
0.0
  9
$UCSXDIR
 10
1.0
 20
0.0
 30
0.0
  9
$UCSYDIR
 10
0.0
 20
1.0
 30
0.0
  9
$PUCSNAME
  2

  9
$PUCSORG
 10
0.0
 20
0.0
 30
0.0
  9
$PUCSXDIR
 10
1.0
 20
0.0
 30
0.0
  9
$PUCSYDIR
 10
0.0
 20
1.0
 30
0.0
  9
$USERI1
 70
     0
  9
$USERI2
 70
     0
  9
$USERI3
 70
     0
  9
$USERI4
 70
     0
  9
$USERI5
 70
     0
  9
$USERR1
 40
0.0
  9
$USERR2
 40
0.0
  9
$USERR3
 40
0.0
  9
$USERR4
 40
0.0
  9
$USERR5
 40
0.0
  9
$WORLDVIEW
 70
     1
  9
$SHADEDGE
 70
     3
  9
$SHADEDIF
 70
    70
  9
$TILEMODE
 70
     1
  9
$MAXACTVP
 70
    16
  9
$PINSBASE
 10
0.0
 20
0.0
 30
0.0
  9
$PLIMCHECK
 70
     0
  9
$PEXTMIN
 10
1.000000E+20
 20
1.000000E+20
 30
1.000000E+20
  9
$PEXTMAX
 10
-1.000000E+20
 20
-1.000000E+20
 30
-1.000000E+20
  9
$PLIMMIN
 10
0.0
 20
0.0
  9
$PLIMMAX
 10
12.0
 20
9.0
  9
$UNITMODE
 70
     0
  9
$VISRETAIN
 70
     0
  0
ENDSEC
  0
SECTION
  2
TABLES
  0
TABLE
  2
LTYPE
 70
    1
  0
LTYPE
  2
CONTINUOUS
 70
    64
3
Solid line
 72
    65
 73
0
 40
0.000000
  0
ENDTAB
  0
TABLE
  2
LAYER
 70
    8
  0
LAYER
  2
0
 70
    64
 62
7
  6
CONTINUOUS
  0
LAYER
  2
1
 70
    64
 62
7
  6
CONTINUOUS
  0
LAYER
  2
7
 70
    64
 62
7
  6
CONTINUOUS
  0
LAYER
  2
8
 70
    64
 62
7
  6
CONTINUOUS
  0
LAYER
  2
9
 70
    64
 62
7
  6
CONTINUOUS
  0
LAYER
  2
22
 70
    64
 62
7
  6
CONTINUOUS
  0
LAYER
  2
25
 70
    64
 62
7
  6
CONTINUOUS
  0
LAYER
  2
0
 70
    64
 62
7
  6
CONTINUOUS
  0
ENDTAB
  0
TABLE
  2
STYLE
 70
    1
  0
STYLE
  2
ROMANC
70
     0
 40
0.0
 41
1.0
 50
0.0
 71
     0
 42
0.2
  3
ROMANC
  4

  0
ENDTAB
  0
ENDSEC
  0
SECTION
  2
BLOCKS
  0
ENDSEC
  0
SECTION
  2
ENTITIES
  0
TEXT
  8
0
  6
CONTINUOUS
 40
0.100000
 10
286.935000
 20
41.326000
  1
2
  7
ROMANC
  0
TEXT
  8
0
  6
CONTINUOUS
 40
0.300000
 10
283.926000
 20
41.768000
  1
ESCALA  1:50
  7
ROMANC
  0
POLYLINE
  8
0
  6
CONTINUOUS
 66
     1
 70
     1
  0
VERTEX
  8
0
  6
CONTINUOUS
 10
281.396000
 20
44.747000
  0
VERTEX
  8
0
  6
CONTINUOUS
 10
291.896000
 20
44.747000
  0
VERTEX
  8
0
  6
CONTINUOUS
 10
291.896000
 20
29.897000
  0
VERTEX
  8
0
  6
CONTINUOUS
 10
281.396000
 20
29.897000
  0
SEQEND
  8
0
  0
TEXT
  8
0
  6
CONTINUOUS
 40
0.300000
 10
283.945000
 20
41.099000
  1
S = 185 dm
  7
ROMANC
  0
TEXT
  8
0
  6
CONTINUOUS
 40
0.300000
 10
283.922000
 20
40.529000
  1
P = 51 dm
  7
ROMANC
  0
TEXT
  8
0
  6
CONTINUOUS
 40
0.300000
 10
283.926000
 20
42.381000
  1
TIPUS   NT185A
  7
ROMANC
  0
LINE
  8
1
  6
CONTINUOUS
 10
286.697000
 20
35.769000
 11
287.247000
 21
36.769000
  0
LINE
  8
1
  6
CONTINUOUS
 10
285.638000
 20
36.764000
 11
286.191000
 21
35.759000
  0
LINE
  8
1
  6
CONTINUOUS
 10
285.628000
 20
36.762000
 11
286.184000
 21
35.749000
  0
POLYLINE
  8
1
  6
CONTINUOUS
 66
     1
 70
     0
  0
VERTEX
  8
1
  6
CONTINUOUS
 10
287.257491
 20
36.766710
 42
0.043662
  0
VERTEX
  8
1
  6
CONTINUOUS
 10
287.250772
 20
36.847131
 42
0.042079
  0
VERTEX
  8
1
  6
CONTINUOUS
 10
287.230502
 20
36.925275
 42
0.041033
  0
VERTEX
  8
1
  6
CONTINUOUS
 10
287.195910
 20
37.002321
 42
0.037340
  0
VERTEX
  8
1
  6
CONTINUOUS
 10
287.149737
 20
37.073113
 42
0.035954
  0
VERTEX
  8
1
  6
CONTINUOUS
 10
287.089573
 20
37.140952
 42
0.032126
  0
VERTEX
  8
1
  6
CONTINUOUS
 10
287.020741
 20
37.200073
 42
0.030964
  0
VERTEX
  8
1
  6
CONTINUOUS
 10
286.939447
 20
37.253704
 42
0.028077
  0
VERTEX
  8
1
  6
CONTINUOUS
 10
286.852376
 20
37.297434
 42
0.027313
  0
VERTEX
  8
1
  6
CONTINUOUS
 10
286.755915
 20
37.333152
 42
0.025614
  0
VERTEX
  8
1
  6
CONTINUOUS
 10
286.656203
 20
37.358509
 42
0.025246
  0
VERTEX
  8
1
  6
CONTINUOUS
 10
286.551467
 20
37.374056
 42
0.024698
  0
VERTEX
  8
1
  6
CONTINUOUS
 10
286.445696
 20
37.379104
 42
0.024701
  0
VERTEX
  8
1
  6
CONTINUOUS
 10
286.339969
 20
37.373703
 42
0.025268
  0
VERTEX
  8
1
  6
CONTINUOUS
 10
286.235313
 20
37.357804
 42
0.025643
  0
VERTEX
  8
1
  6
CONTINUOUS
 10
286.135763
 20
37.332116
 42
0.027361
  0
VERTEX
  8
1
  6
CONTINUOUS
 10
286.039503
 20
37.296072
 42
0.028133
  0
VERTEX
  8
1
  6
CONTINUOUS
 10
285.952697
 20
37.252055
 42
0.031039
  0
VERTEX
  8
1
  6
CONTINUOUS
 10
285.871714
 20
37.198149
 42
0.032207
  0
VERTEX
  8
1
  6
CONTINUOUS
 10
285.803232
 20
37.138797
 42
0.036045
  0
VERTEX
  8
1
  6
CONTINUOUS
 10
285.743470
 20
37.070758
 42
0.037431
  0
VERTEX
  8
1
  6
CONTINUOUS
 10
285.697711
 20
36.999803
 42
0.041106
  0
VERTEX
  8
1
  6
CONTINUOUS
 10
285.663578
 20
36.922650
 42
0.042139
  0
VERTEX
  8
1
  6
CONTINUOUS
 10
285.643768
 20
36.844423
 42
0.043670
  0
VERTEX
  8
1
  6
CONTINUOUS
 10
285.637526
 20
36.763997
  0
SEQEND
  8
0
  0
POLYLINE
  8
1
  6
CONTINUOUS
 66
     1
 70
     0
  0
VERTEX
  8
1
  6
CONTINUOUS
 10
287.267468
 20
36.763852
 42
0.043582
  0
VERTEX
  8
1
  6
CONTINUOUS
 10
287.261134
 20
36.845752
 42
0.042076
  0
VERTEX
  8
1
  6
CONTINUOUS
 10
287.241007
 20
36.925422
 42
0.041059
  0
VERTEX
  8
1
  6
CONTINUOUS
 10
287.206335
 20
37.003966
 42
0.037437
  0
VERTEX
  8
1
  6
CONTINUOUS
 10
287.159832
 20
37.076214
 42
0.036068
  0
VERTEX
  8
1
  6
CONTINUOUS
 10
287.099127
 20
37.145441
 42
0.032273
  0
VERTEX
  8
1
  6
CONTINUOUS
 10
287.029540
 20
37.205830
 42
0.031116
  0
VERTEX
  8
1
  6
CONTINUOUS
 10
286.947295
 20
37.260619
 42
0.028237
  0
VERTEX
  8
1
  6
CONTINUOUS
 10
286.859115
 20
37.305333
 42
0.027472
  0
VERTEX
  8
1
  6
CONTINUOUS
 10
286.761386
 20
37.341878
 42
0.025771
  0
VERTEX
  8
1
  6
CONTINUOUS
 10
286.660308
 20
37.367862
 42
0.025401
  0
VERTEX
  8
1
  6
CONTINUOUS
 10
286.554105
 20
37.383840
 42
0.024847
  0
VERTEX
  8
1
  6
CONTINUOUS
 10
286.446828
 20
37.389105
 42
0.024849
  0
VERTEX
  8
1
  6
CONTINUOUS
 10
286.339567
 20
37.383708
 42
0.025409
  0
VERTEX
  8
1
  6
CONTINUOUS
 10
286.233393
 20
37.367598
 42
0.025781
  0
VERTEX
  8
1
  6
CONTINUOUS
 10
286.132376
 20
37.341491
 42
0.027490
  0
VERTEX
  8
1
  6
CONTINUOUS
 10
286.034722
 20
37.304824
 42
0.028257
  0
VERTEX
  8
1
  6
CONTINUOUS
 10
285.946641
 20
37.260002
 42
0.031144
  0
VERTEX
  8
1
  6
CONTINUOUS
 10
285.864512
 20
37.205110
 42
0.032303
  0
VERTEX
  8
1
  6
CONTINUOUS
 10
285.795055
 20
37.144636
 42
0.036101
  0
VERTEX
  8
1
  6
CONTINUOUS
 10
285.734500
 20
37.075334
 42
0.037470
  0
VERTEX
  8
1
  6
CONTINUOUS
 10
285.688152
 20
37.003025
 42
0.041086
  0
VERTEX
  8
1
  6
CONTINUOUS
 10
285.653651
 20
36.924442
 42
0.042098
  0
VERTEX
  8
1
  6
CONTINUOUS
 10
285.633695
 20
36.844741
 42
0.043585
  0
VERTEX
  8
1
  6
CONTINUOUS
 10
285.627539
 20
36.762839
  0
SEQEND
  8
0
  0
LINE
  8
1
  6
CONTINUOUS
 10
286.703000
 20
35.759000
 11
287.257000
 21
36.767000
  0
LINE
  8
1
  6
CONTINUOUS
 10
286.710000
 20
35.749000
 11
287.267000
 21
36.763000
  0
LINE
  8
1
  6
CONTINUOUS
 10
286.191000
 20
35.759000
 11
286.238000
 21
35.759000
  0
LINE
  8
1
  6
CONTINUOUS
 10
286.184000
 20
35.749000
 11
286.229000
 21
35.749000
  0
POLYLINE
  8
1
  6
CONTINUOUS
 66
     1
 70
     0
  0
VERTEX
  8
1
  6
CONTINUOUS
 10
286.237917
 20
35.759000
 42
0.044717
  0
VERTEX
  8
1
  6
CONTINUOUS
 10
286.241765
 20
35.737088
 42
0.042304
  0
VERTEX
  8
1
  6
CONTINUOUS
 10
286.249331
 20
35.716153
 42
0.041037
  0
VERTEX
  8
1
  6
CONTINUOUS
 10
286.260918
 20
35.695696
 42
0.036989
  0
VERTEX
  8
1
  6
CONTINUOUS
 10
286.275542
 20
35.677261
 42
0.035581
  0
VERTEX
  8
1
  6
CONTINUOUS
 10
286.293983
 20
35.659935
 42
0.031863
  0
VERTEX
  8
1
  6
CONTINUOUS
 10
286.314592
 20
35.645226
 42
0.030791
  0
VERTEX
  8
1
  6
CONTINUOUS
 10
286.338402
 20
35.632392
 42
0.028245
  0
VERTEX
  8
1
  6
CONTINUOUS
 10
286.363566
 20
35.622440
 42
0.027616
  0
VERTEX
  8
1
  6
CONTINUOUS
 10
286.390864
 20
35.615034
 42
0.026367
  0
VERTEX
  8
1
  6
CONTINUOUS
 10
286.418806
 20
35.610605
 42
0.026162
  0
VERTEX
  8
1
  6
CONTINUOUS
 10
286.447497
 20
35.609106
 42
0.026162
  0
VERTEX
  8
1
  6
CONTINUOUS
 10
286.476189
 20
35.610605
 42
0.026367
  0
VERTEX
  8
1
  6
CONTINUOUS
 10
286.504131
 20
35.615034
 42
0.027616
  0
VERTEX
  8
1
  6
CONTINUOUS
 10
286.531429
 20
35.622440
 42
0.028245
  0
VERTEX
  8
1
  6
CONTINUOUS
 10
286.556592
 20
35.632392
 42
0.030791
  0
VERTEX
  8
1
  6
CONTINUOUS
 10
286.580403
 20
35.645226
 42
0.031863
  0
VERTEX
  8
1
  6
CONTINUOUS
 10
286.601012
 20
35.659935
 42
0.035581
  0
VERTEX
  8
1
  6
CONTINUOUS
 10
286.619453
 20
35.677261
 42
0.036989
  0
VERTEX
  8
1
  6
CONTINUOUS
 10
286.634077
 20
35.695696
 42
0.041037
  0
VERTEX
  8
1
  6
CONTINUOUS
 10
286.645664
 20
35.716153
 42
0.042304
  0
VERTEX
  8
1
  6
CONTINUOUS
 10
286.653230
 20
35.737088
 42
0.044717
  0
VERTEX
  8
1
  6
CONTINUOUS
 10
286.657078
 20
35.759000
  0
SEQEND
  8
0
  0
POLYLINE
  8
1
  6
CONTINUOUS
 66
     1
 70
     0
  0
VERTEX
  8
1
  6
CONTINUOUS
 10
286.229041
 20
35.749000
 42
0.042098
  0
VERTEX
  8
1
  6
CONTINUOUS
 10
286.234455
 20
35.726741
 42
0.039613
  0
VERTEX
  8
1
  6
CONTINUOUS
 10
286.243403
 20
35.705640
 42
0.038456
  0
VERTEX
  8
1
  6
CONTINUOUS
 10
286.256228
 20
35.685124
 42
0.034881
  0
VERTEX
  8
1
  6
CONTINUOUS
 10
286.271912
 20
35.666679
 42
0.033670
  0
VERTEX
  8
1
  6
CONTINUOUS
 10
286.291227
 20
35.649451
 42
0.030473
  0
VERTEX
  8
1
  6
CONTINUOUS
 10
286.312592
 20
35.634818
 42
0.029554
  0
VERTEX
  8
1
  6
CONTINUOUS
 10
286.336962
 20
35.622123
 42
0.027360
  0
VERTEX
  8
1
  6
CONTINUOUS
 10
286.362623
 20
35.612266
 42
0.026815
  0
VERTEX
  8
1
  6
CONTINUOUS
 10
286.390271
 20
35.604959
 42
0.025731
  0
VERTEX
  8
1
  6
CONTINUOUS
 10
286.418537
 20
35.600584
 42
0.025553
  0
VERTEX
  8
1
  6
CONTINUOUS
 10
286.447497
 20
35.599106
 42
0.025553
  0
VERTEX
  8
1
  6
CONTINUOUS
 10
286.476458
 20
35.600584
 42
0.025731
  0
VERTEX
  8
1
  6
CONTINUOUS
 10
286.504724
 20
35.604959
 42
0.026815
  0
VERTEX
  8
1
  6
CONTINUOUS
 10
286.532372
 20
35.612266
 42
0.027360
  0
VERTEX
  8
1
  6
CONTINUOUS
 10
286.558033
 20
35.622123
 42
0.029554
  0
VERTEX
  8
1
  6
CONTINUOUS
 10
286.582403
 20
35.634818
 42
0.030473
  0
VERTEX
  8
1
  6
CONTINUOUS
 10
286.603768
 20
35.649451
 42
0.033670
  0
VERTEX
  8
1
  6
CONTINUOUS
 10
286.623083
 20
35.666679
 42
0.034881
  0
VERTEX
  8
1
  6
CONTINUOUS
 10
286.638767
 20
35.685124
 42
0.038456
  0
VERTEX
  8
1
  6
CONTINUOUS
 10
286.651592
 20
35.705640
 42
0.039613
  0
VERTEX
  8
1
  6
CONTINUOUS
 10
286.660540
 20
35.726741
 42
0.042098
  0
VERTEX
  8
1
  6
CONTINUOUS
 10
286.665954
 20
35.749000
  0
SEQEND
  8
0
  0
LINE
  8
1
  6
CONTINUOUS
 10
286.657000
 20
35.759000
 11
286.703000
 21
35.759000
  0
LINE
  8
1
  6
CONTINUOUS
 10
286.666000
 20
35.749000
 11
286.710000
 21
35.749000
  0
LINE
  8
1
  6
CONTINUOUS
 10
286.197000
 20
35.769000
 11
286.247000
 21
35.769000
  0
LINE
  8
1
  6
CONTINUOUS
 10
286.647000
 20
35.769000
 11
286.697000
 21
35.769000
  0
TEXT
  8
1
  6
CONTINUOUS
 40
0.075000
 10
285.787000
 20
35.338000
  1
0.40
  7
ROMANC
  0
LINE
  8
1
  6
CONTINUOUS
 10
286.174000
 20
35.375000
 11
286.247000
 21
35.375000
  0
LINE
  8
1
  6
CONTINUOUS
 10
286.797000
 20
35.375000
 11
286.647000
 21
35.375000
  0
LINE
  8
1
  6
CONTINUOUS
 10
286.284000
 20
35.394000
 11
286.210000
 21
35.356000
  0
LINE
  8
1
  6
CONTINUOUS
 10
286.610000
 20
35.356000
 11
286.684000
 21
35.394000
  0
LINE
  8
1
  6
CONTINUOUS
 10
286.247000
 20
35.731000
 11
286.247000
 21
35.337000
  0
LINE
  8
1
  6
CONTINUOUS
 10
286.647000
 20
35.731000
 11
286.647000
 21
35.337000
  0
TEXT
  8
1
  6
CONTINUOUS
 40
0.075000
 10
286.310000
 20
35.096000
  1
0.50
  7
ROMANC
  0
LINE
  8
1
  6
CONTINUOUS
 10
286.047000
 20
35.133000
 11
286.197000
 21
35.133000
  0
LINE
  8
1
  6
CONTINUOUS
 10
286.847000
 20
35.133000
 11
286.697000
 21
35.133000
  0
LINE
  8
1
  6
CONTINUOUS
 10
286.234000
 20
35.152000
 11
286.160000
 21
35.114000
  0
LINE
  8
1
  6
CONTINUOUS
 10
286.660000
 20
35.114000
 11
286.734000
 21
35.152000
  0
LINE
  8
1
  6
CONTINUOUS
 10
286.197000
 20
35.731000
 11
286.197000
 21
35.095000
  0
LINE
  8
1
  6
CONTINUOUS
 10
286.697000
 20
35.731000
 11
286.697000
 21
35.095000
  0
POLYLINE
  8
1
  6
CONTINUOUS
 66
     1
 70
     0
  0
VERTEX
  8
1
  6
CONTINUOUS
 10
286.247497
 20
35.769105
 42
0.043662
  0
VERTEX
  8
1
  6
CONTINUOUS
 10
286.249247
 20
35.749406
 42
0.042016
  0
VERTEX
  8
1
  6
CONTINUOUS
 10
286.254312
 20
35.730282
 42
0.040948
  0
VERTEX
  8
1
  6
CONTINUOUS
 10
286.262889
 20
35.711422
 42
0.037204
  0
VERTEX
  8
1
  6
CONTINUOUS
 10
286.274292
 20
35.694105
 42
0.035805
  0
VERTEX
  8
1
  6
CONTINUOUS
 10
286.289129
 20
35.677503
 42
0.031954
  0
VERTEX
  8
1
  6
CONTINUOUS
 10
286.306076
 20
35.663039
 42
0.030788
  0
VERTEX
  8
1
  6
CONTINUOUS
 10
286.326084
 20
35.649910
 42
0.027894
  0
VERTEX
  8
1
  6
CONTINUOUS
 10
286.347497
 20
35.639201
 42
0.027129
  0
VERTEX
  8
1
  6
CONTINUOUS
 10
286.371219
 20
35.630444
 42
0.025427
  0
VERTEX
  8
1
  6
CONTINUOUS
 10
286.395734
 20
35.624216
 42
0.025057
  0
VERTEX
  8
1
  6
CONTINUOUS
 10
286.421488
 20
35.620380
 42
0.024503
  0
VERTEX
  8
1
  6
CONTINUOUS
 10
286.447497
 20
35.619105
 42
0.024503
  0
VERTEX
  8
1
  6
CONTINUOUS
 10
286.473507
 20
35.620380
 42
0.025057
  0
VERTEX
  8
1
  6
CONTINUOUS
 10
286.499261
 20
35.624216
 42
0.025427
  0
VERTEX
  8
1
  6
CONTINUOUS
 10
286.523775
 20
35.630444
 42
0.027129
  0
VERTEX
  8
1
  6
CONTINUOUS
 10
286.547497
 20
35.639201
 42
0.027894
  0
VERTEX
  8
1
  6
CONTINUOUS
 10
286.568911
 20
35.649910
 42
0.030788
  0
VERTEX
  8
1
  6
CONTINUOUS
 10
286.588919
 20
35.663039
 42
0.031954
  0
VERTEX
  8
1
  6
CONTINUOUS
 10
286.605866
 20
35.677503
 42
0.035805
  0
VERTEX
  8
1
  6
CONTINUOUS
 10
286.620703
 20
35.694105
 42
0.037204
  0
VERTEX
  8
1
  6
CONTINUOUS
 10
286.632106
 20
35.711422
 42
0.040948
  0
VERTEX
  8
1
  6
CONTINUOUS
 10
286.640683
 20
35.730282
 42
0.042016
  0
VERTEX
  8
1
  6
CONTINUOUS
 10
286.645748
 20
35.749406
 42
0.043662
  0
VERTEX
  8
1
  6
CONTINUOUS
 10
286.647497
 20
35.769105
  0
SEQEND
  8
0
  0
TEXT
  8
1
  6
CONTINUOUS
 40
0.075000
 10
287.184000
 20
35.968000
  1
0.15
 50
90.000000
  7
ROMANC
  0
LINE
  8
1
  6
CONTINUOUS
 10
287.147000
 20
35.854000
 11
287.147000
 21
35.769000
  0
LINE
  8
1
  6
CONTINUOUS
 10
287.147000
 20
35.469000
 11
287.147000
 21
35.619000
  0
LINE
  8
1
  6
CONTINUOUS
 10
287.166000
 20
35.732000
 11
287.128000
 21
35.806000
  0
LINE
  8
1
  6
CONTINUOUS
 10
287.128000
 20
35.656000
 11
287.166000
 21
35.582000
  0
LINE
  8
1
  6
CONTINUOUS
 10
286.735000
 20
35.769000
 11
287.185000
 21
35.769000
  0
LINE
  8
1
  6
CONTINUOUS
 10
286.485000
 20
35.619000
 11
287.185000
 21
35.619000
  0
LINE
  8
1
  6
CONTINUOUS
 10
285.647000
 20
36.769000
 11
286.197000
 21
35.769000
  0
TEXT
  8
1
  6
CONTINUOUS
 40
0.075000
 10
285.338000
 20
36.132000
  1
1.00
 50
90.000000
  7
ROMANC
  0
LINE
  8
1
  6
CONTINUOUS
 10
285.300000
 20
36.094000
 11
285.300000
 21
35.769000
  0
LINE
  8
1
  6
CONTINUOUS
 10
285.300000
 20
36.443000
 11
285.300000
 21
36.769000
  0
LINE
  8
1
  6
CONTINUOUS
 10
285.319000
 20
35.732000
 11
285.281000
 21
35.806000
  0
LINE
  8
1
  6
CONTINUOUS
 10
285.281000
 20
36.806000
 11
285.319000
 21
36.732000
  0
LINE
  8
1
  6
CONTINUOUS
 10
286.159000
 20
35.769000
 11
285.262000
 21
35.769000
  0
LINE
  8
1
  6
CONTINUOUS
 10
285.609000
 20
36.769000
 11
285.262000
 21
36.769000
  0
POLYLINE
  8
1
  6
CONTINUOUS
 66
     1
 70
     0
  0
VERTEX
  8
1
  6
CONTINUOUS
 10
287.247497
 20
36.769105
 42
0.043662
  0
VERTEX
  8
1
  6
CONTINUOUS
 10
287.240498
 20
36.847900
 42
0.042016
  0
VERTEX
  8
1
  6
CONTINUOUS
 10
287.220238
 20
36.924397
 42
0.040948
  0
VERTEX
  8
1
  6
CONTINUOUS
 10
287.185931
 20
36.999836
 42
0.037204
  0
VERTEX
  8
1
  6
CONTINUOUS
 10
287.140318
 20
37.069105
 42
0.035805
  0
VERTEX
  8
1
  6
CONTINUOUS
 10
287.080973
 20
37.135513
 42
0.031954
  0
VERTEX
  8
1
  6
CONTINUOUS
 10
287.013183
 20
37.193369
 42
0.030788
  0
VERTEX
  8
1
  6
CONTINUOUS
 10
286.933152
 20
37.245887
 42
0.027894
  0
VERTEX
  8
1
  6
CONTINUOUS
 10
286.847497
 20
37.288720
 42
0.027129
  0
VERTEX
  8
1
  6
CONTINUOUS
 10
286.752609
 20
37.323750
 42
0.025427
  0
VERTEX
  8
1
  6
CONTINUOUS
 10
286.654553
 20
37.348661
 42
0.025057
  0
VERTEX
  8
1
  6
CONTINUOUS
 10
286.551535
 20
37.364007
 42
0.024503
  0
VERTEX
  8
1
  6
CONTINUOUS
 10
286.447497
 20
37.369105
 42
0.024503
  0
VERTEX
  8
1
  6
CONTINUOUS
 10
286.343460
 20
37.364007
 42
0.025057
  0
VERTEX
  8
1
  6
CONTINUOUS
 10
286.240442
 20
37.348661
 42
0.025427
  0
VERTEX
  8
1
  6
CONTINUOUS
 10
286.142385
 20
37.323750
 42
0.027129
  0
VERTEX
  8
1
  6
CONTINUOUS
 10
286.047497
 20
37.288720
 42
0.027894
  0
VERTEX
  8
1
  6
CONTINUOUS
 10
285.961843
 20
37.245887
 42
0.030788
  0
VERTEX
  8
1
  6
CONTINUOUS
 10
285.881812
 20
37.193369
 42
0.031954
  0
VERTEX
  8
1
  6
CONTINUOUS
 10
285.814022
 20
37.135513
 42
0.035805
  0
VERTEX
  8
1
  6
CONTINUOUS
 10
285.754677
 20
37.069105
 42
0.037204
  0
VERTEX
  8
1
  6
CONTINUOUS
 10
285.709064
 20
36.999836
 42
0.040948
  0
VERTEX
  8
1
  6
CONTINUOUS
 10
285.674757
 20
36.924397
 42
0.042016
  0
VERTEX
  8
1
  6
CONTINUOUS
 10
285.654497
 20
36.847900
 42
0.043662
  0
VERTEX
  8
1
  6
CONTINUOUS
 10
285.647497
 20
36.769105
  0
SEQEND
  8
0
  0
TEXT
  8
1
  6
CONTINUOUS
 40
0.075000
 10
285.040000
 20
36.432000
  1
1.60
 50
90.000000
  7
ROMANC
  0
LINE
  8
1
  6
CONTINUOUS
 10
285.002000
 20
36.394000
 11
285.002000
 21
35.769000
  0
LINE
  8
1
  6
CONTINUOUS
 10
285.002000
 20
36.743000
 11
285.002000
 21
37.369000
  0
LINE
  8
1
  6
CONTINUOUS
 10
285.021000
 20
35.732000
 11
284.983000
 21
35.806000
  0
LINE
  8
1
  6
CONTINUOUS
 10
284.983000
 20
37.406000
 11
285.021000
 21
37.332000
  0
LINE
  8
1
  6
CONTINUOUS
 10
285.224000
 20
35.769000
 11
284.964000
 21
35.769000
  0
LINE
  8
1
  6
CONTINUOUS
 10
286.409000
 20
37.369000
 11
284.964000
 21
37.369000
  0
TEXT
  8
1
  6
CONTINUOUS
 40
0.075000
 10
286.310000
 20
37.734000
  1
1.60
  7
ROMANC
  0
LINE
  8
1
  6
CONTINUOUS
 10
286.272000
 20
37.771000
 11
285.647000
 21
37.771000
  0
LINE
  8
1
  6
CONTINUOUS
 10
286.621000
 20
37.771000
 11
287.247000
 21
37.771000
  0
LINE
  8
1
  6
CONTINUOUS
 10
285.610000
 20
37.752000
 11
285.684000
 21
37.790000
  0
LINE
  8
1
  6
CONTINUOUS
 10
287.284000
 20
37.790000
 11
287.210000
 21
37.752000
  0
LINE
  8
1
  6
CONTINUOUS
 10
285.647000
 20
36.807000
 11
285.647000
 21
37.809000
  0
LINE
  8
1
  6
CONTINUOUS
 10
287.247000
 20
36.807000
 11
287.247000
 21
37.809000
  0
ENDSEC
  0
EOF
