  0
SECTION
  2
HEADER
  9
$ACADVER
  1
AC1009
  9
$INSBASE
 10
0.0
 20
0.0
 30
0.0
  9
$EXTMIN
 10
318.84869600000002
 20
29.863623
 30
0.0
  9
$EXTMAX
 10
329.34869600000002
 20
44.713622999999998
 30
0.0
  9
$LIMMIN
 10
0.0
 20
0.0
  9
$LIMMAX
 10
410.0
 20
287.0
  9
$ORTHOMODE
 70
     1
  9
$REGENMODE
 70
     1
  9
$FILLMODE
 70
     1
  9
$QTEXTMODE
 70
     0
  9
$MIRRTEXT
 70
     1
  9
$DRAGMODE
 70
     2
  9
$LTSCALE
 40
25.0
  9
$OSMODE
 70
  2183
  9
$ATTMODE
 70
     1
  9
$TEXTSIZE
 40
0.1
  9
$TRACEWID
 40
1.0
  9
$TEXTSTYLE
  7
ROMANC
  9
$CLAYER
  8
GEOMETRIA
  9
$CELTYPE
  6
BYLAYER
  9
$CECOLOR
 62
   256
  9
$DIMSCALE
 40
1.5
  9
$DIMASZ
 40
0.1
  9
$DIMEXO
 40
0.01
  9
$DIMDLI
 40
7.0
  9
$DIMRND
 40
0.0
  9
$DIMDLE
 40
0.0
  9
$DIMEXE
 40
0.01
  9
$DIMTP
 40
0.0
  9
$DIMTM
 40
0.0
  9
$DIMTXT
 40
0.05
  9
$DIMCEN
 40
0.0
  9
$DIMTSZ
 40
0.0
  9
$DIMTOL
 70
     0
  9
$DIMLIM
 70
     0
  9
$DIMTIH
 70
     0
  9
$DIMTOH
 70
     0
  9
$DIMSE1
 70
     0
  9
$DIMSE2
 70
     0
  9
$DIMTAD
 70
     1
  9
$DIMZIN
 70
     0
  9
$DIMBLK
  1

  9
$DIMASO
 70
     1
  9
$DIMSHO
 70
     0
  9
$DIMPOST
  1

  9
$DIMAPOST
  1

  9
$DIMALT
 70
     0
  9
$DIMALTD
 70
     2
  9
$DIMALTF
 40
25.399999999999999
  9
$DIMLFAC
 40
1.0
  9
$DIMTOFL
 70
     1
  9
$DIMTVP
 40
0.0
  9
$DIMTIX
 70
     1
  9
$DIMSOXD
 70
     0
  9
$DIMSAH
 70
     0
  9
$DIMBLK1
  1

  9
$DIMBLK2
  1

  9
$DIMSTYLE
  2
MERITXELL
  9
$DIMCLRD
 70
     0
  9
$DIMCLRE
 70
     0
  9
$DIMCLRT
 70
     0
  9
$DIMTFAC
 40
70.0
  9
$DIMGAP
 40
0.025
  9
$LUNITS
 70
     2
  9
$LUPREC
 70
     2
  9
$SKETCHINC
 40
1.0
  9
$FILLETRAD
 40
0.0
  9
$AUNITS
 70
     0
  9
$AUPREC
 70
     0
  9
$MENU
  1
acad
  9
$ELEVATION
 40
0.0
  9
$PELEVATION
 40
0.0
  9
$THICKNESS
 40
0.0
  9
$LIMCHECK
 70
     0
  9
$BLIPMODE
 70
     0
  9
$CHAMFERA
 40
0.0
  9
$CHAMFERB
 40
0.0
  9
$SKPOLY
 70
     0
  9
$TDCREATE
 40
2450927.4619499999
  9
$TDUPDATE
 40
2455296.3739642939
  9
$TDINDWG
 40
0.2140996181
  9
$TDUSRTIMER
 40
0.2140992477
  9
$USRTIMER
 70
     1
  9
$ANGBASE
 50
0.0
  9
$ANGDIR
 70
     0
  9
$PDMODE
 70
     0
  9
$PDSIZE
 40
0.0
  9
$PLINEWID
 40
0.02
  9
$COORDS
 70
     1
  9
$SPLFRAME
 70
     0
  9
$SPLINETYPE
 70
     6
  9
$SPLINESEGS
 70
     8
  9
$ATTDIA
 70
     0
  9
$ATTREQ
 70
     1
  9
$HANDLING
 70
     1
  9
$HANDSEED
  5
13CC
  9
$SURFTAB1
 70
     6
  9
$SURFTAB2
 70
     6
  9
$SURFTYPE
 70
     6
  9
$SURFU
 70
     6
  9
$SURFV
 70
     6
  9
$UCSNAME
  2

  9
$UCSORG
 10
0.0
 20
0.0
 30
0.0
  9
$UCSXDIR
 10
1.0
 20
0.0
 30
0.0
  9
$UCSYDIR
 10
0.0
 20
1.0
 30
0.0
  9
$PUCSNAME
  2

  9
$PUCSORG
 10
0.0
 20
0.0
 30
0.0
  9
$PUCSXDIR
 10
1.0
 20
0.0
 30
0.0
  9
$PUCSYDIR
 10
0.0
 20
1.0
 30
0.0
  9
$USERI1
 70
     0
  9
$USERI2
 70
     0
  9
$USERI3
 70
     0
  9
$USERI4
 70
     0
  9
$USERI5
 70
     0
  9
$USERR1
 40
0.0
  9
$USERR2
 40
0.0
  9
$USERR3
 40
0.0
  9
$USERR4
 40
0.0
  9
$USERR5
 40
0.0
  9
$WORLDVIEW
 70
     1
  9
$SHADEDGE
 70
     3
  9
$SHADEDIF
 70
    70
  9
$TILEMODE
 70
     1
  9
$MAXACTVP
 70
    16
  9
$PLIMCHECK
 70
     0
  9
$PEXTMIN
 10
1.0000000000000000E+020
 20
1.0000000000000000E+020
 30
1.0000000000000000E+020
  9
$PEXTMAX
 10
-1.0000000000000000E+020
 20
-1.0000000000000000E+020
 30
-1.0000000000000000E+020
  9
$PLIMMIN
 10
0.0
 20
0.0
  9
$PLIMMAX
 10
12.0
 20
9.0
  9
$UNITMODE
 70
     0
  9
$VISRETAIN
 70
     0
  9
$PLINEGEN
 70
     0
  9
$PSLTSCALE
 70
     0
  0
ENDSEC
  0
SECTION
  2
TABLES
  0
TABLE
  2
VPORT
 70
     1
  0
VPORT
  2
*ACTIVE
 70
     0
 10
0.0
 20
0.0
 11
1.0
 21
1.0
 12
324.94711170646133
 22
36.879971481580242
 13
0.0
 23
0.0
 14
1.0
 24
1.0
 15
10.0
 25
10.0
 16
0.0
 26
0.0
 36
1.0
 17
0.0
 27
0.0
 37
0.0
 40
17.552580860417759
 41
1.6121045392022
 42
50.0
 43
0.0
 44
0.0
 50
0.0
 51
0.0
 71
     0
 72
   100
 73
     1
 74
     0
 75
     0
 76
     0
 77
     0
 78
     1
  0
ENDTAB
  0
TABLE
  2
LTYPE
 70
     1
  0
LTYPE
  2
CONTINUOUS
 70
     0
  3
Solid line
 72
    65
 73
     0
 40
0.0
  0
ENDTAB
  0
TABLE
  2
LAYER
 70
     3
  0
LAYER
  2
0
 70
     0
 62
     7
  6
CONTINUOUS
  0
LAYER
  2
GEOMETRIA
 70
     0
 62
     7
  6
CONTINUOUS
  0
LAYER
  2
DEFPOINTS
 70
     0
 62
     7
  6
CONTINUOUS
  0
ENDTAB
  0
TABLE
  2
STYLE
 70
     3
  0
STYLE
  2
STANDARD
 70
     0
 40
0.0
 41
1.0
 50
0.0
 71
     0
 42
0.1
  3
txt
  4

  0
STYLE
  2
ANNOTATIVE
 70
     0
 40
0.0
 41
1.0
 50
0.0
 71
     0
 42
0.2
  3
txt
  4

  0
STYLE
  2
ROMANC
 70
     0
 40
0.0
 41
1.0
 50
0.0
 71
     0
 42
0.1
  3
romanc
  4

  0
ENDTAB
  0
TABLE
  2
VIEW
 70
     0
  0
ENDTAB
  0
TABLE
  2
UCS
 70
     0
  0
ENDTAB
  0
TABLE
  2
APPID
 70
     7
  0
APPID
  2
ACAD
 70
     0
  0
APPID
  2
ACADANNOTATIVE
 70
     0
  0
APPID
  2
ACAD_MLEADERVER
 70
     0
  0
APPID
  2
AECCLAND60
 70
     0
  0
APPID
  2
ACAECLAYERSTANDARD
 70
     0
  0
APPID
  2
ACAD_EXEMPT_FROM_CAD_STANDARDS
 70
     0
  0
APPID
  2
ACLAYERTOOLS
 70
     0
  0
ENDTAB
  0
TABLE
  2
DIMSTYLE
 70
     3
  0
DIMSTYLE
  2
STANDARD
 70
     0
  3

  4

  5

  6

  7

 40
1.0
 41
0.05
 42
0.08
 43
0.08
 44
0.08
 45
0.0
 46
1.25
 47
0.0
 48
0.0
140
0.08
141
-0.08
142
0.0
143
0.039
144
1.0
145
1.0
146
1.0
147
0.08
 71
     0
 72
     0
 73
     0
 74
     0
 75
     0
 76
     0
 77
     0
 78
     0
170
     0
171
     2
172
     0
173
     0
174
     0
175
     0
176
    71
177
    71
178
     7
  0
DIMSTYLE
  2
ANNOTATIVE
 70
     0
  3

  4

  5

  6

  7

 40
1.0
 41
0.18
 42
0.0625
 43
0.38
 44
0.18
 45
0.0
 46
0.0
 47
0.0
 48
0.0
140
0.18
141
0.09
142
0.0
143
25.399999999999999
144
1.0
145
0.0
146
1.0
147
0.09
 71
     0
 72
     0
 73
     1
 74
     1
 75
     0
 76
     0
 77
     0
 78
     0
170
     0
171
     2
172
     0
173
     0
174
     0
175
     0
176
     0
177
     0
178
     0
  0
DIMSTYLE
  2
MERITXELL
 70
     0
  3

  4

  5

  6

  7

 40
1.5
 41
0.1
 42
0.01
 43
7.0
 44
0.01
 45
0.0
 46
0.0
 47
0.0
 48
0.0
140
0.05
141
0.1
142
0.0
143
25.399999999999999
144
1.0
145
0.0
146
70.0
147
0.09
 71
     0
 72
     0
 73
     0
 74
     0
 75
     0
 76
     0
 77
     1
 78
     0
170
     0
171
     2
172
     1
173
     0
174
     1
175
     0
176
     0
177
     0
178
     0
  0
ENDTAB
  0
ENDSEC
  0
SECTION
  2
BLOCKS
  0
BLOCK
  8
0
  2
$MODEL_SPACE
 70
     0
 10
0.0
 20
0.0
 30
0.0
  3
$MODEL_SPACE
  1

  0
ENDBLK
  5
1366
  8
0
  0
BLOCK
 67
     1
  8
0
  2
$PAPER_SPACE
 70
     0
 10
0.0
 20
0.0
 30
0.0
  3
$PAPER_SPACE
  1

  0
ENDBLK
  5
1362
 67
     1
  8
0
  0
BLOCK
  8
0
  2
TICK
 70
     0
 10
0.0
 20
0.0
 30
0.0
  3
TICK
  1

  0
LINE
  5
387
  8
0
  6
BYBLOCK
 62
     6
 10
-1.0
 20
-1.0
 30
0.0
 11
1.0
 21
1.0
 31
0.0
  0
LINE
  5
388
  8
0
  6
BYBLOCK
 62
    71
 10
0.0
 20
0.0
 30
0.0
 11
-1.0
 21
0.0
 31
0.0
  0
ENDBLK
  5
38A
  8
0
  0
BLOCK
  8
0
  2
*U3
 70
     1
 10
0.0
 20
0.0
 30
0.0
  3
*U3
  1

  0
TEXT
  5
1286
  8
0
 62
     0
 10
322.93659400000001
 20
33.954419999999999
 30
0.0
 40
0.075
  1
2.45
  7
ROMANC
  0
ENDBLK
  5
1288
  8
0
  0
BLOCK
  8
0
  2
*U4
 70
     1
 10
0.0
 20
0.0
 30
0.0
  3
*U4
  1

  0
TEXT
  5
128A
  8
0
 62
     0
 10
324.56219599999997
 20
34.908584142857137
 30
0.0
 40
0.075
  1
1.60
 50
90.0
  7
ROMANC
  0
ENDBLK
  5
128C
  8
0
  0
BLOCK
  8
0
  2
*U5
 70
     1
 10
0.0
 20
0.0
 30
0.0
  3
*U5
  1

  0
TEXT
  5
128E
  8
0
 62
     0
 10
324.426513
 20
34.967376142857141
 30
0.0
 40
0.075
  1
1.70
 50
90.0
  7
ROMANC
  0
ENDBLK
  5
1290
  8
0
  0
BLOCK
  8
0
  2
*U6
 70
     1
 10
0.0
 20
0.0
 30
0.0
  3
*U6
  1

  0
TEXT
  5
1292
  8
0
 62
     0
 10
324.426513
 20
33.789159142857152
 30
0.0
 40
0.075
  1
0.15
 50
90.0
  7
ROMANC
  0
ENDBLK
  5
1294
  8
0
  0
BLOCK
  8
0
  2
*U7
 70
     1
 10
0.0
 20
0.0
 30
0.0
  3
*U7
  1

  0
TEXT
  5
1296
  8
0
 62
     0
 10
323.703643
 20
33.808188000000001
 30
0.0
 40
0.075
  1
0.60
  7
ROMANC
  0
ENDBLK
  5
1298
  8
0
  0
BLOCK
  8
0
  2
*U8
 70
     1
 10
0.0
 20
0.0
 30
0.0
  3
*U8
  1

  0
TEXT
  5
129A
  8
0
 62
     0
 10
323.25364300000001
 20
33.808188000000001
 30
0.0
 40
0.075
  1
0.30
  7
ROMANC
  0
ENDBLK
  5
129C
  8
0
  0
BLOCK
  8
0
  2
*U9
 70
     1
 10
0.0
 20
0.0
 30
0.0
  3
*U9
  1

  0
TEXT
  5
129E
  8
0
 62
     0
 10
323.52864299999999
 20
33.558267000000001
 30
0.0
 40
0.075
  1
0.95
  7
ROMANC
  0
ENDBLK
  5
12A0
  8
0
  0
BLOCK
  8
0
  2
*U10
 70
     1
 10
0.0
 20
0.0
 30
0.0
  3
*U10
  1

  0
TEXT
  5
12A2
  8
0
 62
     0
 10
323.52864299999999
 20
35.974519000000001
 30
0.0
 40
0.075
  1
0.90
  7
ROMANC
  0
ENDBLK
  5
12A4
  8
0
  0
BLOCK
  8
0
  2
*U11
 70
     1
 10
0.0
 20
0.0
 30
0.0
  3
*U11
  1

  0
TEXT
  5
12A6
  8
0
 62
     0
 10
323.53400014285722
 20
36.445515999999998
 30
0.0
 40
0.075
  1
0.15
  7
ROMANC
  0
ENDBLK
  5
12A8
  8
0
  0
BLOCK
  8
0
  2
*U12
 70
     1
 10
0.0
 20
0.0
 30
0.0
  3
*U12
  1

  0
TEXT
  5
12AA
  8
0
 62
     0
 10
323.91126750426008
 20
36.295053305857572
 30
0.0
 40
0.075
  1
0.53
 50
315.38452367774869
  7
ROMANC
  0
ENDBLK
  5
12AC
  8
0
  0
BLOCK
  8
0
  2
*U13
 70
     1
 10
0.0
 20
0.0
 30
0.0
  3
*U13
  1

  0
TEXT
  5
12AE
  8
0
 62
     0
 10
323.2284534058636
 20
36.108931967179522
 30
0.0
 40
0.075
  1
0.53
 50
44.615476322251268
  7
ROMANC
  0
ENDBLK
  5
12B0
  8
0
  0
BLOCK
  8
0
  2
*U14
 70
     1
 10
0.0
 20
0.0
 30
0.0
  3
*U14
  1

  0
TEXT
  5
12B2
  8
0
 62
     0
 10
324.74239699999998
 20
35.072018999999997
 30
0.0
 40
0.075
  1
2.22
 50
90.0
  7
ROMANC
  0
ENDBLK
  5
12B4
  8
0
  0
BLOCK
  8
0
  2
*U15
 70
     1
 10
0.0
 20
0.0
 30
0.0
  3
*U15
  1

  0
TEXT
  5
12B6
  8
0
 62
     0
 10
324.54046599999998
 20
35.072018999999997
 30
0.0
 40
0.075
  1
2.22
 50
90.0
  7
ROMANC
  0
ENDBLK
  5
12B8
  8
0
  0
BLOCK
  8
0
  2
*U16
 70
     1
 10
0.0
 20
0.0
 30
0.0
  3
*U16
  1

  0
TEXT
  5
12BA
  8
0
 62
     0
 10
323.02652340586349
 20
36.108931967179522
 30
0.0
 40
0.075
  1
0.53
 50
44.615476322251268
  7
ROMANC
  0
ENDBLK
  5
12BC
  8
0
  0
BLOCK
  8
0
  2
*U17
 70
     1
 10
0.0
 20
0.0
 30
0.0
  3
*U17
  1

  0
TEXT
  5
12BE
  8
0
 62
     0
 10
323.70933650426008
 20
36.295053305857572
 30
0.0
 40
0.075
  1
0.53
 50
315.38452367774869
  7
ROMANC
  0
ENDBLK
  5
12C0
  8
0
  0
BLOCK
  8
0
  2
*U18
 70
     1
 10
0.0
 20
0.0
 30
0.0
  3
*U18
  1

  0
TEXT
  5
12C2
  8
0
 62
     0
 10
323.33206914285711
 20
36.445515999999998
 30
0.0
 40
0.075
  1
0.15
  7
ROMANC
  0
ENDBLK
  5
12C4
  8
0
  0
BLOCK
  8
0
  2
*U19
 70
     1
 10
0.0
 20
0.0
 30
0.0
  3
*U19
  1

  0
TEXT
  5
12C6
  8
0
 62
     0
 10
323.32671199999999
 20
35.974519000000001
 30
0.0
 40
0.075
  1
0.90
  7
ROMANC
  0
ENDBLK
  5
12C8
  8
0
  0
BLOCK
  8
0
  2
*U20
 70
     1
 10
0.0
 20
0.0
 30
0.0
  3
*U20
  1

  0
TEXT
  5
12CA
  8
0
 62
     0
 10
323.32671199999999
 20
33.558267000000001
 30
0.0
 40
0.075
  1
0.95
  7
ROMANC
  0
ENDBLK
  5
12CC
  8
0
  0
BLOCK
  8
0
  2
*U21
 70
     1
 10
0.0
 20
0.0
 30
0.0
  3
*U21
  1

  0
TEXT
  5
12CE
  8
0
 62
     0
 10
323.05171200000001
 20
33.808188000000001
 30
0.0
 40
0.075
  1
0.30
  7
ROMANC
  0
ENDBLK
  5
12D0
  8
0
  0
BLOCK
  8
0
  2
*U22
 70
     1
 10
0.0
 20
0.0
 30
0.0
  3
*U22
  1

  0
TEXT
  5
12D2
  8
0
 62
     0
 10
323.501712
 20
33.808188000000001
 30
0.0
 40
0.075
  1
0.60
  7
ROMANC
  0
ENDBLK
  5
12D4
  8
0
  0
BLOCK
  8
0
  2
*U23
 70
     1
 10
0.0
 20
0.0
 30
0.0
  3
*U23
  1

  0
TEXT
  5
12D6
  8
0
 62
     0
 10
324.224583
 20
33.789159142857152
 30
0.0
 40
0.075
  1
0.15
 50
90.0
  7
ROMANC
  0
ENDBLK
  5
12D8
  8
0
  0
BLOCK
  8
0
  2
*U24
 70
     1
 10
0.0
 20
0.0
 30
0.0
  3
*U24
  1

  0
TEXT
  5
12DA
  8
0
 62
     0
 10
324.224583
 20
34.967376142857141
 30
0.0
 40
0.075
  1
1.70
 50
90.0
  7
ROMANC
  0
ENDBLK
  5
12DC
  8
0
  0
ENDSEC
  0
SECTION
  2
ENTITIES
  0
TEXT
  5
2A
  8
0
 10
321.7731490000001
 20
42.309482000000003
 30
0.0
 40
0.3
  1
TIPUS   NT180D
  7
ROMANC
  0
TEXT
  5
2D
  8
0
 10
321.78196300000002
 20
40.496459999999999
 30
0.0
 40
0.3
  1
P = 57,3 dm
  7
ROMANC
  0
TEXT
  5
2E
  8
0
 10
321.76027800000008
 20
41.105812999999984
 30
0.0
 40
0.3
  1
S = 180 dm
  7
ROMANC
  0
TEXT
  5
2F
  8
0
 10
321.7731490000001
 20
41.704402999999999
 30
0.0
 40
0.3
  1
ESCALA  1:50
  7
ROMANC
  0
TEXT
  5
30
  8
0
 10
324.935609
 20
41.411728999999987
 30
0.0
 40
0.1
  1
2
  7
ROMANC
  0
LINE
  5
1099
  8
0
  6
BYBLOCK
 62
     0
 10
323.191712
 20
34.087018999999998
 30
0.0
 11
324.59296599999999
 21
34.087018999999998
 31
0.0
  0
LINE
  5
109A
  8
0
  6
BYBLOCK
 62
     0
 10
323.54171200000002
 20
36.307018999999997
 30
0.0
 11
324.59296599999999
 21
36.307018999999997
 31
0.0
  0
LINE
  5
109B
  8
0
  6
BYBLOCK
 62
     0
 10
324.577966
 20
34.237019000000011
 30
0.0
 11
324.577966
 21
36.157018999999998
 31
0.0
  0
SOLID
  5
109C
  8
0
  6
BYBLOCK
 62
     0
 10
324.55296600000008
 20
34.237019000000011
 30
0.0
 11
324.60296599999998
 21
34.237019000000011
 31
0.0
 12
324.577966
 22
34.087018999999998
 32
0.0
 13
324.577966
 23
34.087018999999998
 33
0.0
  0
SOLID
  5
109D
  8
0
  6
BYBLOCK
 62
     0
 10
324.55296600000008
 20
36.157018999999998
 30
0.0
 11
324.60296599999998
 21
36.157018999999998
 31
0.0
 12
324.577966
 22
36.307018999999997
 32
0.0
 13
324.577966
 23
36.307018999999997
 33
0.0
  0
INSERT
  5
109E
  8
GEOMETRIA
  2
*U15
 10
0.0
 20
0.0
 30
0.0
  0
POINT
  5
109F
  8
0
  6
BYBLOCK
 62
     0
 10
323.17671200000001
 20
34.087018999999998
 30
0.0
  0
POINT
  5
10A0
  8
0
  6
BYBLOCK
 62
     0
 10
323.52671199999997
 20
36.307018999999997
 30
0.0
  0
POINT
  5
10A1
  8
0
  6
BYBLOCK
 62
     0
 10
324.577966
 20
36.307018999999997
 30
0.0
  0
LINE
  5
10A2
  8
0
  6
BYBLOCK
 62
     0
 10
323.36617699999999
 20
36.317696999999988
 30
0.0
 11
323.318806
 21
36.36570900000001
 31
0.0
  0
LINE
  5
10A3
  8
0
  6
BYBLOCK
 62
     0
 10
322.99117699999999
 20
35.947696999999998
 30
0.0
 11
322.943806
 21
35.995709000000019
 31
0.0
  0
LINE
  5
10A4
  8
0
  6
BYBLOCK
 62
     0
 10
323.22256499999997
 20
36.249679
 30
0.0
 11
323.06111600000008
 21
36.090383000000003
 31
0.0
  0
SOLID
  5
10A5
  8
0
  6
BYBLOCK
 62
     0
 10
323.20500700000002
 20
36.267474999999997
 30
0.0
 11
323.24012400000009
 21
36.23188300000001
 31
0.0
 12
323.329341
 22
36.355030999999997
 32
0.0
 13
323.329341
 23
36.355030999999997
 33
0.0
  0
SOLID
  5
10A6
  8
0
  6
BYBLOCK
 62
     0
 10
323.04355800000002
 20
36.108179
 30
0.0
 11
323.07867499999998
 21
36.072586999999999
 31
0.0
 12
322.954341
 22
35.985030999999999
 32
0.0
 13
322.954341
 23
35.985030999999999
 33
0.0
  0
INSERT
  5
10A7
  8
GEOMETRIA
  2
*U16
 10
0.0
 20
0.0
 30
0.0
  0
POINT
  5
10A8
  8
0
  6
BYBLOCK
 62
     0
 10
323.376712
 20
36.307018999999997
 30
0.0
  0
POINT
  5
10A9
  8
0
  6
BYBLOCK
 62
     0
 10
323.001712
 20
35.937018999999999
 30
0.0
  0
POINT
  5
10AA
  8
0
  6
BYBLOCK
 62
     0
 10
322.954341
 20
35.985030999999999
 30
0.0
  0
LINE
  5
10AB
  8
0
  6
BYBLOCK
 62
     0
 10
323.53724799999998
 20
36.317696999999988
 30
0.0
 11
323.59501399999999
 21
36.376244
 31
0.0
  0
LINE
  5
10AC
  8
0
  6
BYBLOCK
 62
     0
 10
323.90171199999997
 20
35.937018999999999
 30
0.0
 11
323.97001399999999
 21
36.006244000000002
 31
0.0
  0
LINE
  5
10AD
  8
0
  6
BYBLOCK
 62
     0
 10
323.69125400000001
 20
36.260214000000012
 30
0.0
 11
323.85270300000002
 21
36.100918
 31
0.0
  0
SOLID
  5
10AE
  8
0
  6
BYBLOCK
 62
     0
 10
323.70881300000002
 20
36.278010000000002
 30
0.0
 11
323.67369500000001
 21
36.242418000000001
 31
0.0
 12
323.58447899999999
 22
36.365566000000001
 32
0.0
 13
323.58447899999999
 23
36.365566000000001
 33
0.0
  0
SOLID
  5
10AF
  8
0
  6
BYBLOCK
 62
     0
 10
323.87026200000008
 20
36.118713999999997
 30
0.0
 11
323.83514400000001
 21
36.083122000000003
 31
0.0
 12
323.95947899999999
 22
35.995565999999997
 32
0.0
 13
323.95947899999999
 23
35.995565999999997
 33
0.0
  0
INSERT
  5
10B0
  8
GEOMETRIA
  2
*U17
 10
0.0
 20
0.0
 30
0.0
  0
POINT
  5
10B1
  8
0
  6
BYBLOCK
 62
     0
 10
323.52671199999997
 20
36.307018999999997
 30
0.0
  0
POINT
  5
10B2
  8
0
  6
BYBLOCK
 62
     0
 10
323.90171199999997
 20
35.937018999999999
 30
0.0
  0
POINT
  5
10B3
  8
0
  6
BYBLOCK
 62
     0
 10
323.95947899999999
 20
35.995565999999997
 30
0.0
  0
LINE
  5
10B4
  8
0
  6
BYBLOCK
 62
     0
 10
323.52671199999997
 20
36.322018999999997
 30
0.0
 11
323.52671199999997
 21
36.423015999999997
 31
0.0
  0
LINE
  5
10B5
  8
0
  6
BYBLOCK
 62
     0
 10
323.376712
 20
36.322018999999997
 30
0.0
 11
323.376712
 21
36.423015999999997
 31
0.0
  0
LINE
  5
10B6
  8
0
  6
BYBLOCK
 62
     0
 10
323.67671200000001
 20
36.408016000000003
 30
0.0
 11
323.82671199999999
 21
36.408016000000003
 31
0.0
  0
LINE
  5
10B7
  8
0
  6
BYBLOCK
 62
     0
 10
323.22671200000002
 20
36.408016000000003
 30
0.0
 11
323.07671199999999
 21
36.408016000000003
 31
0.0
  0
LINE
  5
10B8
  8
0
  6
BYBLOCK
 62
     0
 10
323.52671199999997
 20
36.408016000000003
 30
0.0
 11
323.376712
 21
36.408016000000003
 31
0.0
  0
SOLID
  5
10B9
  8
0
  6
BYBLOCK
 62
     0
 10
323.67671200000001
 20
36.433016000000002
 30
0.0
 11
323.67671200000001
 21
36.383015999999998
 31
0.0
 12
323.52671199999997
 22
36.408016000000003
 32
0.0
 13
323.52671199999997
 23
36.408016000000003
 33
0.0
  0
SOLID
  5
10BA
  8
0
  6
BYBLOCK
 62
     0
 10
323.22671200000002
 20
36.433016000000002
 30
0.0
 11
323.22671200000002
 21
36.383015999999998
 31
0.0
 12
323.376712
 22
36.408016000000003
 32
0.0
 13
323.376712
 23
36.408016000000003
 33
0.0
  0
INSERT
  5
10BB
  8
GEOMETRIA
  2
*U18
 10
0.0
 20
0.0
 30
0.0
  0
POINT
  5
10BC
  8
0
  6
BYBLOCK
 62
     0
 10
323.52671199999997
 20
36.307018999999997
 30
0.0
  0
POINT
  5
10BD
  8
0
  6
BYBLOCK
 62
     0
 10
323.376712
 20
36.307018999999997
 30
0.0
  0
POINT
  5
10BE
  8
0
  6
BYBLOCK
 62
     0
 10
323.376712
 20
36.408016000000003
 30
0.0
  0
LINE
  5
10BF
  8
0
  6
BYBLOCK
 62
     0
 10
323.15171199999997
 20
35.937018999999999
 30
0.0
 11
323.751712
 21
35.937018999999999
 31
0.0
  0
SOLID
  5
10C0
  8
0
  6
BYBLOCK
 62
     0
 10
323.15171199999997
 20
35.962018999999998
 30
0.0
 11
323.15171199999997
 21
35.912019000000001
 31
0.0
 12
323.001712
 22
35.937018999999999
 32
0.0
 13
323.001712
 23
35.937018999999999
 33
0.0
  0
SOLID
  5
10C1
  8
0
  6
BYBLOCK
 62
     0
 10
323.751712
 20
35.962018999999998
 30
0.0
 11
323.751712
 21
35.912019000000001
 31
0.0
 12
323.90171199999997
 22
35.937018999999999
 32
0.0
 13
323.90171199999997
 23
35.937018999999999
 33
0.0
  0
INSERT
  5
10C2
  8
GEOMETRIA
  2
*U19
 10
0.0
 20
0.0
 30
0.0
  0
POINT
  5
10C3
  8
0
  6
BYBLOCK
 62
     0
 10
323.001712
 20
35.937018999999999
 30
0.0
  0
POINT
  5
10C4
  8
0
  6
BYBLOCK
 62
     0
 10
323.90171199999997
 20
35.937018999999999
 30
0.0
  0
POINT
  5
10C5
  8
0
  6
BYBLOCK
 62
     0
 10
323.90171199999997
 20
35.937018999999999
 30
0.0
  0
LINE
  5
10C6
  8
0
  6
BYBLOCK
 62
     0
 10
322.97671200000002
 20
34.237019000000011
 30
0.0
 11
322.97671200000002
 21
33.505766999999999
 31
0.0
  0
LINE
  5
10C7
  8
0
  6
BYBLOCK
 62
     0
 10
323.92671200000001
 20
34.237019000000011
 30
0.0
 11
323.92671200000001
 21
33.505766999999999
 31
0.0
  0
LINE
  5
10C8
  8
0
  6
BYBLOCK
 62
     0
 10
323.126712
 20
33.520766999999999
 30
0.0
 11
323.77671199999997
 21
33.520766999999999
 31
0.0
  0
SOLID
  5
10C9
  8
0
  6
BYBLOCK
 62
     0
 10
323.126712
 20
33.545766999999998
 30
0.0
 11
323.126712
 21
33.495767000000001
 31
0.0
 12
322.97671200000002
 22
33.520766999999999
 32
0.0
 13
322.97671200000002
 23
33.520766999999999
 33
0.0
  0
SOLID
  5
10CA
  8
0
  6
BYBLOCK
 62
     0
 10
323.77671199999997
 20
33.545766999999998
 30
0.0
 11
323.77671199999997
 21
33.495767000000001
 31
0.0
 12
323.92671200000001
 22
33.520766999999999
 32
0.0
 13
323.92671200000001
 23
33.520766999999999
 33
0.0
  0
INSERT
  5
10CB
  8
GEOMETRIA
  2
*U20
 10
0.0
 20
0.0
 30
0.0
  0
POINT
  5
10CC
  8
0
  6
BYBLOCK
 62
     0
 10
322.97671200000002
 20
34.237019000000011
 30
0.0
  0
POINT
  5
10CD
  8
0
  6
BYBLOCK
 62
     0
 10
323.92671200000001
 20
34.237019000000011
 30
0.0
  0
POINT
  5
10CE
  8
0
  6
BYBLOCK
 62
     0
 10
323.92671200000001
 20
33.520766999999999
 30
0.0
  0
LINE
  5
10CF
  8
0
  6
BYBLOCK
 62
     0
 10
323.02671200000009
 20
34.237019000000011
 30
0.0
 11
323.02671200000009
 21
33.755687999999999
 31
0.0
  0
LINE
  5
10D0
  8
0
  6
BYBLOCK
 62
     0
 10
323.32671199999999
 20
34.207019000000003
 30
0.0
 11
323.32671199999999
 21
33.755687999999999
 31
0.0
  0
LINE
  5
10D1
  8
0
  6
BYBLOCK
 62
     0
 10
322.876712
 20
33.770688
 30
0.0
 11
322.72671200000002
 21
33.770688
 31
0.0
  0
LINE
  5
10D2
  8
0
  6
BYBLOCK
 62
     0
 10
323.47671200000002
 20
33.770688
 30
0.0
 11
323.626712
 21
33.770688
 31
0.0
  0
LINE
  5
10D3
  8
0
  6
BYBLOCK
 62
     0
 10
323.02671200000009
 20
33.770688
 30
0.0
 11
323.32671199999999
 21
33.770688
 31
0.0
  0
SOLID
  5
10D4
  8
0
  6
BYBLOCK
 62
     0
 10
322.876712
 20
33.795687999999998
 30
0.0
 11
322.876712
 21
33.745688000000001
 31
0.0
 12
323.02671200000009
 22
33.770688
 32
0.0
 13
323.02671200000009
 23
33.770688
 33
0.0
  0
SOLID
  5
10D5
  8
0
  6
BYBLOCK
 62
     0
 10
323.47671200000002
 20
33.795687999999998
 30
0.0
 11
323.47671200000002
 21
33.745688000000001
 31
0.0
 12
323.32671199999999
 22
33.770688
 32
0.0
 13
323.32671199999999
 23
33.770688
 33
0.0
  0
INSERT
  5
10D6
  8
GEOMETRIA
  2
*U21
 10
0.0
 20
0.0
 30
0.0
  0
POINT
  5
10D7
  8
0
  6
BYBLOCK
 62
     0
 10
323.02671200000009
 20
34.237019000000011
 30
0.0
  0
POINT
  5
10D8
  8
0
  6
BYBLOCK
 62
     0
 10
323.32671199999999
 20
34.22201900000001
 30
0.0
  0
POINT
  5
10D9
  8
0
  6
BYBLOCK
 62
     0
 10
323.32671199999999
 20
33.770688
 30
0.0
  0
LINE
  5
10DA
  8
0
  6
BYBLOCK
 62
     0
 10
323.92671200000001
 20
34.237019000000011
 30
0.0
 11
323.92671200000001
 21
33.755687999999999
 31
0.0
  0
LINE
  5
10DB
  8
0
  6
BYBLOCK
 62
     0
 10
323.32671199999999
 20
34.237019000000011
 30
0.0
 11
323.32671199999999
 21
33.755687999999999
 31
0.0
  0
LINE
  5
10DC
  8
0
  6
BYBLOCK
 62
     0
 10
323.77671199999997
 20
33.770688
 30
0.0
 11
323.47671200000002
 21
33.770688
 31
0.0
  0
SOLID
  5
10DD
  8
0
  6
BYBLOCK
 62
     0
 10
323.77671199999997
 20
33.795687999999998
 30
0.0
 11
323.77671199999997
 21
33.745688000000001
 31
0.0
 12
323.92671200000001
 22
33.770688
 32
0.0
 13
323.92671200000001
 23
33.770688
 33
0.0
  0
SOLID
  5
10DE
  8
0
  6
BYBLOCK
 62
     0
 10
323.47671200000002
 20
33.795687999999998
 30
0.0
 11
323.47671200000002
 21
33.745688000000001
 31
0.0
 12
323.32671199999999
 22
33.770688
 32
0.0
 13
323.32671199999999
 23
33.770688
 33
0.0
  0
INSERT
  5
10DF
  8
GEOMETRIA
  2
*U22
 10
0.0
 20
0.0
 30
0.0
  0
POINT
  5
10E0
  8
0
  6
BYBLOCK
 62
     0
 10
323.92671200000001
 20
34.237019000000011
 30
0.0
  0
POINT
  5
10E1
  8
0
  6
BYBLOCK
 62
     0
 10
323.32671199999999
 20
34.237019000000011
 30
0.0
  0
POINT
  5
10E2
  8
0
  6
BYBLOCK
 62
     0
 10
323.32671199999999
 20
33.770688
 30
0.0
  0
LINE
  5
10E4
  8
0
  6
BYBLOCK
 62
     0
 10
323.17671200000001
 20
34.087001129197702
 30
0.0
 11
324.277083
 21
34.087018999999998
 31
0.0
  0
LINE
  5
10E5
  8
0
  6
BYBLOCK
 62
     0
 10
324.26208300000002
 20
34.387019000000002
 30
0.0
 11
324.26208300000002
 21
34.537019000000001
 31
0.0
  0
LINE
  5
10E6
  8
0
  6
BYBLOCK
 62
     0
 10
324.26208300000002
 20
33.937018999999999
 30
0.0
 11
324.26208300000002
 21
33.787019000000001
 31
0.0
  0
INSERT
  5
10E7
  8
GEOMETRIA
  2
*U23
 10
0.0
 20
0.0
 30
0.0
  0
LINE
  5
10E8
  8
0
  6
BYBLOCK
 62
     0
 10
324.26208300000002
 20
34.237019000000011
 30
0.0
 11
324.26208300000002
 21
34.087018999999998
 31
0.0
  0
SOLID
  5
10EA
  8
0
  6
BYBLOCK
 62
     0
 10
324.23708299999998
 20
34.387019000000002
 30
0.0
 11
324.287083
 21
34.387019000000002
 31
0.0
 12
324.26208300000002
 22
34.237019000000011
 32
0.0
 13
324.26208300000002
 23
34.237019000000011
 33
0.0
  0
SOLID
  5
10EB
  8
0
  6
BYBLOCK
 62
     0
 10
324.23708299999998
 20
33.937018999999999
 30
0.0
 11
324.287083
 21
33.937018999999999
 31
0.0
 12
324.26208300000002
 22
34.087018999999998
 32
0.0
 13
324.26208300000002
 23
34.087018999999998
 33
0.0
  0
POINT
  5
10EC
  8
0
  6
BYBLOCK
 62
     0
 10
323.92671200000001
 20
34.237019000000011
 30
0.0
  0
POINT
  5
10ED
  8
0
  6
BYBLOCK
 62
     0
 10
323.17671200000001
 20
34.087018999999998
 30
0.0
  0
POINT
  5
10EE
  8
0
  6
BYBLOCK
 62
     0
 10
324.26208300000002
 20
34.087018999999998
 30
0.0
  0
LINE
  5
10F0
  8
0
  6
BYBLOCK
 62
     0
 10
323.90171199999997
 20
35.937018999999999
 30
0.0
 11
324.277083
 21
35.937018999999999
 31
0.0
  0
LINE
  5
10F1
  8
0
  6
BYBLOCK
 62
     0
 10
324.26208300000002
 20
34.387019000000002
 30
0.0
 11
324.26208300000002
 21
35.787019000000001
 31
0.0
  0
SOLID
  5
10F2
  8
0
  6
BYBLOCK
 62
     0
 10
324.23708299999998
 20
34.387019000000002
 30
0.0
 11
324.287083
 21
34.387019000000002
 31
0.0
 12
324.26208300000002
 22
34.237019000000011
 32
0.0
 13
324.26208300000002
 23
34.237019000000011
 33
0.0
  0
SOLID
  5
10F3
  8
0
  6
BYBLOCK
 62
     0
 10
324.23708299999998
 20
35.787019000000001
 30
0.0
 11
324.287083
 21
35.787019000000001
 31
0.0
 12
324.26208300000002
 22
35.937018999999999
 32
0.0
 13
324.26208300000002
 23
35.937018999999999
 33
0.0
  0
INSERT
  5
10F4
  8
GEOMETRIA
  2
*U24
 10
0.0
 20
0.0
 30
0.0
  0
POINT
  5
10F5
  8
0
  6
BYBLOCK
 62
     0
 10
323.92671200000001
 20
34.237019000000011
 30
0.0
  0
POINT
  5
10F6
  8
0
  6
BYBLOCK
 62
     0
 10
323.90171199999997
 20
35.937018999999999
 30
0.0
  0
POINT
  5
10F7
  8
0
  6
BYBLOCK
 62
     0
 10
324.26208300000002
 20
35.937018999999999
 30
0.0
  0
LINE
  5
10F8
  8
0
 10
329.34869600000002
 20
29.863623
 30
0.0
 11
329.34869600000002
 21
44.713622999999998
 31
0.0
  0
LINE
  5
10F9
  8
0
 10
329.34869600000002
 20
44.713622999999998
 30
0.0
 11
318.84869600000002
 21
44.713622999999998
 31
0.0
  0
LINE
  5
10FA
  8
0
 10
318.84869600000002
 20
44.713622999999998
 30
0.0
 11
318.84869600000002
 21
29.863623
 31
0.0
  0
LINE
  5
10FB
  8
0
 10
318.84869600000002
 20
29.863623
 30
0.0
 11
329.34869600000002
 21
29.863623
 31
0.0
  0
POLYLINE
  5
126C
  8
GEOMETRIA
 66
     1
 10
0.0
 20
0.0
 30
0.0
 70
     1
 40
0.02
 41
0.02
  0
VERTEX
  5
13B7
  8
GEOMETRIA
 10
323.376712
 20
36.307018999999997
 30
0.0
  0
VERTEX
  5
13B8
  8
GEOMETRIA
 10
323.52671199999997
 20
36.307018999999997
 30
0.0
  0
VERTEX
  5
13B9
  8
GEOMETRIA
 10
323.90171199999997
 20
35.937018999999999
 30
0.0
  0
VERTEX
  5
13BA
  8
GEOMETRIA
 10
323.92671200000001
 20
34.237019000000011
 30
0.0
  0
VERTEX
  5
13BB
  8
GEOMETRIA
 10
323.32671199999999
 20
34.237019000000011
 30
0.0
 42
-1.0001191386822701
  0
VERTEX
  5
13BC
  8
GEOMETRIA
 10
323.02671200000009
 20
34.237019000000011
 30
0.0
  0
VERTEX
  5
13BD
  8
GEOMETRIA
 10
322.97671200000002
 20
34.237019000000011
 30
0.0
  0
VERTEX
  5
13BE
  8
GEOMETRIA
 10
323.001712
 20
35.937018999999999
 30
0.0
  0
SEQEND
  5
13BF
  8
GEOMETRIA
  0
ENDSEC
  0
EOF
