  0
SECTION
  2
HEADER
  9
$ACADVER
  1
AC1009
  9
$INSBASE
 10
105.464027
 20
-4.528761
 30
0.0
  9
$EXTMIN
 10
281.395795
 20
29.897444
 30
0.0
  9
$EXTMAX
 10
291.895795
 20
44.747444
 30
0.0
  9
$LIMMIN
 10
0.0
 20
0.0
  9
$LIMMAX
 10
410.0
 20
287.0
  9
$ORTHOMODE
 70
     1
  9
$REGENMODE
 70
     1
  9
$FILLMODE
 70
     1
  9
$QTEXTMODE
 70
     0
  9
$MIRRTEXT
 70
     1
  9
$DRAGMODE
 70
     2
  9
$LTSCALE
 40
25.0
  9
$OSMODE
 70
     0
  9
$ATTMODE
 70
     1
  9
$TEXTSIZE
 40
0.1
  9
$TRACEWID
 40
1.0
  9
$TEXTSTYLE
  7
ROMANC
  9
$CLAYER
  8
0
  9
$CELTYPE
  6
BYLAYER
  9
$CECOLOR
 62
   256
  9
$DIMSCALE
 40
1.5
  9
$DIMASZ
 40
0.1
  9
$DIMEXO
 40
0.01
  9
$DIMDLI
 40
7.0
  9
$DIMRND
 40
0.0
  9
$DIMDLE
 40
0.0
  9
$DIMEXE
 40
0.01
  9
$DIMTP
 40
0.0
  9
$DIMTM
 40
0.0
  9
$DIMTXT
 40
0.05
  9
$DIMCEN
 40
0.1
  9
$DIMTSZ
 40
0.0
  9
$DIMTOL
 70
     0
  9
$DIMLIM
 70
     0
  9
$DIMTIH
 70
     0
  9
$DIMTOH
 70
     0
  9
$DIMSE1
 70
     0
  9
$DIMSE2
 70
     0
  9
$DIMTAD
 70
     1
  9
$DIMZIN
 70
     0
  9
$DIMBLK
  1

  9
$DIMASO
 70
     1
  9
$DIMSHO
 70
     0
  9
$DIMPOST
  1

  9
$DIMAPOST
  1

  9
$DIMALT
 70
     0
  9
$DIMALTD
 70
     2
  9
$DIMALTF
 40
25.4
  9
$DIMLFAC
 40
1.0
  9
$DIMTOFL
 70
     1
  9
$DIMTVP
 40
0.0
  9
$DIMTIX
 70
     1
  9
$DIMSOXD
 70
     0
  9
$DIMSAH
 70
     0
  9
$DIMBLK1
  1

  9
$DIMBLK2
  1

  9
$DIMSTYLE
  2
*UNNAMED
  9
$DIMCLRD
 70
     0
  9
$DIMCLRE
 70
     0
  9
$DIMCLRT
 70
     0
  9
$DIMTFAC
 40
70.0
  9
$DIMGAP
 40
0.09
  9
$LUNITS
 70
     2
  9
$LUPREC
 70
     2
  9
$SKETCHINC
 40
1.0
  9
$FILLETRAD
 40
0.0
  9
$AUNITS
 70
     0
  9
$AUPREC
 70
     0
  9
$MENU
  1
acad
  9
$ELEVATION
 40
0.0
  9
$PELEVATION
 40
0.0
  9
$THICKNESS
 40
0.0
  9
$LIMCHECK
 70
     0
  9
$BLIPMODE
 70
     0
  9
$CHAMFERA
 40
0.0
  9
$CHAMFERB
 40
0.0
  9
$SKPOLY
 70
     0
  9
$TDCREATE
 40
2450305.554557986
  9
$TDUPDATE
 40
2450827.557096991
  9
$TDINDWG
 40
0.0710745370
  9
$TDUSRTIMER
 40
0.0710745370
  9
$USRTIMER
 70
     1
  9
$ANGBASE
 50
0.0
  9
$ANGDIR
 70
     0
  9
$PDMODE
 70
     0
  9
$PDSIZE
 40
0.0
  9
$PLINEWID
 40
0.0
  9
$COORDS
 70
     2
  9
$SPLFRAME
 70
     0
  9
$SPLINETYPE
 70
     6
  9
$SPLINESEGS
 70
     8
  9
$ATTDIA
 70
     0
  9
$ATTREQ
 70
     1
  9
$HANDLING
 70
     0
  9
$HANDSEED
  5
0
  9
$SURFTAB1
 70
     6
  9
$SURFTAB2
 70
     6
  9
$SURFTYPE
 70
     6
  9
$SURFU
 70
     6
  9
$SURFV
 70
     6
  9
$UCSNAME
  2

  9
$UCSORG
 10
0.0
 20
0.0
 30
0.0
  9
$UCSXDIR
 10
1.0
 20
0.0
 30
0.0
  9
$UCSYDIR
 10
0.0
 20
1.0
 30
0.0
  9
$PUCSNAME
  2

  9
$PUCSORG
 10
0.0
 20
0.0
 30
0.0
  9
$PUCSXDIR
 10
1.0
 20
0.0
 30
0.0
  9
$PUCSYDIR
 10
0.0
 20
1.0
 30
0.0
  9
$USERI1
 70
     0
  9
$USERI2
 70
     0
  9
$USERI3
 70
     0
  9
$USERI4
 70
     0
  9
$USERI5
 70
     0
  9
$USERR1
 40
0.0
  9
$USERR2
 40
0.0
  9
$USERR3
 40
0.0
  9
$USERR4
 40
0.0
  9
$USERR5
 40
0.0
  9
$WORLDVIEW
 70
     1
  9
$SHADEDGE
 70
     3
  9
$SHADEDIF
 70
    70
  9
$TILEMODE
 70
     1
  9
$MAXACTVP
 70
    16
  9
$PINSBASE
 10
0.0
 20
0.0
 30
0.0
  9
$PLIMCHECK
 70
     0
  9
$PEXTMIN
 10
1.000000E+20
 20
1.000000E+20
 30
1.000000E+20
  9
$PEXTMAX
 10
-1.000000E+20
 20
-1.000000E+20
 30
-1.000000E+20
  9
$PLIMMIN
 10
0.0
 20
0.0
  9
$PLIMMAX
 10
12.0
 20
9.0
  9
$UNITMODE
 70
     0
  9
$VISRETAIN
 70
     0
  9
$PLINEGEN
 70
     0
  9
$PSLTSCALE
 70
     0
  9
$TREEDEPTH
 70
  3020
  9
$DWGCODEPAGE
  3
iso8859-1
  0
ENDSEC
  0
SECTION
  2
TABLES
  0
TABLE
  2
VPORT
 70
     2
  0
VPORT
  2
*ACTIVE
 70
     0
 10
0.0
 20
0.0
 11
1.0
 21
1.0
 12
293.357646
 22
37.322444
 13
0.0
 23
0.0
 14
1.0
 24
1.0
 15
10.0
 25
10.0
 16
0.0
 26
0.0
 36
1.0
 17
0.0
 27
0.0
 37
0.0
 40
14.85
 41
1.611024
 42
50.0
 43
0.0
 44
0.0
 50
0.0
 51
0.0
 71
     0
 72
   100
 73
     1
 74
     0
 75
     0
 76
     0
 77
     0
 78
     1
  0
ENDTAB
  0
TABLE
  2
LTYPE
 70
     1
  0
LTYPE
  2
CONTINUOUS
 70
    64
  3
Solid line
 72
    65
 73
     0
 40
0.0
  0
ENDTAB
  0
TABLE
  2
LAYER
 70
     3
  0
LAYER
  2
0
 70
    64
 62
     7
  6
CONTINUOUS
  0
LAYER
  2
MESURA
 70
     0
 62
     7
  6
CONTINUOUS
  0
LAYER
  2
DEFPOINTS
 70
     0
 62
     7
  6
CONTINUOUS
  0
ENDTAB
  0
TABLE
  2
STYLE
 70
     2
  0
STYLE
  2
STANDARD
 70
     0
 40
0.0
 41
1.0
 50
0.0
 71
     0
 42
0.1
  3
txt
  4

  0
STYLE
  2
ROMANC
 70
    64
 40
0.0
 41
1.0
 50
0.0
 71
     0
 42
0.1
  3
romanc
  4

  0
ENDTAB
  0
TABLE
  2
VIEW
 70
     0
  0
ENDTAB
  0
TABLE
  2
UCS
 70
     0
  0
ENDTAB
  0
TABLE
  2
APPID
 70
     1
  0
APPID
  2
ACAD
 70
    64
  0
ENDTAB
  0
TABLE
  2
DIMSTYLE
 70
     1
  0
DIMSTYLE
  2
SILVIA
 70
     0
  3

  4

  5

  6

  7

 40
1.5
 41
0.1
 42
0.01
 43
7.0
 44
0.01
 45
0.0
 46
0.0
 47
0.0
 48
0.0
140
0.05
141
0.1
142
0.0
143
25.4
144
1.0
145
0.0
146
70.0
147
0.09
 71
     0
 72
     0
 73
     0
 74
     0
 75
     0
 76
     0
 77
     1
 78
     0
170
     0
171
     2
172
     1
173
     0
174
     1
175
     0
176
     0
177
     0
178
     0
  0
ENDTAB
  0
ENDSEC
  0
SECTION
  2
BLOCKS
  0
BLOCK
  8
0
  2
*D0
 70
    65
 10
0.0
 20
0.0
 30
0.0
  3
*D
  0
LINE
  8
0
  6
BYBLOCK
 62
     0
 10
285.776575
 20
36.130466
 30
0.0
 11
285.776575
 21
36.130466
 31
0.0
  0
LINE
  8
0
  6
BYBLOCK
 62
     0
 10
286.976575
 20
36.130466
 30
0.0
 11
286.976575
 21
36.130466
 31
0.0
  0
LINE
  8
0
  6
BYBLOCK
 62
     0
 10
285.926575
 20
36.115466
 30
0.0
 11
286.826575
 21
36.115466
 31
0.0
  0
SOLID
  8
0
  6
BYBLOCK
 62
     0
 10
285.926575
 20
36.140466
 30
0.0
 11
285.926575
 21
36.090466
 31
0.0
 12
285.776575
 22
36.115466
 32
0.0
 13
285.776575
 23
36.115466
 33
0.0
  0
SOLID
  8
0
  6
BYBLOCK
 62
     0
 10
286.826575
 20
36.140466
 30
0.0
 11
286.826575
 21
36.090466
 31
0.0
 12
286.976575
 22
36.115466
 32
0.0
 13
286.976575
 23
36.115466
 33
0.0
  0
TEXT
  8
0
  6
BYBLOCK
 62
     0
 10
286.246218
 20
36.152966
 30
0.0
 40
0.075
  1
1.20
  7
ROMANC
 72
     1
 11
286.376575
 21
36.190466
 31
0.0
 73
     2
  0
POINT
  8
DEFPOINTS
  6
BYBLOCK
 62
     0
 10
285.776575
 20
36.115466
 30
0.0
  0
POINT
  8
DEFPOINTS
  6
BYBLOCK
 62
     0
 10
286.976575
 20
36.115466
 30
0.0
  0
POINT
  8
DEFPOINTS
  6
BYBLOCK
 62
     0
 10
286.976575
 20
36.115466
 30
0.0
  0
ENDBLK
  8
0
  0
BLOCK
  8
0
  2
*D1
 70
    65
 10
0.0
 20
0.0
 30
0.0
  3
*D
  0
LINE
  8
0
  6
BYBLOCK
 62
     0
 10
286.176575
 20
35.000466
 30
0.0
 11
286.176575
 21
34.530469
 31
0.0
  0
LINE
  8
0
  6
BYBLOCK
 62
     0
 10
286.576575
 20
35.000466
 30
0.0
 11
286.576575
 21
34.530469
 31
0.0
  0
LINE
  8
0
  6
BYBLOCK
 62
     0
 10
286.026575
 20
34.545469
 30
0.0
 11
285.876575
 21
34.545469
 31
0.0
  0
LINE
  8
0
  6
BYBLOCK
 62
     0
 10
286.726575
 20
34.545469
 30
0.0
 11
286.876575
 21
34.545469
 31
0.0
  0
SOLID
  8
0
  6
BYBLOCK
 62
     0
 10
286.026575
 20
34.570469
 30
0.0
 11
286.026575
 21
34.520469
 31
0.0
 12
286.176575
 22
34.545469
 32
0.0
 13
286.176575
 23
34.545469
 33
0.0
  0
SOLID
  8
0
  6
BYBLOCK
 62
     0
 10
286.726575
 20
34.570469
 30
0.0
 11
286.726575
 21
34.520469
 31
0.0
 12
286.576575
 22
34.545469
 32
0.0
 13
286.576575
 23
34.545469
 33
0.0
  0
LINE
  8
0
  6
BYBLOCK
 62
     0
 10
286.176575
 20
34.545469
 30
0.0
 11
286.576575
 21
34.545469
 31
0.0
  0
TEXT
  8
0
  6
BYBLOCK
 62
     0
 10
286.251575
 20
34.582969
 30
0.0
 40
0.075
  1
0.40
  7
ROMANC
 72
     1
 11
286.376575
 21
34.620469
 31
0.0
 73
     2
  0
POINT
  8
DEFPOINTS
  6
BYBLOCK
 62
     0
 10
286.176575
 20
35.015466
 30
0.0
  0
POINT
  8
DEFPOINTS
  6
BYBLOCK
 62
     0
 10
286.576575
 20
35.015466
 30
0.0
  0
POINT
  8
DEFPOINTS
  6
BYBLOCK
 62
     0
 10
286.576575
 20
34.545469
 30
0.0
  0
ENDBLK
  8
0
  0
BLOCK
  8
0
  2
*D2
 70
    65
 10
0.0
 20
0.0
 30
0.0
  3
*D
  0
LINE
  8
0
  6
BYBLOCK
 62
     0
 10
285.926575
 20
35.000466
 30
0.0
 11
285.926575
 21
34.272276
 31
0.0
  0
LINE
  8
0
  6
BYBLOCK
 62
     0
 10
286.826575
 20
35.000466
 30
0.0
 11
286.826575
 21
34.272276
 31
0.0
  0
LINE
  8
0
  6
BYBLOCK
 62
     0
 10
286.076575
 20
34.287276
 30
0.0
 11
286.676575
 21
34.287276
 31
0.0
  0
SOLID
  8
0
  6
BYBLOCK
 62
     0
 10
286.076575
 20
34.312276
 30
0.0
 11
286.076575
 21
34.262276
 31
0.0
 12
285.926575
 22
34.287276
 32
0.0
 13
285.926575
 23
34.287276
 33
0.0
  0
SOLID
  8
0
  6
BYBLOCK
 62
     0
 10
286.676575
 20
34.312276
 30
0.0
 11
286.676575
 21
34.262276
 31
0.0
 12
286.826575
 22
34.287276
 32
0.0
 13
286.826575
 23
34.287276
 33
0.0
  0
TEXT
  8
0
  6
BYBLOCK
 62
     0
 10
286.251575
 20
34.324776
 30
0.0
 40
0.075
  1
0.90
  7
ROMANC
 72
     1
 11
286.376575
 21
34.362276
 31
0.0
 73
     2
  0
POINT
  8
DEFPOINTS
  6
BYBLOCK
 62
     0
 10
285.926575
 20
35.015466
 30
0.0
  0
POINT
  8
DEFPOINTS
  6
BYBLOCK
 62
     0
 10
286.826575
 20
35.015466
 30
0.0
  0
POINT
  8
DEFPOINTS
  6
BYBLOCK
 62
     0
 10
286.826575
 20
34.287276
 30
0.0
  0
ENDBLK
  8
0
  0
BLOCK
  8
0
  2
*D3
 70
    65
 10
0.0
 20
0.0
 30
0.0
  3
*D
  0
LINE
  8
0
  6
BYBLOCK
 62
     0
 10
286.391575
 20
34.815466
 30
0.0
 11
287.244885
 21
34.815466
 31
0.0
  0
LINE
  8
0
  6
BYBLOCK
 62
     0
 10
286.591575
 20
35.015466
 30
0.0
 11
287.244885
 21
35.015466
 31
0.0
  0
LINE
  8
0
  6
BYBLOCK
 62
     0
 10
287.229885
 20
34.665466
 30
0.0
 11
287.229885
 21
34.515466
 31
0.0
  0
LINE
  8
0
  6
BYBLOCK
 62
     0
 10
287.229885
 20
35.165466
 30
0.0
 11
287.229885
 21
35.315466
 31
0.0
  0
SOLID
  8
0
  6
BYBLOCK
 62
     0
 10
287.204885
 20
34.665466
 30
0.0
 11
287.254885
 21
34.665466
 31
0.0
 12
287.229885
 22
34.815466
 32
0.0
 13
287.229885
 23
34.815466
 33
0.0
  0
SOLID
  8
0
  6
BYBLOCK
 62
     0
 10
287.204885
 20
35.165466
 30
0.0
 11
287.254885
 21
35.165466
 31
0.0
 12
287.229885
 22
35.015466
 32
0.0
 13
287.229885
 23
35.015466
 33
0.0
  0
LINE
  8
0
  6
BYBLOCK
 62
     0
 10
287.229885
 20
34.815466
 30
0.0
 11
287.229885
 21
35.015466
 31
0.0
  0
TEXT
  8
0
  6
BYBLOCK
 62
     0
 10
287.192385
 20
34.790466
 30
0.0
 40
0.075
  1
0.20
 50
90.0
  7
ROMANC
 72
     1
 11
287.154885
 21
34.915466
 31
0.0
 73
     2
  0
POINT
  8
DEFPOINTS
  6
BYBLOCK
 62
     0
 10
286.376575
 20
34.815466
 30
0.0
  0
POINT
  8
DEFPOINTS
  6
BYBLOCK
 62
     0
 10
286.576575
 20
35.015466
 30
0.0
  0
POINT
  8
DEFPOINTS
  6
BYBLOCK
 62
     0
 10
287.229885
 20
35.015466
 30
0.0
  0
ENDBLK
  8
0
  0
BLOCK
  8
0
  2
*D4
 70
    65
 10
0.0
 20
0.0
 30
0.0
  3
*D
  0
LINE
  8
0
  6
BYBLOCK
 62
     0
 10
286.841575
 20
35.015466
 30
0.0
 11
287.244885
 21
35.015466
 31
0.0
  0
LINE
  8
0
  6
BYBLOCK
 62
     0
 10
286.991575
 20
36.115466
 30
0.0
 11
287.244885
 21
36.115466
 31
0.0
  0
LINE
  8
0
  6
BYBLOCK
 62
     0
 10
287.229885
 20
35.165466
 30
0.0
 11
287.229885
 21
35.965466
 31
0.0
  0
SOLID
  8
0
  6
BYBLOCK
 62
     0
 10
287.204885
 20
35.165466
 30
0.0
 11
287.254885
 21
35.165466
 31
0.0
 12
287.229885
 22
35.015466
 32
0.0
 13
287.229885
 23
35.015466
 33
0.0
  0
SOLID
  8
0
  6
BYBLOCK
 62
     0
 10
287.204885
 20
35.965466
 30
0.0
 11
287.254885
 21
35.965466
 31
0.0
 12
287.229885
 22
36.115466
 32
0.0
 13
287.229885
 23
36.115466
 33
0.0
  0
TEXT
  8
0
  6
BYBLOCK
 62
     0
 10
287.192385
 20
35.435109
 30
0.0
 40
0.075
  1
1.10
 50
90.0
  7
ROMANC
 72
     1
 11
287.154885
 21
35.565466
 31
0.0
 73
     2
  0
POINT
  8
DEFPOINTS
  6
BYBLOCK
 62
     0
 10
286.826575
 20
35.015466
 30
0.0
  0
POINT
  8
DEFPOINTS
  6
BYBLOCK
 62
     0
 10
286.976575
 20
36.115466
 30
0.0
  0
POINT
  8
DEFPOINTS
  6
BYBLOCK
 62
     0
 10
287.229885
 20
36.115466
 30
0.0
  0
ENDBLK
  8
0
  0
BLOCK
  8
0
  2
*D5
 70
    65
 10
0.0
 20
0.0
 30
0.0
  3
*D
  0
LINE
  8
0
  6
BYBLOCK
 62
     0
 10
286.391575
 20
34.815466
 30
0.0
 11
287.601226
 21
34.815466
 31
0.0
  0
LINE
  8
0
  6
BYBLOCK
 62
     0
 10
286.391575
 20
36.715466
 30
0.0
 11
287.601226
 21
36.715466
 31
0.0
  0
LINE
  8
0
  6
BYBLOCK
 62
     0
 10
287.586226
 20
34.965466
 30
0.0
 11
287.586226
 21
36.565466
 31
0.0
  0
SOLID
  8
0
  6
BYBLOCK
 62
     0
 10
287.561226
 20
34.965466
 30
0.0
 11
287.611226
 21
34.965466
 31
0.0
 12
287.586226
 22
34.815466
 32
0.0
 13
287.586226
 23
34.815466
 33
0.0
  0
SOLID
  8
0
  6
BYBLOCK
 62
     0
 10
287.561226
 20
36.565466
 30
0.0
 11
287.611226
 21
36.565466
 31
0.0
 12
287.586226
 22
36.715466
 32
0.0
 13
287.586226
 23
36.715466
 33
0.0
  0
TEXT
  8
0
  6
BYBLOCK
 62
     0
 10
287.548726
 20
35.635109
 30
0.0
 40
0.075
  1
1.90
 50
90.0
  7
ROMANC
 72
     1
 11
287.511226
 21
35.765466
 31
0.0
 73
     2
  0
POINT
  8
DEFPOINTS
  6
BYBLOCK
 62
     0
 10
286.376575
 20
34.815466
 30
0.0
  0
POINT
  8
DEFPOINTS
  6
BYBLOCK
 62
     0
 10
286.376575
 20
36.715466
 30
0.0
  0
POINT
  8
DEFPOINTS
  6
BYBLOCK
 62
     0
 10
287.586226
 20
36.715466
 30
0.0
  0
ENDBLK
  8
0
  0
ENDSEC
  0
SECTION
  2
ENTITIES
  0
TEXT
  8
0
 10
283.887846
 20
40.56142
 30
0.0
 40
0.3
  1
P = 52.3 dm
  7
ROMANC
  0
TEXT
  8
0
 10
286.845612
 20
41.564915
 30
0.0
 40
0.1
  1
2
  7
ROMANC
  0
TEXT
  8
0
 10
283.925768
 20
41.857589
 30
0.0
 40
0.3
  1
ESCALA  1:50
  7
ROMANC
  0
TEXT
  8
0
 10
283.925768
 20
42.343303
 30
0.0
 40
0.3
  1
TIPUS   NT178
  7
ROMANC
  0
TEXT
  8
0
 10
283.938862
 20
41.258999
 30
0.0
 40
0.3
  1
S= 178 dm
  7
ROMANC
  0
LINE
  8
0
 10
285.921338
 20
35.009466
 30
0.0
 11
286.170663
 21
35.009466
 31
0.0
  0
ARC
  8
0
 10
286.376575
 20
35.015466
 30
0.0
 40
0.206
 50
181.669046
 51
358.330954
  0
LINE
  8
0
 10
286.582488
 20
35.009466
 30
0.0
 11
286.831813
 21
35.009466
 31
0.0
  0
LINE
  8
0
 10
286.831813
 20
35.009466
 30
0.0
 11
286.982575
 21
36.115058
 31
0.0
  0
ARC
  8
0
 10
286.376575
 20
36.115466
 30
0.0
 40
0.606
 50
359.961403
 51
180.038597
  0
LINE
  8
0
 10
285.770575
 20
36.115058
 30
0.0
 11
285.921338
 21
35.009466
 31
0.0
  0
LINE
  8
0
 10
285.923957
 20
35.012466
 30
0.0
 11
286.173597
 21
35.012466
 31
0.0
  0
ARC
  8
0
 10
286.376575
 20
35.015466
 30
0.0
 40
0.203
 50
180.846767
 51
359.153233
  0
LINE
  8
0
 10
286.579553
 20
35.012466
 30
0.0
 11
286.829194
 21
35.012466
 31
0.0
  0
LINE
  8
0
 10
286.829194
 20
35.012466
 30
0.0
 11
286.979575
 21
36.115262
 31
0.0
  0
ARC
  8
0
 10
286.376575
 20
36.115466
 30
0.0
 40
0.603
 50
359.980629
 51
180.019371
  0
LINE
  8
0
 10
285.773575
 20
36.115262
 30
0.0
 11
285.923957
 21
35.012466
 31
0.0
  0
LINE
  8
0
 10
285.926575
 20
35.015466
 30
0.0
 11
286.176575
 21
35.015466
 31
0.0
  0
ARC
  8
0
 10
286.376575
 20
35.015466
 30
0.0
 40
0.2
 50
180.0
 51
0.0
  0
LINE
  8
0
 10
286.576575
 20
35.015466
 30
0.0
 11
286.826575
 21
35.015466
 31
0.0
  0
LINE
  8
0
 10
286.826575
 20
35.015466
 30
0.0
 11
286.976575
 21
36.115466
 31
0.0
  0
ARC
  8
0
 10
286.376575
 20
36.115466
 30
0.0
 40
0.6
 50
0.0
 51
180.0
  0
LINE
  8
0
 10
285.776575
 20
36.115466
 30
0.0
 11
285.926575
 21
35.015466
 31
0.0
  0
LINE
  8
0
  6
BYBLOCK
 62
     0
 10
286.391575
 20
34.815466
 30
0.0
 11
287.601226
 21
34.815466
 31
0.0
  0
LINE
  8
0
  6
BYBLOCK
 62
     0
 10
286.391575
 20
36.715466
 30
0.0
 11
287.601226
 21
36.715466
 31
0.0
  0
LINE
  8
0
  6
BYBLOCK
 62
     0
 10
287.586226
 20
34.965466
 30
0.0
 11
287.586226
 21
36.565466
 31
0.0
  0
SOLID
  8
0
  6
BYBLOCK
 62
     0
 10
287.561226
 20
34.965466
 30
0.0
 11
287.611226
 21
34.965466
 31
0.0
 12
287.586226
 22
34.815466
 32
0.0
 13
287.586226
 23
34.815466
 33
0.0
  0
SOLID
  8
0
  6
BYBLOCK
 62
     0
 10
287.561226
 20
36.565466
 30
0.0
 11
287.611226
 21
36.565466
 31
0.0
 12
287.586226
 22
36.715466
 32
0.0
 13
287.586226
 23
36.715466
 33
0.0
  0
TEXT
  8
0
  6
BYBLOCK
 62
     0
 10
287.548726
 20
35.635109
 30
0.0
 40
0.075
  1
1.90
 50
90.0
  7
ROMANC
 72
     1
 11
287.511226
 21
35.765466
 31
0.0
 73
     2
  0
POINT
  8
DEFPOINTS
  6
BYBLOCK
 62
     0
 10
286.376575
 20
34.815466
 30
0.0
  0
POINT
  8
DEFPOINTS
  6
BYBLOCK
 62
     0
 10
286.376575
 20
36.715466
 30
0.0
  0
POINT
  8
DEFPOINTS
  6
BYBLOCK
 62
     0
 10
287.586226
 20
36.715466
 30
0.0
  0
LINE
  8
0
  6
BYBLOCK
 62
     0
 10
286.841575
 20
35.015466
 30
0.0
 11
287.244885
 21
35.015466
 31
0.0
  0
LINE
  8
0
  6
BYBLOCK
 62
     0
 10
286.991575
 20
36.115466
 30
0.0
 11
287.244885
 21
36.115466
 31
0.0
  0
LINE
  8
0
  6
BYBLOCK
 62
     0
 10
287.229885
 20
35.165466
 30
0.0
 11
287.229885
 21
35.965466
 31
0.0
  0
SOLID
  8
0
  6
BYBLOCK
 62
     0
 10
287.204885
 20
35.165466
 30
0.0
 11
287.254885
 21
35.165466
 31
0.0
 12
287.229885
 22
35.015466
 32
0.0
 13
287.229885
 23
35.015466
 33
0.0
  0
SOLID
  8
0
  6
BYBLOCK
 62
     0
 10
287.204885
 20
35.965466
 30
0.0
 11
287.254885
 21
35.965466
 31
0.0
 12
287.229885
 22
36.115466
 32
0.0
 13
287.229885
 23
36.115466
 33
0.0
  0
TEXT
  8
0
  6
BYBLOCK
 62
     0
 10
287.192385
 20
35.435109
 30
0.0
 40
0.075
  1
1.10
 50
90.0
  7
ROMANC
 72
     1
 11
287.154885
 21
35.565466
 31
0.0
 73
     2
  0
POINT
  8
DEFPOINTS
  6
BYBLOCK
 62
     0
 10
286.826575
 20
35.015466
 30
0.0
  0
POINT
  8
DEFPOINTS
  6
BYBLOCK
 62
     0
 10
286.976575
 20
36.115466
 30
0.0
  0
POINT
  8
DEFPOINTS
  6
BYBLOCK
 62
     0
 10
287.229885
 20
36.115466
 30
0.0
  0
LINE
  8
0
  6
BYBLOCK
 62
     0
 10
286.391575
 20
34.815466
 30
0.0
 11
287.244885
 21
34.815466
 31
0.0
  0
LINE
  8
0
  6
BYBLOCK
 62
     0
 10
286.591575
 20
35.015466
 30
0.0
 11
287.244885
 21
35.015466
 31
0.0
  0
LINE
  8
0
  6
BYBLOCK
 62
     0
 10
287.229885
 20
34.665466
 30
0.0
 11
287.229885
 21
34.515466
 31
0.0
  0
LINE
  8
0
  6
BYBLOCK
 62
     0
 10
287.229885
 20
35.165466
 30
0.0
 11
287.229885
 21
35.315466
 31
0.0
  0
SOLID
  8
0
  6
BYBLOCK
 62
     0
 10
287.204885
 20
34.665466
 30
0.0
 11
287.254885
 21
34.665466
 31
0.0
 12
287.229885
 22
34.815466
 32
0.0
 13
287.229885
 23
34.815466
 33
0.0
  0
SOLID
  8
0
  6
BYBLOCK
 62
     0
 10
287.204885
 20
35.165466
 30
0.0
 11
287.254885
 21
35.165466
 31
0.0
 12
287.229885
 22
35.015466
 32
0.0
 13
287.229885
 23
35.015466
 33
0.0
  0
LINE
  8
0
  6
BYBLOCK
 62
     0
 10
287.229885
 20
34.815466
 30
0.0
 11
287.229885
 21
35.015466
 31
0.0
  0
TEXT
  8
0
  6
BYBLOCK
 62
     0
 10
287.192385
 20
34.790466
 30
0.0
 40
0.075
  1
0.20
 50
90.0
  7
ROMANC
 72
     1
 11
287.154885
 21
34.915466
 31
0.0
 73
     2
  0
POINT
  8
DEFPOINTS
  6
BYBLOCK
 62
     0
 10
286.376575
 20
34.815466
 30
0.0
  0
POINT
  8
DEFPOINTS
  6
BYBLOCK
 62
     0
 10
286.576575
 20
35.015466
 30
0.0
  0
POINT
  8
DEFPOINTS
  6
BYBLOCK
 62
     0
 10
287.229885
 20
35.015466
 30
0.0
  0
LINE
  8
0
  6
BYBLOCK
 62
     0
 10
285.926575
 20
35.000466
 30
0.0
 11
285.926575
 21
34.272276
 31
0.0
  0
LINE
  8
0
  6
BYBLOCK
 62
     0
 10
286.826575
 20
35.000466
 30
0.0
 11
286.826575
 21
34.272276
 31
0.0
  0
LINE
  8
0
  6
BYBLOCK
 62
     0
 10
286.076575
 20
34.287276
 30
0.0
 11
286.676575
 21
34.287276
 31
0.0
  0
SOLID
  8
0
  6
BYBLOCK
 62
     0
 10
286.076575
 20
34.312276
 30
0.0
 11
286.076575
 21
34.262276
 31
0.0
 12
285.926575
 22
34.287276
 32
0.0
 13
285.926575
 23
34.287276
 33
0.0
  0
SOLID
  8
0
  6
BYBLOCK
 62
     0
 10
286.676575
 20
34.312276
 30
0.0
 11
286.676575
 21
34.262276
 31
0.0
 12
286.826575
 22
34.287276
 32
0.0
 13
286.826575
 23
34.287276
 33
0.0
  0
TEXT
  8
0
  6
BYBLOCK
 62
     0
 10
286.251575
 20
34.324776
 30
0.0
 40
0.075
  1
0.90
  7
ROMANC
 72
     1
 11
286.376575
 21
34.362276
 31
0.0
 73
     2
  0
POINT
  8
DEFPOINTS
  6
BYBLOCK
 62
     0
 10
285.926575
 20
35.015466
 30
0.0
  0
POINT
  8
DEFPOINTS
  6
BYBLOCK
 62
     0
 10
286.826575
 20
35.015466
 30
0.0
  0
POINT
  8
DEFPOINTS
  6
BYBLOCK
 62
     0
 10
286.826575
 20
34.287276
 30
0.0
  0
LINE
  8
0
  6
BYBLOCK
 62
     0
 10
286.176575
 20
35.000466
 30
0.0
 11
286.176575
 21
34.530469
 31
0.0
  0
LINE
  8
0
  6
BYBLOCK
 62
     0
 10
286.576575
 20
35.000466
 30
0.0
 11
286.576575
 21
34.530469
 31
0.0
  0
LINE
  8
0
  6
BYBLOCK
 62
     0
 10
286.026575
 20
34.545469
 30
0.0
 11
285.876575
 21
34.545469
 31
0.0
  0
LINE
  8
0
  6
BYBLOCK
 62
     0
 10
286.726575
 20
34.545469
 30
0.0
 11
286.876575
 21
34.545469
 31
0.0
  0
SOLID
  8
0
  6
BYBLOCK
 62
     0
 10
286.026575
 20
34.570469
 30
0.0
 11
286.026575
 21
34.520469
 31
0.0
 12
286.176575
 22
34.545469
 32
0.0
 13
286.176575
 23
34.545469
 33
0.0
  0
SOLID
  8
0
  6
BYBLOCK
 62
     0
 10
286.726575
 20
34.570469
 30
0.0
 11
286.726575
 21
34.520469
 31
0.0
 12
286.576575
 22
34.545469
 32
0.0
 13
286.576575
 23
34.545469
 33
0.0
  0
LINE
  8
0
  6
BYBLOCK
 62
     0
 10
286.176575
 20
34.545469
 30
0.0
 11
286.576575
 21
34.545469
 31
0.0
  0
TEXT
  8
0
  6
BYBLOCK
 62
     0
 10
286.251575
 20
34.582969
 30
0.0
 40
0.075
  1
0.40
  7
ROMANC
 72
     1
 11
286.376575
 21
34.620469
 31
0.0
 73
     2
  0
POINT
  8
DEFPOINTS
  6
BYBLOCK
 62
     0
 10
286.176575
 20
35.015466
 30
0.0
  0
POINT
  8
DEFPOINTS
  6
BYBLOCK
 62
     0
 10
286.576575
 20
35.015466
 30
0.0
  0
POINT
  8
DEFPOINTS
  6
BYBLOCK
 62
     0
 10
286.576575
 20
34.545469
 30
0.0
  0
LINE
  8
0
  6
BYBLOCK
 62
     0
 10
285.776575
 20
36.130466
 30
0.0
 11
285.776575
 21
36.130466
 31
0.0
  0
LINE
  8
0
  6
BYBLOCK
 62
     0
 10
286.976575
 20
36.130466
 30
0.0
 11
286.976575
 21
36.130466
 31
0.0
  0
LINE
  8
0
  6
BYBLOCK
 62
     0
 10
285.926575
 20
36.115466
 30
0.0
 11
286.826575
 21
36.115466
 31
0.0
  0
SOLID
  8
0
  6
BYBLOCK
 62
     0
 10
285.926575
 20
36.140466
 30
0.0
 11
285.926575
 21
36.090466
 31
0.0
 12
285.776575
 22
36.115466
 32
0.0
 13
285.776575
 23
36.115466
 33
0.0
  0
SOLID
  8
0
  6
BYBLOCK
 62
     0
 10
286.826575
 20
36.140466
 30
0.0
 11
286.826575
 21
36.090466
 31
0.0
 12
286.976575
 22
36.115466
 32
0.0
 13
286.976575
 23
36.115466
 33
0.0
  0
TEXT
  8
0
  6
BYBLOCK
 62
     0
 10
286.246218
 20
36.152966
 30
0.0
 40
0.075
  1
1.20
  7
ROMANC
 72
     1
 11
286.376575
 21
36.190466
 31
0.0
 73
     2
  0
POINT
  8
DEFPOINTS
  6
BYBLOCK
 62
     0
 10
285.776575
 20
36.115466
 30
0.0
  0
POINT
  8
DEFPOINTS
  6
BYBLOCK
 62
     0
 10
286.976575
 20
36.115466
 30
0.0
  0
POINT
  8
DEFPOINTS
  6
BYBLOCK
 62
     0
 10
286.976575
 20
36.115466
 30
0.0
  0
LINE
  8
0
 10
281.395795
 20
29.897444
 30
0.0
 11
281.395795
 21
44.747444
 31
0.0
  0
LINE
  8
0
 10
281.395795
 20
44.747444
 30
0.0
 11
291.895795
 21
44.747444
 31
0.0
  0
LINE
  8
0
 10
291.895795
 20
44.747444
 30
0.0
 11
291.895795
 21
29.897444
 31
0.0
  0
LINE
  8
0
 10
291.895795
 20
29.897444
 30
0.0
 11
281.395795
 21
29.897444
 31
0.0
  0
ENDSEC
  0
EOF
