  0
SECTION
  2
HEADER
  9
$ACADVER
  1
AC1009
  9
$INSBASE
 10
0.0
 20
0.0
 30
0.0
  9
$EXTMIN
 10
281.396
 20
29.897
 30
0.0
  9
$EXTMAX
 10
291.896
 20
44.747
 30
0.0
  9
$LIMMIN
 10
280.396
 20
28.897
  9
$LIMMAX
 10
292.896
 20
43.747
  9
$ORTHOMODE
 70
     0
  9
$REGENMODE
 70
     1
  9
$FILLMODE
 70
     1
  9
$QTEXTMODE
 70
     0
  9
$MIRRTEXT
 70
     1
  9
$DRAGMODE
 70
     2
  9
$LTSCALE
 40
1.0
  9
$OSMODE
 70
     0
  9
$ATTMODE
 70
     1
  9
$TEXTSIZE
 40
0.2
  9
$TRACEWID
 40
0.05
  9
$TEXTSTYLE
  7
STANDARD
  9
$CLAYER
  8
0
  9
$CELTYPE
  6
BYLAYER
  9
$CECOLOR
 62
   256
  9
$DIMSCALE
 40
1.0
  9
$DIMASZ
 40
0.18
  9
$DIMEXO
 40
0.0625
  9
$DIMDLI
 40
0.38
  9
$DIMRND
 40
0.0
  9
$DIMDLE
 40
0.0
  9
$DIMEXE
 40
0.18
  9
$DIMTP
 40
0.0
  9
$DIMTM
 40
0.0
  9
$DIMTXT
 40
0.18
  9
$DIMCEN
 40
0.09
  9
$DIMTSZ
 40
0.0
  9
$DIMTOL
 70
     0
  9
$DIMLIM
 70
     0
  9
$DIMTIH
 70
     1
  9
$DIMTOH
 70
     1
  9
$DIMSE1
 70
     0
  9
$DIMSE2
 70
     0
  9
$DIMTAD
 70
     0
  9
$DIMZIN
 70
     0
  9
$DIMBLK
  1

  9
$DIMASO
 70
     1
  9
$DIMSHO
 70
     1
  9
$DIMPOST
  1

  9
$DIMAPOST
  1

  9
$DIMALT
 70
     0
  9
$DIMALTD
 70
     2
  9
$DIMALTF
 40
25.4
  9
$DIMLFAC
 40
1.0
  9
$DIMTOFL
 70
     0
  9
$DIMTVP
 40
0.0
  9
$DIMTIX
 70
     0
  9
$DIMSOXD
 70
     0
  9
$DIMSAH
 70
     0
  9
$DIMBLK1
  1

  9
$DIMBLK2
  1

  9
$DIMSTYLE
  2
*UNNAMED
  9
$DIMCLRD
 70
     0
  9
$DIMCLRE
 70
     0
  9
$DIMCLRT
 70
     0
  9
$DIMTFAC
 40
1.0
  9
$DIMGAP
 40
0.09
  9
$LUNITS
 70
     2
  9
$LUPREC
 70
     4
  9
$SKETCHINC
 40
0.1
  9
$FILLETRAD
 40
0.0
  9
$AUNITS
 70
     0
  9
$AUPREC
 70
     0
  9
$MENU
  1
acad
  9
$ELEVATION
 40
0.0
  9
$PELEVATION
 40
0.0
  9
$THICKNESS
 40
0.0
  9
$LIMCHECK
 70
     0
  9
$BLIPMODE
 70
     1
  9
$CHAMFERA
 40
0.0
  9
$CHAMFERB
 40
0.0
  9
$SKPOLY
 70
     0
  9
$TDCREATE
 40
2448315.373408102
  9
$TDUPDATE
 40
2448315.373408102
  9
$TDINDWG
 40
0.0000000000
  9
$TDUSRTIMER
 40
0.0000000000
  9
$USRTIMER
 70
     1
  9
$ANGBASE
 50
0.0
  9
$ANGDIR
 70
     0
  9
$PDMODE
 70
     0
  9
$PDSIZE
 40
0.0
  9
$PLINEWID
 40
0.0
  9
$COORDS
 70
     0
  9
$SPLFRAME
 70
     0
  9
$SPLINETYPE
 70
     6
  9
$SPLINESEGS
 70
     8
  9
$ATTDIA
 70
     0
  9
$ATTREQ
 70
     1
  9
$HANDLING
 70
     0
  9
$HANDSEED
  5
0
  9
$SURFTAB1
 70
     6
  9
$SURFTAB2
 70
     6
  9
$SURFTYPE
 70
     6
  9
$SURFU
 70
     6
  9
$SURFV
 70
     6
  9
$UCSNAME
  2

  9
$UCSORG
 10
0.0
 20
0.0
 30
0.0
  9
$UCSXDIR
 10
1.0
 20
0.0
 30
0.0
  9
$UCSYDIR
 10
0.0
 20
1.0
 30
0.0
  9
$PUCSNAME
  2

  9
$PUCSORG
 10
0.0
 20
0.0
 30
0.0
  9
$PUCSXDIR
 10
1.0
 20
0.0
 30
0.0
  9
$PUCSYDIR
 10
0.0
 20
1.0
 30
0.0
  9
$USERI1
 70
     0
  9
$USERI2
 70
     0
  9
$USERI3
 70
     0
  9
$USERI4
 70
     0
  9
$USERI5
 70
     0
  9
$USERR1
 40
0.0
  9
$USERR2
 40
0.0
  9
$USERR3
 40
0.0
  9
$USERR4
 40
0.0
  9
$USERR5
 40
0.0
  9
$WORLDVIEW
 70
     1
  9
$SHADEDGE
 70
     3
  9
$SHADEDIF
 70
    70
  9
$TILEMODE
 70
     1
  9
$MAXACTVP
 70
    16
  9
$PINSBASE
 10
0.0
 20
0.0
 30
0.0
  9
$PLIMCHECK
 70
     0
  9
$PEXTMIN
 10
1.000000E+20
 20
1.000000E+20
 30
1.000000E+20
  9
$PEXTMAX
 10
-1.000000E+20
 20
-1.000000E+20
 30
-1.000000E+20
  9
$PLIMMIN
 10
0.0
 20
0.0
  9
$PLIMMAX
 10
12.0
 20
9.0
  9
$UNITMODE
 70
     0
  9
$VISRETAIN
 70
     0
  9
$PLINEGEN
 70
     0
  9
$PSLTSCALE
 70
     0
  9
$TREEDEPTH
 70
  3020
  9
$DWGCODEPAGE
  3
iso8859-1
  0
ENDSEC
  0
SECTION
  2
TABLES
  0
TABLE
  2
VPORT
 70
     2
  0
VPORT
  2
*ACTIVE
 70
     0
 10
0.0
 20
0.0
 11
1.0
 21
1.0
 12
293.35785
 22
37.322
 13
0.0
 23
0.0
 14
1.0
 24
1.0
 15
10.0
 25
10.0
 16
0.0
 26
0.0
 36
1.0
 17
0.0
 27
0.0
 37
0.0
 40
14.85
 41
1.611024
 42
50.0
 43
0.0
 44
0.0
 50
0.0
 51
0.0
 71
     0
 72
   100
 73
     1
 74
     0
 75
     0
 76
     0
 77
     0
 78
     0
  0
ENDTAB
  0
TABLE
  2
LTYPE
 70
     1
  0
LTYPE
  2
CONTINUOUS
 70
    64
  3
Solid line
 72
    65
 73
     0
 40
0.0
  0
ENDTAB
  0
TABLE
  2
LAYER
 70
     7
  0
LAYER
  2
0
 70
    64
 62
     7
  6
CONTINUOUS
  0
LAYER
  2
1
 70
    64
 62
     7
  6
CONTINUOUS
  0
LAYER
  2
7
 70
    64
 62
     7
  6
CONTINUOUS
  0
LAYER
  2
8
 70
    64
 62
     7
  6
CONTINUOUS
  0
LAYER
  2
9
 70
    64
 62
     7
  6
CONTINUOUS
  0
LAYER
  2
22
 70
    64
 62
     7
  6
CONTINUOUS
  0
LAYER
  2
25
 70
    64
 62
     7
  6
CONTINUOUS
  0
ENDTAB
  0
TABLE
  2
STYLE
 70
     2
  0
STYLE
  2
STANDARD
 70
     0
 40
0.0
 41
1.0
 50
0.0
 71
     0
 42
3.5
  3
txt
  4

  0
STYLE
  2
ROMANC
 70
     0
 40
0.0
 41
1.0
 50
0.0
 71
     0
 42
0.2
  3
ROMANC
  4

  0
ENDTAB
  0
TABLE
  2
VIEW
 70
     0
  0
ENDTAB
  0
TABLE
  2
UCS
 70
     0
  0
ENDTAB
  0
TABLE
  2
APPID
 70
     1
  0
APPID
  2
ACAD
 70
    64
  0
ENDTAB
  0
TABLE
  2
DIMSTYLE
 70
     0
  0
ENDTAB
  0
ENDSEC
  0
SECTION
  2
BLOCKS
  0
ENDSEC
  0
SECTION
  2
ENTITIES
  0
TEXT
  8
0
  6
CONTINUOUS
 10
286.909
 20
41.324
 30
0.0
 40
0.1
  1
2
  7
ROMANC
  0
TEXT
  8
0
  6
CONTINUOUS
 10
283.926
 20
41.768
 30
0.0
 40
0.3
  1
ESCALA  1:50
  7
ROMANC
  0
POLYLINE
  8
0
  6
CONTINUOUS
 66
     1
 10
0.0
 20
0.0
 30
0.0
 70
     1
  0
VERTEX
  8
0
  6
CONTINUOUS
 10
281.396
 20
44.747
 30
0.0
  0
VERTEX
  8
0
  6
CONTINUOUS
 10
291.896
 20
44.747
 30
0.0
  0
VERTEX
  8
0
  6
CONTINUOUS
 10
291.896
 20
29.897
 30
0.0
  0
VERTEX
  8
0
  6
CONTINUOUS
 10
281.396
 20
29.897
 30
0.0
  0
SEQEND
  8
0
  0
LINE
  8
1
  6
CONTINUOUS
 10
287.065
 20
34.094
 30
0.0
 11
287.065
 21
34.894
 31
0.0
  0
TEXT
  8
0
  6
CONTINUOUS
 10
283.922
 20
40.529
 30
0.0
 40
0.3
  1
P = 53 dm
  7
ROMANC
  0
TEXT
  8
0
  6
CONTINUOUS
 10
283.945
 20
41.099
 30
0.0
 40
0.3
  1
S = 177 dm
  7
ROMANC
  0
LINE
  8
1
  6
CONTINUOUS
 10
285.565
 20
34.894
 30
0.0
 11
285.565
 21
34.094
 31
0.0
  0
LINE
  8
1
  6
CONTINUOUS
 10
285.565
 20
34.094
 30
0.0
 11
286.265
 21
34.094
 31
0.0
  0
POLYLINE
  8
1
  6
CONTINUOUS
 66
     1
 10
0.0
 20
0.0
 30
0.0
  0
VERTEX
  8
1
  6
CONTINUOUS
 10
286.265
 20
34.094
 30
0.0
 42
0.026141
  0
VERTEX
  8
1
  6
CONTINUOUS
 10
286.268406
 20
34.028934
 30
0.0
 42
0.026626
  0
VERTEX
  8
1
  6
CONTINUOUS
 10
286.27863
 20
33.96459
 30
0.0
 42
0.026949
  0
VERTEX
  8
1
  6
CONTINUOUS
 10
286.295279
 20
33.903185
 30
0.0
 42
0.028405
  0
VERTEX
  8
1
  6
CONTINUOUS
 10
286.31859
 20
33.844
 30
0.0
 42
0.029053
  0
VERTEX
  8
1
  6
CONTINUOUS
 10
286.347254
 20
33.790295
 30
0.0
 42
0.031424
  0
VERTEX
  8
1
  6
CONTINUOUS
 10
286.382157
 20
33.740447
 30
0.0
 42
0.032357
  0
VERTEX
  8
1
  6
CONTINUOUS
 10
286.420907
 20
33.697909
 30
0.0
 42
0.035323
  0
VERTEX
  8
1
  6
CONTINUOUS
 10
286.465
 20
33.660987
 30
0.0
 42
0.036361
  0
VERTEX
  8
1
  6
CONTINUOUS
 10
286.511371
 20
33.632378
 30
0.0
 42
0.039053
  0
VERTEX
  8
1
  6
CONTINUOUS
 10
286.561472
 20
33.611037
 30
0.0
 42
0.039791
  0
VERTEX
  8
1
  6
CONTINUOUS
 10
286.612557
 20
33.598353
 30
0.0
 42
0.040919
  0
VERTEX
  8
1
  6
CONTINUOUS
 10
286.665
 20
33.594
 30
0.0
 42
0.040919
  0
VERTEX
  8
1
  6
CONTINUOUS
 10
286.717443
 20
33.598353
 30
0.0
 42
0.039791
  0
VERTEX
  8
1
  6
CONTINUOUS
 10
286.768528
 20
33.611037
 30
0.0
 42
0.039053
  0
VERTEX
  8
1
  6
CONTINUOUS
 10
286.818629
 20
33.632378
 30
0.0
 42
0.036361
  0
VERTEX
  8
1
  6
CONTINUOUS
 10
286.865
 20
33.660987
 30
0.0
 42
0.035323
  0
VERTEX
  8
1
  6
CONTINUOUS
 10
286.909093
 20
33.697909
 30
0.0
 42
0.032357
  0
VERTEX
  8
1
  6
CONTINUOUS
 10
286.947843
 20
33.740447
 30
0.0
 42
0.031424
  0
VERTEX
  8
1
  6
CONTINUOUS
 10
286.982746
 20
33.790295
 30
0.0
 42
0.029053
  0
VERTEX
  8
1
  6
CONTINUOUS
 10
287.01141
 20
33.844
 30
0.0
 42
0.028405
  0
VERTEX
  8
1
  6
CONTINUOUS
 10
287.034721
 20
33.903185
 30
0.0
 42
0.026949
  0
VERTEX
  8
1
  6
CONTINUOUS
 10
287.05137
 20
33.96459
 30
0.0
 42
0.026626
  0
VERTEX
  8
1
  6
CONTINUOUS
 10
287.061594
 20
34.028934
 30
0.0
 42
0.026141
  0
VERTEX
  8
1
  6
CONTINUOUS
 10
287.065
 20
34.094
 30
0.0
  0
SEQEND
  8
0
  0
TEXT
  8
1
  6
CONTINUOUS
 10
285.796
 20
33.368
 30
0.0
 40
0.075
  1
0.70
  7
ROMANC
  0
LINE
  8
1
  6
CONTINUOUS
 10
285.758
 20
33.405
 30
0.0
 11
285.565
 21
33.405
 31
0.0
  0
LINE
  8
1
  6
CONTINUOUS
 10
286.07
 20
33.405
 30
0.0
 11
286.265
 21
33.405
 31
0.0
  0
LINE
  8
1
  6
CONTINUOUS
 10
285.528
 20
33.386
 30
0.0
 11
285.602
 21
33.424
 31
0.0
  0
LINE
  8
1
  6
CONTINUOUS
 10
286.302
 20
33.424
 30
0.0
 11
286.228
 21
33.386
 31
0.0
  0
LINE
  8
1
  6
CONTINUOUS
 10
285.565
 20
34.056
 30
0.0
 11
285.565
 21
33.367
 31
0.0
  0
LINE
  8
1
  6
CONTINUOUS
 10
286.265
 20
34.056
 30
0.0
 11
286.265
 21
33.367
 31
0.0
  0
TEXT
  8
1
  6
CONTINUOUS
 10
286.546
 20
33.368
 30
0.0
 40
0.075
  1
0.80
  7
ROMANC
  0
LINE
  8
1
  6
CONTINUOUS
 10
286.508
 20
33.405
 30
0.0
 11
286.265
 21
33.405
 31
0.0
  0
LINE
  8
1
  6
CONTINUOUS
 10
286.82
 20
33.405
 30
0.0
 11
287.065
 21
33.405
 31
0.0
  0
LINE
  8
1
  6
CONTINUOUS
 10
286.228
 20
33.386
 30
0.0
 11
286.302
 21
33.424
 31
0.0
  0
LINE
  8
1
  6
CONTINUOUS
 10
287.102
 20
33.424
 30
0.0
 11
287.028
 21
33.386
 31
0.0
  0
LINE
  8
1
  6
CONTINUOUS
 10
287.065
 20
34.056
 30
0.0
 11
287.065
 21
33.367
 31
0.0
  0
ARC
  8
1
  6
CONTINUOUS
 10
286.315
 20
33.894
 30
0.0
 40
1.25
 50
53.130103
 51
126.869897
  0
TEXT
  8
1
  6
CONTINUOUS
 10
286.205
 20
35.28
 30
0.0
 40
0.075
  1
1.50
  7
ROMANC
  0
LINE
  8
1
  6
CONTINUOUS
 10
286.167
 20
35.317
 30
0.0
 11
285.565
 21
35.317
 31
0.0
  0
LINE
  8
1
  6
CONTINUOUS
 10
286.462
 20
35.317
 30
0.0
 11
287.065
 21
35.317
 31
0.0
  0
LINE
  8
1
  6
CONTINUOUS
 10
285.528
 20
35.298
 30
0.0
 11
285.602
 21
35.336
 31
0.0
  0
LINE
  8
1
  6
CONTINUOUS
 10
287.102
 20
35.336
 30
0.0
 11
287.028
 21
35.298
 31
0.0
  0
LINE
  8
1
  6
CONTINUOUS
 10
285.565
 20
34.932
 30
0.0
 11
285.565
 21
35.355
 31
0.0
  0
LINE
  8
1
  6
CONTINUOUS
 10
287.065
 20
34.932
 30
0.0
 11
287.065
 21
35.355
 31
0.0
  0
TEXT
  8
1
  6
CONTINUOUS
 10
285.438
 20
34.375
 30
0.0
 40
0.075
  1
0.80
 50
90.0
  7
ROMANC
  0
LINE
  8
1
  6
CONTINUOUS
 10
285.4
 20
34.337
 30
0.0
 11
285.4
 21
34.094
 31
0.0
  0
LINE
  8
1
  6
CONTINUOUS
 10
285.4
 20
34.649
 30
0.0
 11
285.4
 21
34.894
 31
0.0
  0
LINE
  8
1
  6
CONTINUOUS
 10
285.419
 20
34.056
 30
0.0
 11
285.381
 21
34.132
 31
0.0
  0
LINE
  8
1
  6
CONTINUOUS
 10
285.381
 20
34.932
 30
0.0
 11
285.419
 21
34.856
 31
0.0
  0
LINE
  8
1
  6
CONTINUOUS
 10
285.527
 20
34.094
 30
0.0
 11
285.362
 21
34.094
 31
0.0
  0
LINE
  8
1
  6
CONTINUOUS
 10
285.527
 20
34.894
 30
0.0
 11
285.362
 21
34.894
 31
0.0
  0
TEXT
  8
1
  6
CONTINUOUS
 10
287.748722
 20
34.259
 30
0.0
 40
0.075
  1
1.55
 50
90.0
  7
ROMANC
  0
LINE
  8
1
  6
CONTINUOUS
 10
287.711722
 20
34.221
 30
0.0
 11
287.711722
 21
33.594
 31
0.0
  0
LINE
  8
1
  6
CONTINUOUS
 10
287.711722
 20
34.516
 30
0.0
 11
287.711722
 21
35.144
 31
0.0
  0
LINE
  8
1
  6
CONTINUOUS
 10
287.730722
 20
33.556
 30
0.0
 11
287.692722
 21
33.632
 31
0.0
  0
LINE
  8
1
  6
CONTINUOUS
 10
287.692722
 20
35.182
 30
0.0
 11
287.730722
 21
35.106
 31
0.0
  0
LINE
  8
1
  6
CONTINUOUS
 10
286.703
 20
33.594
 30
0.0
 11
287.749722
 21
33.594
 31
0.0
  0
LINE
  8
1
  6
CONTINUOUS
 10
286.353
 20
35.144
 30
0.0
 11
287.749722
 21
35.144
 31
0.0
  0
ARC
  8
1
  6
CONTINUOUS
 10
286.315
 20
33.894
 30
0.0
 40
1.26
 50
52.902397
 51
127.097603
  0
ARC
  8
1
  6
CONTINUOUS
 10
286.315
 20
33.894
 30
0.0
 40
1.27
 50
52.677608
 51
127.322392
  0
LINE
  8
1
  6
CONTINUOUS
 10
287.075
 20
34.094
 30
0.0
 11
287.075
 21
34.899
 31
0.0
  0
LINE
  8
1
  6
CONTINUOUS
 10
287.085
 20
34.094
 30
0.0
 11
287.085
 21
34.904
 31
0.0
  0
POLYLINE
  8
1
  6
CONTINUOUS
 66
     1
 10
0.0
 20
0.0
 30
0.0
  0
VERTEX
  8
1
  6
CONTINUOUS
 10
286.255079
 20
34.084
 30
0.0
 42
0.028489
  0
VERTEX
  8
1
  6
CONTINUOUS
 10
286.260306
 20
34.012268
 30
0.0
 42
0.029183
  0
VERTEX
  8
1
  6
CONTINUOUS
 10
286.273729
 20
33.941616
 30
0.0
 42
0.029618
  0
VERTEX
  8
1
  6
CONTINUOUS
 10
286.294739
 20
33.874986
 30
0.0
 42
0.031526
  0
VERTEX
  8
1
  6
CONTINUOUS
 10
286.323687
 20
33.811426
 30
0.0
 42
0.032364
  0
VERTEX
  8
1
  6
CONTINUOUS
 10
286.358696
 20
33.75501
 30
0.0
 42
0.03535
  0
VERTEX
  8
1
  6
CONTINUOUS
 10
286.400953
 20
33.703844
 30
0.0
 42
0.036501
  0
VERTEX
  8
1
  6
CONTINUOUS
 10
286.447257
 20
33.661899
 30
0.0
 42
0.039935
  0
VERTEX
  8
1
  6
CONTINUOUS
 10
286.499347
 20
33.62748
 30
0.0
 42
0.041057
  0
VERTEX
  8
1
  6
CONTINUOUS
 10
286.553542
 20
33.603254
 30
0.0
 42
0.043491
  0
VERTEX
  8
1
  6
CONTINUOUS
 10
286.610995
 20
33.588444
 30
0.0
 42
0.04396
  0
VERTEX
  8
1
  6
CONTINUOUS
 10
286.669041
 20
33.584078
 30
0.0
 42
0.043862
  0
VERTEX
  8
1
  6
CONTINUOUS
 10
286.726964
 20
33.589858
 30
0.0
 42
0.043328
  0
VERTEX
  8
1
  6
CONTINUOUS
 10
286.784203
 20
33.606077
 30
0.0
 42
0.040767
  0
VERTEX
  8
1
  6
CONTINUOUS
 10
286.837975
 20
33.63161
 30
0.0
 42
0.039624
  0
VERTEX
  8
1
  6
CONTINUOUS
 10
286.88952
 20
33.667299
 30
0.0
 42
0.036185
  0
VERTEX
  8
1
  6
CONTINUOUS
 10
286.935146
 20
33.710359
 30
0.0
 42
0.035047
  0
VERTEX
  8
1
  6
CONTINUOUS
 10
286.976582
 20
33.762536
 30
0.0
 42
0.032124
  0
VERTEX
  8
1
  6
CONTINUOUS
 10
287.010702
 20
33.819805
 30
0.0
 42
0.031313
  0
VERTEX
  8
1
  6
CONTINUOUS
 10
287.038633
 20
33.884034
 30
0.0
 42
0.029487
  0
VERTEX
  8
1
  6
CONTINUOUS
 10
287.058597
 20
33.951189
 30
0.0
 42
0.029081
  0
VERTEX
  8
1
  6
CONTINUOUS
 10
287.070901
 20
34.02212
 30
0.0
 42
0.028471
  0
VERTEX
  8
1
  6
CONTINUOUS
 10
287.075
 20
34.094
 30
0.0
  0
SEQEND
  8
0
  0
POLYLINE
  8
1
  6
CONTINUOUS
 66
     1
 10
0.0
 20
0.0
 30
0.0
  0
VERTEX
  8
1
  6
CONTINUOUS
 10
286.245311
 20
34.074
 30
0.0
 42
0.028475
  0
VERTEX
  8
1
  6
CONTINUOUS
 10
286.251711
 20
34.00146
 30
0.0
 42
0.029226
  0
VERTEX
  8
1
  6
CONTINUOUS
 10
286.266397
 20
33.930143
 30
0.0
 42
0.029674
  0
VERTEX
  8
1
  6
CONTINUOUS
 10
286.288697
 20
33.863072
 30
0.0
 42
0.031597
  0
VERTEX
  8
1
  6
CONTINUOUS
 10
286.318995
 20
33.799239
 30
0.0
 42
0.032432
  0
VERTEX
  8
1
  6
CONTINUOUS
 10
286.355342
 20
33.74272
 30
0.0
 42
0.035368
  0
VERTEX
  8
1
  6
CONTINUOUS
 10
286.398946
 20
33.691638
 30
0.0
 42
0.03649
  0
VERTEX
  8
1
  6
CONTINUOUS
 10
286.446573
 20
33.649888
 30
0.0
 42
0.039793
  0
VERTEX
  8
1
  6
CONTINUOUS
 10
286.49993
 20
33.615845
 30
0.0
 42
0.040857
  0
VERTEX
  8
1
  6
CONTINUOUS
 10
286.555372
 20
33.592073
 30
0.0
 42
0.043119
  0
VERTEX
  8
1
  6
CONTINUOUS
 10
286.613964
 20
33.577853
 30
0.0
 42
0.043536
  0
VERTEX
  8
1
  6
CONTINUOUS
 10
286.673119
 20
33.57415
 30
0.0
 42
0.04335
  0
VERTEX
  8
1
  6
CONTINUOUS
 10
286.732032
 20
33.580666
 30
0.0
 42
0.042813
  0
VERTEX
  8
1
  6
CONTINUOUS
 10
286.790199
 20
33.597686
 30
0.0
 42
0.040309
  0
VERTEX
  8
1
  6
CONTINUOUS
 10
286.844802
 20
33.624059
 30
0.0
 42
0.039205
  0
VERTEX
  8
1
  6
CONTINUOUS
 10
286.897078
 20
33.660629
 30
0.0
 42
0.035885
  0
VERTEX
  8
1
  6
CONTINUOUS
 10
286.943357
 20
33.704605
 30
0.0
 42
0.034789
  0
VERTEX
  8
1
  6
CONTINUOUS
 10
286.985329
 20
33.757706
 30
0.0
 42
0.031968
  0
VERTEX
  8
1
  6
CONTINUOUS
 10
287.019906
 20
33.815933
 30
0.0
 42
0.031184
  0
VERTEX
  8
1
  6
CONTINUOUS
 10
287.048181
 20
33.881113
 30
0.0
 42
0.029418
  0
VERTEX
  8
1
  6
CONTINUOUS
 10
287.068398
 20
33.949245
 30
0.0
 42
0.029024
  0
VERTEX
  8
1
  6
CONTINUOUS
 10
287.080851
 20
34.021143
 30
0.0
 42
0.028433
  0
VERTEX
  8
1
  6
CONTINUOUS
 10
287.085
 20
34.094
 30
0.0
  0
SEQEND
  8
0
  0
LINE
  8
1
  6
CONTINUOUS
 10
285.555
 20
34.084
 30
0.0
 11
286.255
 21
34.084
 31
0.0
  0
LINE
  8
1
  6
CONTINUOUS
 10
285.545
 20
34.074
 30
0.0
 11
286.245
 21
34.074
 31
0.0
  0
LINE
  8
1
  6
CONTINUOUS
 10
285.555
 20
34.899
 30
0.0
 11
285.555
 21
34.084
 31
0.0
  0
LINE
  8
1
  6
CONTINUOUS
 10
285.545
 20
34.904
 30
0.0
 11
285.545
 21
34.074
 31
0.0
  0
TEXT
  8
0
  6
CONTINUOUS
 10
283.926
 20
42.381
 30
0.0
 40
0.3
  1
TIPUS   NT177
  7
ROMANC
  0
LINE
  8
0
 10
287.065
 20
34.056
 30
0.0
 11
287.38122
 21
34.056
 31
0.0
  0
LINE
  8
0
 10
287.38122
 20
33.594
 30
0.0
 11
287.38122
 21
33.670192
 31
0.0
  0
LINE
  8
1
  6
CONTINUOUS
 10
287.36222
 20
35.182
 30
0.0
 11
287.40022
 21
35.106
 31
0.0
  0
LINE
  8
1
  6
CONTINUOUS
 10
287.358421
 20
34.089686
 30
0.0
 11
287.396421
 21
34.013686
 31
0.0
  0
LINE
  8
1
  6
CONTINUOUS
 10
287.36222
 20
33.622703
 30
0.0
 11
287.40022
 21
33.546703
 31
0.0
  0
TEXT
  8
1
  6
CONTINUOUS
 10
287.406823
 20
34.501983
 30
0.0
 40
0.075
  1
1.05
 50
90.0
  7
ROMANC
  0
TEXT
  8
1
  6
CONTINUOUS
 10
287.406823
 20
33.678118
 30
0.0
 40
0.075
  1
0.5
 50
90.0
  7
ROMANC
  0
LINE
  8
0
 10
287.38122
 20
33.951479
 30
0.0
 11
287.38122
 21
34.465518
 31
0.0
  0
LINE
  8
0
 10
287.38122
 20
34.809163
 30
0.0
 11
287.38122
 21
35.144
 31
0.0
  0
ENDSEC
  0
EOF
