  0
SECTION
  2
HEADER
  9
$ACADVER
  1
AC1009
  9
$INSBASE
 10
0.0
 20
0.0
 30
0.0
  9
$EXTMIN
 10
281.396000
 20
29.897000
 30
-2147483.648000
  9
$EXTMAX
 10
291.896000
 20
44.747000
 30
0.000000
  9
$LIMMIN
 10
280.396000
 20
28.897000
  9
$LIMMAX
 10
292.896000
 20
43.747000
  9
$ORTHOMODE
 70
     0
  9
$REGENMODE
 70
     1
  9
$FILLMODE
 70
     1
  9
$QTEXTMODE
 70
     0
  9
$MIRRTEXT
 70
     1
  9
$DRAGMODE
 70
     2
  9
$LTSCALE
 40
1.0
  9
$OSMODE
 70
     0
  9
$ATTMODE
 70
     1
  9
$TEXTSIZE
 40
0.2
  9
$TRACEWID
 40
0.05
  9
$TEXTSTYLE
  7
STANDARD
  9
$CLAYER
  8
0
  9
$CELTYPE
  6
BYLAYER
  9
$CECOLOR
 62
   256
  9
$DIMSCALE
 40
1.0
  9
$DIMASZ
 40
0.18
  9
$DIMEXO
 40
0.0625
  9
$DIMDLI
 40
0.38
  9
$DIMRND
 40
0.0
  9
$DIMDLE
 40
0.0
  9
$DIMEXE
 40
0.18
  9
$DIMTP
 40
0.0
  9
$DIMTM
 40
0.0
  9
$DIMTXT
 40
0.18
  9
$DIMCEN
 40
0.09
  9
$DIMTSZ
 40
0.0
  9
$DIMTOL
 70
     0
  9
$DIMLIM
 70
     0
  9
$DIMTIH
 70
     1
  9
$DIMTOH
 70
     1
  9
$DIMSE1
 70
     0
  9
$DIMSE2
 70
     0
  9
$DIMTAD
 70
     0
  9
$DIMZIN
 70
     0
  9
$DIMBLK
  1

  9
$DIMASO
 70
     1
  9
$DIMSHO
 70
     1
  9
$DIMPOST
  1

  9
$DIMAPOST
  1

  9
$DIMALT
 70
     0
  9
$DIMALTD
 70
     2
  9
$DIMALTF
 40
25.4
  9
$DIMLFAC
 40
1.0
  9
$DIMTOFL
 70
     0
  9
$DIMTVP
 40
0.0
  9
$DIMTIX
 70
     0
  9
$DIMSOXD
 70
     0
  9
$DIMSAH
 70
     0
  9
$DIMBLK1
  1

  9
$DIMBLK2
  1

  9
$DIMSTYLE
  2
*UNNAMED
  9
$DIMCLRD
 70
     0
  9
$DIMCLRE
 70
     0
  9
$DIMCLRT
 70
     0
  9
$DIMTFAC
 40
1.0
  9
$DIMGAP
 40
0.09
  9
$LUNITS
 70
     2
  9
$LUPREC
 70
     4
  9
$AXISMODE
 70
     0
  9
$AXISUNIT
 10
0.0
 20
0.0
  9
$SKETCHINC
 40
0.1
  9
$FILLETRAD
 40
0.0
  9
$AUNITS
 70
     0
  9
$AUPREC
 70
     0
  9
$MENU
  1
acad
  9
$ELEVATION
 40
0.0
  9
$PELEVATION
 40
0.0
  9
$THICKNESS
 40
0.0
  9
$LIMCHECK
 70
     0
  9
$BLIPMODE
 70
     1
  9
$CHAMFERA
 40
0.0
  9
$CHAMFERB
 40
0.0
  9
$SKPOLY
 70
     0
  9
$TDCREATE
 40
2448315.373408102
  9
$TDUPDATE
 40
2448315.373408102
  9
$TDINDWG
 40
0.0000000000
  9
$TDUSRTIMER
 40
0.0000000000
  9
$USRTIMER
 70
     1
  9
$ANGBASE
 50
0.0
  9
$ANGDIR
 70
     0
  9
$PDMODE
 70
     0
  9
$PDSIZE
 40
0.0
  9
$PLINEWID
 40
0.0
  9
$COORDS
 70
     0
  9
$SPLFRAME
 70
     0
  9
$SPLINETYPE
 70
     6
  9
$SPLINESEGS
 70
     8
  9
$ATTDIA
 70
     0
  9
$ATTREQ
 70
     1
  9
$HANDLING
 70
     0
  9
$HANDSEED
  5
0
  9
$SURFTAB1
 70
     6
  9
$SURFTAB2
 70
     6
  9
$SURFTYPE
 70
     6
  9
$SURFU
 70
     6
  9
$SURFV
 70
     6
  9
$UCSNAME
  2

  9
$UCSORG
 10
0.0
 20
0.0
 30
0.0
  9
$UCSXDIR
 10
1.0
 20
0.0
 30
0.0
  9
$UCSYDIR
 10
0.0
 20
1.0
 30
0.0
  9
$PUCSNAME
  2

  9
$PUCSORG
 10
0.0
 20
0.0
 30
0.0
  9
$PUCSXDIR
 10
1.0
 20
0.0
 30
0.0
  9
$PUCSYDIR
 10
0.0
 20
1.0
 30
0.0
  9
$USERI1
 70
     0
  9
$USERI2
 70
     0
  9
$USERI3
 70
     0
  9
$USERI4
 70
     0
  9
$USERI5
 70
     0
  9
$USERR1
 40
0.0
  9
$USERR2
 40
0.0
  9
$USERR3
 40
0.0
  9
$USERR4
 40
0.0
  9
$USERR5
 40
0.0
  9
$WORLDVIEW
 70
     1
  9
$SHADEDGE
 70
     3
  9
$SHADEDIF
 70
    70
  9
$TILEMODE
 70
     1
  9
$MAXACTVP
 70
    16
  9
$PINSBASE
 10
0.0
 20
0.0
 30
0.0
  9
$PLIMCHECK
 70
     0
  9
$PEXTMIN
 10
1.000000E+20
 20
1.000000E+20
 30
1.000000E+20
  9
$PEXTMAX
 10
-1.000000E+20
 20
-1.000000E+20
 30
-1.000000E+20
  9
$PLIMMIN
 10
0.0
 20
0.0
  9
$PLIMMAX
 10
12.0
 20
9.0
  9
$UNITMODE
 70
     0
  9
$VISRETAIN
 70
     0
  0
ENDSEC
  0
SECTION
  2
TABLES
  0
TABLE
  2
LTYPE
 70
    1
  0
LTYPE
  2
CONTINUOUS
 70
    64
3
Solid line
 72
    65
 73
0
 40
0.000000
  0
ENDTAB
  0
TABLE
  2
LAYER
 70
    8
  0
LAYER
  2
0
 70
    64
 62
7
  6
CONTINUOUS
  0
LAYER
  2
1
 70
    64
 62
7
  6
CONTINUOUS
  0
LAYER
  2
7
 70
    64
 62
7
  6
CONTINUOUS
  0
LAYER
  2
8
 70
    64
 62
7
  6
CONTINUOUS
  0
LAYER
  2
9
 70
    64
 62
7
  6
CONTINUOUS
  0
LAYER
  2
22
 70
    64
 62
7
  6
CONTINUOUS
  0
LAYER
  2
25
 70
    64
 62
7
  6
CONTINUOUS
  0
LAYER
  2
0
 70
    64
 62
7
  6
CONTINUOUS
  0
ENDTAB
  0
TABLE
  2
STYLE
 70
    1
  0
STYLE
  2
ROMANC
70
     0
 40
0.0
 41
1.0
 50
0.0
 71
     0
 42
0.2
  3
ROMANC
  4

  0
ENDTAB
  0
ENDSEC
  0
SECTION
  2
BLOCKS
  0
ENDSEC
  0
SECTION
  2
ENTITIES
  0
TEXT
  8
0
  6
CONTINUOUS
 40
0.100000
 10
286.909000
 20
41.324000
  1
2
  7
ROMANC
  0
TEXT
  8
0
  6
CONTINUOUS
 40
0.300000
 10
283.926000
 20
41.768000
  1
ESCALA  1:50
  7
ROMANC
  0
POLYLINE
  8
0
  6
CONTINUOUS
 66
     1
 70
     1
  0
VERTEX
  8
0
  6
CONTINUOUS
 10
281.396000
 20
44.747000
  0
VERTEX
  8
0
  6
CONTINUOUS
 10
291.896000
 20
44.747000
  0
VERTEX
  8
0
  6
CONTINUOUS
 10
291.896000
 20
29.897000
  0
VERTEX
  8
0
  6
CONTINUOUS
 10
281.396000
 20
29.897000
  0
SEQEND
  8
0
  0
TEXT
  8
0
  6
CONTINUOUS
 40
0.300000
 10
283.926000
 20
42.381000
  1
TIPUS   NT175
  7
ROMANC
  0
TEXT
  8
0
  6
CONTINUOUS
 40
0.300000
 10
283.945000
 20
41.099000
  1
S = 175 dm
  7
ROMANC
  0
TEXT
  8
0
  6
CONTINUOUS
 40
0.300000
 10
283.922000
 20
40.529000
  1
P = 60 dm
  7
ROMANC
  0
LINE
  8
1
  6
CONTINUOUS
 10
285.940000
 20
35.322000
 11
286.840000
 21
35.322000
  0
LINE
  8
1
  6
CONTINUOUS
 10
285.940000
 20
33.572000
 11
285.940000
 21
35.322000
  0
LINE
  8
1
  6
CONTINUOUS
 10
286.140000
 20
33.222000
 11
286.640000
 21
33.222000
  0
TEXT
  8
1
  6
CONTINUOUS
 40
0.075000
 10
285.516000
 20
33.024000
  1
0.20
  7
ROMANC
  0
LINE
  8
1
  6
CONTINUOUS
 10
285.866000
 20
33.062000
 11
285.940000
 21
33.062000
  0
LINE
  8
1
  6
CONTINUOUS
 10
286.290000
 20
33.062000
 11
286.140000
 21
33.062000
  0
LINE
  8
1
  6
CONTINUOUS
 10
285.978000
 20
33.081000
 11
285.902000
 21
33.043000
  0
LINE
  8
1
  6
CONTINUOUS
 10
286.102000
 20
33.043000
 11
286.178000
 21
33.081000
  0
LINE
  8
1
  6
CONTINUOUS
 10
285.940000
 20
33.534000
 11
285.940000
 21
33.024000
  0
LINE
  8
1
  6
CONTINUOUS
 10
286.140000
 20
33.184000
 11
286.140000
 21
33.024000
  0
LINE
  8
1
  6
CONTINUOUS
 10
286.640000
 20
33.572000
 11
286.640000
 21
33.222000
  0
LINE
  8
1
  6
CONTINUOUS
 10
286.640000
 20
33.572000
 11
286.840000
 21
33.572000
  0
TEXT
  8
1
  6
CONTINUOUS
 40
0.075000
 10
287.081000
 20
33.024000
  1
0.20
  7
ROMANC
  0
LINE
  8
1
  6
CONTINUOUS
 10
286.490000
 20
33.062000
 11
286.640000
 21
33.062000
  0
LINE
  8
1
  6
CONTINUOUS
 10
287.043000
 20
33.062000
 11
286.840000
 21
33.062000
  0
LINE
  8
1
  6
CONTINUOUS
 10
286.678000
 20
33.081000
 11
286.602000
 21
33.043000
  0
LINE
  8
1
  6
CONTINUOUS
 10
286.802000
 20
33.043000
 11
286.878000
 21
33.081000
  0
LINE
  8
1
  6
CONTINUOUS
 10
286.640000
 20
33.184000
 11
286.640000
 21
33.024000
  0
LINE
  8
1
  6
CONTINUOUS
 10
286.840000
 20
33.534000
 11
286.840000
 21
33.024000
  0
LINE
  8
1
  6
CONTINUOUS
 10
286.140000
 20
33.572000
 11
286.140000
 21
33.222000
  0
TEXT
  8
1
  6
CONTINUOUS
 40
0.075000
 10
286.271000
 20
32.832000
  1
0.50
  7
ROMANC
  0
LINE
  8
1
  6
CONTINUOUS
 10
285.990000
 20
32.870000
 11
286.140000
 21
32.870000
  0
LINE
  8
1
  6
CONTINUOUS
 10
286.790000
 20
32.870000
 11
286.640000
 21
32.870000
  0
LINE
  8
1
  6
CONTINUOUS
 10
286.178000
 20
32.889000
 11
286.102000
 21
32.851000
  0
LINE
  8
1
  6
CONTINUOUS
 10
286.602000
 20
32.851000
 11
286.678000
 21
32.889000
  0
LINE
  8
1
  6
CONTINUOUS
 10
286.140000
 20
33.184000
 11
286.140000
 21
32.832000
  0
LINE
  8
1
  6
CONTINUOUS
 10
286.640000
 20
33.184000
 11
286.640000
 21
32.832000
  0
LINE
  8
1
  6
CONTINUOUS
 10
286.840000
 20
33.572000
 11
286.840000
 21
35.322000
  0
TEXT
  8
1
  6
CONTINUOUS
 40
0.075000
 10
286.271000
 20
32.630000
  1
0.90
  7
ROMANC
  0
LINE
  8
1
  6
CONTINUOUS
 10
286.233000
 20
32.667000
 11
285.940000
 21
32.667000
  0
LINE
  8
1
  6
CONTINUOUS
 10
286.545000
 20
32.667000
 11
286.840000
 21
32.667000
  0
LINE
  8
1
  6
CONTINUOUS
 10
285.902000
 20
32.648000
 11
285.978000
 21
32.686000
  0
LINE
  8
1
  6
CONTINUOUS
 10
286.878000
 20
32.686000
 11
286.802000
 21
32.648000
  0
LINE
  8
1
  6
CONTINUOUS
 10
285.940000
 20
33.534000
 11
285.940000
 21
32.629000
  0
LINE
  8
1
  6
CONTINUOUS
 10
286.840000
 20
33.534000
 11
286.840000
 21
32.629000
  0
LINE
  8
1
  6
CONTINUOUS
 10
285.940000
 20
33.572000
 11
286.140000
 21
33.572000
  0
TEXT
  8
1
  6
CONTINUOUS
 40
0.075000
 10
285.488000
 20
33.281000
  1
0.35
 50
90.000000
  7
ROMANC
  0
LINE
  8
1
  6
CONTINUOUS
 10
285.451000
 20
33.072000
 11
285.451000
 21
33.222000
  0
LINE
  8
1
  6
CONTINUOUS
 10
285.451000
 20
33.722000
 11
285.451000
 21
33.572000
  0
LINE
  8
1
  6
CONTINUOUS
 10
285.432000
 20
33.260000
 11
285.470000
 21
33.184000
  0
LINE
  8
1
  6
CONTINUOUS
 10
285.470000
 20
33.534000
 11
285.432000
 21
33.610000
  0
LINE
  8
1
  6
CONTINUOUS
 10
286.102000
 20
33.222000
 11
285.413000
 21
33.222000
  0
LINE
  8
1
  6
CONTINUOUS
 10
285.902000
 20
33.572000
 11
285.413000
 21
33.572000
  0
TEXT
  8
1
  6
CONTINUOUS
 40
0.075000
 10
285.488000
 20
34.337000
  1
1.75
 50
90.000000
  7
ROMANC
  0
LINE
  8
1
  6
CONTINUOUS
 10
285.451000
 20
34.299000
 11
285.451000
 21
33.572000
  0
LINE
  8
1
  6
CONTINUOUS
 10
285.451000
 20
34.594000
 11
285.451000
 21
35.322000
  0
LINE
  8
1
  6
CONTINUOUS
 10
285.470000
 20
33.534000
 11
285.432000
 21
33.610000
  0
LINE
  8
1
  6
CONTINUOUS
 10
285.432000
 20
35.360000
 11
285.470000
 21
35.284000
  0
LINE
  8
1
  6
CONTINUOUS
 10
285.902000
 20
35.322000
 11
285.413000
 21
35.322000
  0
TEXT
  8
1
  6
CONTINUOUS
 40
0.075000
 10
285.184000
 20
34.162000
  1
2.10
 50
90.000000
  7
ROMANC
  0
LINE
  8
1
  6
CONTINUOUS
 10
285.147000
 20
34.124000
 11
285.147000
 21
33.222000
  0
LINE
  8
1
  6
CONTINUOUS
 10
285.147000
 20
34.419000
 11
285.147000
 21
35.322000
  0
LINE
  8
1
  6
CONTINUOUS
 10
285.166000
 20
33.184000
 11
285.128000
 21
33.260000
  0
LINE
  8
1
  6
CONTINUOUS
 10
285.128000
 20
35.360000
 11
285.166000
 21
35.284000
  0
LINE
  8
1
  6
CONTINUOUS
 10
286.102000
 20
33.222000
 11
285.109000
 21
33.222000
  0
LINE
  8
1
  6
CONTINUOUS
 10
285.902000
 20
35.322000
 11
285.109000
 21
35.322000
  0
LINE
  8
1
  6
CONTINUOUS
 10
285.930000
 20
35.332000
 11
286.850000
 21
35.332000
  0
LINE
  8
1
  6
CONTINUOUS
 10
285.920000
 20
35.342000
 11
286.860000
 21
35.342000
  0
LINE
  8
1
  6
CONTINUOUS
 10
285.930000
 20
33.562000
 11
285.930000
 21
35.332000
  0
LINE
  8
1
  6
CONTINUOUS
 10
285.920000
 20
33.552000
 11
285.920000
 21
35.342000
  0
LINE
  8
1
  6
CONTINUOUS
 10
285.930000
 20
33.562000
 11
286.130000
 21
33.562000
  0
LINE
  8
1
  6
CONTINUOUS
 10
285.920000
 20
33.552000
 11
286.120000
 21
33.552000
  0
LINE
  8
1
  6
CONTINUOUS
 10
286.130000
 20
33.562000
 11
286.130000
 21
33.212000
  0
LINE
  8
1
  6
CONTINUOUS
 10
286.120000
 20
33.552000
 11
286.120000
 21
33.202000
  0
LINE
  8
1
  6
CONTINUOUS
 10
286.130000
 20
33.212000
 11
286.650000
 21
33.212000
  0
LINE
  8
1
  6
CONTINUOUS
 10
286.120000
 20
33.202000
 11
286.660000
 21
33.202000
  0
LINE
  8
1
  6
CONTINUOUS
 10
286.650000
 20
33.562000
 11
286.650000
 21
33.212000
  0
LINE
  8
1
  6
CONTINUOUS
 10
286.660000
 20
33.552000
 11
286.660000
 21
33.202000
  0
LINE
  8
1
  6
CONTINUOUS
 10
286.650000
 20
33.562000
 11
286.850000
 21
33.562000
  0
LINE
  8
1
  6
CONTINUOUS
 10
286.660000
 20
33.552000
 11
286.860000
 21
33.552000
  0
LINE
  8
1
  6
CONTINUOUS
 10
286.850000
 20
33.562000
 11
286.850000
 21
35.332000
  0
LINE
  8
1
  6
CONTINUOUS
 10
286.860000
 20
33.552000
 11
286.860000
 21
35.342000
  0
ENDSEC
  0
EOF
