  0
SECTION
  2
HEADER
  9
$ACADVER
  1
AC1009
  9
$INSBASE
 10
0.0
 20
0.0
 30
0.0
  9
$EXTMIN
 10
318.829805
 20
29.85788
 30
0.0
  9
$EXTMAX
 10
329.371339
 20
44.72551
 30
0.0
  9
$LIMMIN
 10
0.0
 20
0.0
  9
$LIMMAX
 10
410.0
 20
287.0
  9
$ORTHOMODE
 70
     1
  9
$REGENMODE
 70
     1
  9
$FILLMODE
 70
     1
  9
$QTEXTMODE
 70
     0
  9
$MIRRTEXT
 70
     1
  9
$DRAGMODE
 70
     2
  9
$LTSCALE
 40
25.0
  9
$OSMODE
 70
     0
  9
$ATTMODE
 70
     1
  9
$TEXTSIZE
 40
0.1
  9
$TRACEWID
 40
1.0
  9
$TEXTSTYLE
  7
ROMANC
  9
$CLAYER
  8
0
  9
$CELTYPE
  6
BYLAYER
  9
$CECOLOR
 62
   256
  9
$DIMSCALE
 40
1.5
  9
$DIMASZ
 40
0.1
  9
$DIMEXO
 40
0.01
  9
$DIMDLI
 40
7.0
  9
$DIMRND
 40
0.0
  9
$DIMDLE
 40
0.0
  9
$DIMEXE
 40
0.01
  9
$DIMTP
 40
0.0
  9
$DIMTM
 40
0.0
  9
$DIMTXT
 40
0.05
  9
$DIMCEN
 40
0.0
  9
$DIMTSZ
 40
0.0
  9
$DIMTOL
 70
     0
  9
$DIMLIM
 70
     0
  9
$DIMTIH
 70
     0
  9
$DIMTOH
 70
     0
  9
$DIMSE1
 70
     0
  9
$DIMSE2
 70
     0
  9
$DIMTAD
 70
     1
  9
$DIMZIN
 70
     0
  9
$DIMBLK
  1

  9
$DIMASO
 70
     1
  9
$DIMSHO
 70
     0
  9
$DIMPOST
  1

  9
$DIMAPOST
  1

  9
$DIMALT
 70
     0
  9
$DIMALTD
 70
     2
  9
$DIMALTF
 40
25.4
  9
$DIMLFAC
 40
1.0
  9
$DIMTOFL
 70
     1
  9
$DIMTVP
 40
0.0
  9
$DIMTIX
 70
     1
  9
$DIMSOXD
 70
     0
  9
$DIMSAH
 70
     0
  9
$DIMBLK1
  1

  9
$DIMBLK2
  1

  9
$DIMSTYLE
  2
MERITXELL
  9
$DIMCLRD
 70
     0
  9
$DIMCLRE
 70
     0
  9
$DIMCLRT
 70
     0
  9
$DIMTFAC
 40
70.0
  9
$DIMGAP
 40
0.025
  9
$LUNITS
 70
     2
  9
$LUPREC
 70
     2
  9
$SKETCHINC
 40
1.0
  9
$FILLETRAD
 40
0.0
  9
$AUNITS
 70
     0
  9
$AUPREC
 70
     0
  9
$MENU
  1
acad
  9
$ELEVATION
 40
0.0
  9
$PELEVATION
 40
0.0
  9
$THICKNESS
 40
0.0
  9
$LIMCHECK
 70
     0
  9
$BLIPMODE
 70
     0
  9
$CHAMFERA
 40
0.0
  9
$CHAMFERB
 40
0.0
  9
$SKPOLY
 70
     0
  9
$TDCREATE
 40
2450927.46195
  9
$TDUPDATE
 40
2451100.746948
  9
$TDINDWG
 40
0.050008
  9
$TDUSRTIMER
 40
0.050008
  9
$USRTIMER
 70
     1
  9
$ANGBASE
 50
0.0
  9
$ANGDIR
 70
     0
  9
$PDMODE
 70
     0
  9
$PDSIZE
 40
0.0
  9
$PLINEWID
 40
0.0
  9
$COORDS
 70
     2
  9
$SPLFRAME
 70
     0
  9
$SPLINETYPE
 70
     6
  9
$SPLINESEGS
 70
     8
  9
$ATTDIA
 70
     0
  9
$ATTREQ
 70
     1
  9
$HANDLING
 70
     1
  9
$HANDSEED
  5
2EE
  9
$SURFTAB1
 70
     6
  9
$SURFTAB2
 70
     6
  9
$SURFTYPE
 70
     6
  9
$SURFU
 70
     6
  9
$SURFV
 70
     6
  9
$UCSNAME
  2

  9
$UCSORG
 10
0.0
 20
0.0
 30
0.0
  9
$UCSXDIR
 10
1.0
 20
0.0
 30
0.0
  9
$UCSYDIR
 10
0.0
 20
1.0
 30
0.0
  9
$PUCSNAME
  2

  9
$PUCSORG
 10
0.0
 20
0.0
 30
0.0
  9
$PUCSXDIR
 10
1.0
 20
0.0
 30
0.0
  9
$PUCSYDIR
 10
0.0
 20
1.0
 30
0.0
  9
$USERI1
 70
     0
  9
$USERI2
 70
     0
  9
$USERI3
 70
     0
  9
$USERI4
 70
     0
  9
$USERI5
 70
     0
  9
$USERR1
 40
0.0
  9
$USERR2
 40
0.0
  9
$USERR3
 40
0.0
  9
$USERR4
 40
0.0
  9
$USERR5
 40
0.0
  9
$WORLDVIEW
 70
     1
  9
$SHADEDGE
 70
     3
  9
$SHADEDIF
 70
    70
  9
$TILEMODE
 70
     1
  9
$MAXACTVP
 70
    16
  9
$PLIMCHECK
 70
     0
  9
$PEXTMIN
 10
1.000000E+020
 20
1.000000E+020
 30
1.000000E+020
  9
$PEXTMAX
 10
-1.000000E+020
 20
-1.000000E+020
 30
-1.000000E+020
  9
$PLIMMIN
 10
0.0
 20
0.0
  9
$PLIMMAX
 10
12.0
 20
9.0
  9
$UNITMODE
 70
     0
  9
$VISRETAIN
 70
     0
  9
$PLINEGEN
 70
     0
  9
$PSLTSCALE
 70
     0
  0
ENDSEC
  0
SECTION
  2
TABLES
  0
TABLE
  2
VPORT
 70
     5
  0
VPORT
  2
*ACTIVE
 70
     0
 10
0.0
 20
0.0
 11
1.0
 21
1.0
 12
324.100572
 22
37.291695
 13
0.0
 23
0.0
 14
1.0
 24
1.0
 15
10.0
 25
10.0
 16
0.0
 26
0.0
 36
1.0
 17
0.0
 27
0.0
 37
0.0
 40
15.002178
 41
1.732628
 42
50.0
 43
0.0
 44
0.0
 50
0.0
 51
0.0
 71
     0
 72
   100
 73
     1
 74
     0
 75
     0
 76
     0
 77
     0
 78
     1
  0
ENDTAB
  0
TABLE
  2
LTYPE
 70
     1
  0
LTYPE
  2
CONTINUOUS
 70
     0
  3
Solid line
 72
    65
 73
     0
 40
0.0
  0
ENDTAB
  0
TABLE
  2
LAYER
 70
     2
  0
LAYER
  2
0
 70
     0
 62
     7
  6
CONTINUOUS
  0
LAYER
  2
DEFPOINTS
 70
     0
 62
     7
  6
CONTINUOUS
  0
ENDTAB
  0
TABLE
  2
STYLE
 70
     2
  0
STYLE
  2
STANDARD
 70
     0
 40
0.0
 41
1.0
 50
0.0
 71
     0
 42
0.1
  3
txt
  4

  0
STYLE
  2
ROMANC
 70
     0
 40
0.0
 41
1.0
 50
0.0
 71
     0
 42
0.1
  3
romanc
  4

  0
ENDTAB
  0
TABLE
  2
VIEW
 70
     0
  0
ENDTAB
  0
TABLE
  2
UCS
 70
     0
  0
ENDTAB
  0
TABLE
  2
APPID
 70
     1
  0
APPID
  2
ACAD
 70
     0
  0
ENDTAB
  0
TABLE
  2
DIMSTYLE
 70
     1
  0
DIMSTYLE
  2
MERITXELL
 70
     0
  3

  4

  5

  6

  7

 40
1.5
 41
0.1
 42
0.01
 43
7.0
 44
0.01
 45
0.0
 46
0.0
 47
0.0
 48
0.0
140
0.05
141
0.1
142
0.0
143
25.4
144
1.0
145
0.0
146
70.0
147
0.09
 71
     0
 72
     0
 73
     0
 74
     0
 75
     0
 76
     0
 77
     1
 78
     0
170
     0
171
     2
172
     1
173
     0
174
     1
175
     0
176
     0
177
     0
178
     0
  0
ENDTAB
  0
ENDSEC
  0
SECTION
  2
BLOCKS
  0
BLOCK
  8
0
  2
$MODEL_SPACE
 70
     0
 10
0.0
 20
0.0
 30
0.0
  3
$MODEL_SPACE
  1

  0
ENDBLK
  5
24
  8
0
  0
BLOCK
 67
     1
  8
0
  2
$PAPER_SPACE
 70
     0
 10
0.0
 20
0.0
 30
0.0
  3
$PAPER_SPACE
  1

  0
ENDBLK
  5
22
 67
     1
  8
0
  0
BLOCK
  8
0
  2
*D0
 70
     1
 10
0.0
 20
0.0
 30
0.0
  3
*D0
  1

  0
LINE
  5
169
  8
0
  6
BYBLOCK
 62
     0
 10
322.82643
 20
34.652329
 30
0.0
 11
322.82643
 21
34.144609
 31
0.0
  0
LINE
  5
16A
  8
0
  6
BYBLOCK
 62
     0
 10
322.42643
 20
34.652329
 30
0.0
 11
322.42643
 21
34.144609
 31
0.0
  0
LINE
  5
16B
  8
0
  6
BYBLOCK
 62
     0
 10
322.67643
 20
34.159609
 30
0.0
 11
322.57643
 21
34.159609
 31
0.0
  0
SOLID
  5
16C
  8
0
  6
BYBLOCK
 62
     0
 10
322.67643
 20
34.184609
 30
0.0
 11
322.67643
 21
34.134609
 31
0.0
 12
322.82643
 22
34.159609
 32
0.0
 13
322.82643
 23
34.159609
 33
0.0
  0
SOLID
  5
16D
  8
0
  6
BYBLOCK
 62
     0
 10
322.57643
 20
34.184609
 30
0.0
 11
322.57643
 21
34.134609
 31
0.0
 12
322.42643
 22
34.159609
 32
0.0
 13
322.42643
 23
34.159609
 33
0.0
  0
TEXT
  8
0
  40
0.075
  5
2D4
  62
0
  72
0
  71
0
 10
322.476
 20
34.1019
 30
0.000000
  1
0.40
  7
ROMANC
  0
POINT
  5
16F
  8
DEFPOINTS
  6
BYBLOCK
 62
     0
 10
322.82643
 20
34.667329
 30
0.0
  0
POINT
  5
170
  8
DEFPOINTS
  6
BYBLOCK
 62
     0
 10
322.42643
 20
34.667329
 30
0.0
  0
POINT
  5
171
  8
DEFPOINTS
  6
BYBLOCK
 62
     0
 10
322.42643
 20
34.159609
 30
0.0
  0
ENDBLK
  5
172
  8
0
  0
BLOCK
  8
0
  2
*D1
 70
     1
 10
0.0
 20
0.0
 30
0.0
  3
*D1
  1

  0
LINE
  5
176
  8
0
  6
BYBLOCK
 62
     0
 10
323.52643
 20
34.652329
 30
0.0
 11
323.52643
 21
34.144609
 31
0.0
  0
LINE
  5
177
  8
0
  6
BYBLOCK
 62
     0
 10
324.42643
 20
34.652329
 30
0.0
 11
324.42643
 21
34.144609
 31
0.0
  0
LINE
  5
178
  8
0
  6
BYBLOCK
 62
     0
 10
323.67643
 20
34.159609
 30
0.0
 11
324.27643
 21
34.159609
 31
0.0
  0
SOLID
  5
179
  8
0
  6
BYBLOCK
 62
     0
 10
323.67643
 20
34.184609
 30
0.0
 11
323.67643
 21
34.134609
 31
0.0
 12
323.52643
 22
34.159609
 32
0.0
 13
323.52643
 23
34.159609
 33
0.0
  0
SOLID
  5
17A
  8
0
  6
BYBLOCK
 62
     0
 10
324.27643
 20
34.184609
 30
0.0
 11
324.27643
 21
34.134609
 31
0.0
 12
324.42643
 22
34.159609
 32
0.0
 13
324.42643
 23
34.159609
 33
0.0
  0
TEXT
  8
0
  40
0.075
  5
2D5
  62
0
  72
0
  71
0
 10
323.826
 20
34.1019
 30
0.000000
  1
0.90
  7
ROMANC
  0
POINT
  5
17C
  8
DEFPOINTS
  6
BYBLOCK
 62
     0
 10
323.52643
 20
34.667329
 30
0.0
  0
POINT
  5
17D
  8
DEFPOINTS
  6
BYBLOCK
 62
     0
 10
324.42643
 20
34.667329
 30
0.0
  0
POINT
  5
17E
  8
DEFPOINTS
  6
BYBLOCK
 62
     0
 10
324.42643
 20
34.159609
 30
0.0
  0
ENDBLK
  5
17F
  8
0
  0
BLOCK
  8
0
  2
*D2
 70
     1
 10
0.0
 20
0.0
 30
0.0
  3
*D2
  1

  0
LINE
  5
183
  8
0
  6
BYBLOCK
 62
     0
 10
322.82643
 20
34.652329
 30
0.0
 11
322.82643
 21
34.144609
 31
0.0
  0
LINE
  5
184
  8
0
  6
BYBLOCK
 62
     0
 10
323.52643
 20
34.637329
 30
0.0
 11
323.52643
 21
34.144609
 31
0.0
  0
LINE
  5
185
  8
0
  6
BYBLOCK
 62
     0
 10
322.97643
 20
34.159609
 30
0.0
 11
323.37643
 21
34.159609
 31
0.0
  0
SOLID
  5
186
  8
0
  6
BYBLOCK
 62
     0
 10
322.97643
 20
34.184609
 30
0.0
 11
322.97643
 21
34.134609
 31
0.0
 12
322.82643
 22
34.159609
 32
0.0
 13
322.82643
 23
34.159609
 33
0.0
  0
SOLID
  5
187
  8
0
  6
BYBLOCK
 62
     0
 10
323.37643
 20
34.184609
 30
0.0
 11
323.37643
 21
34.134609
 31
0.0
 12
323.52643
 22
34.159609
 32
0.0
 13
323.52643
 23
34.159609
 33
0.0
  0
TEXT
  8
0
  40
0.075
  5
2D6
  62
0
  72
0
  71
0
 10
323.026
 20
34.1019
 30
0.000000
  1
0.70
  7
ROMANC
  0
POINT
  5
189
  8
DEFPOINTS
  6
BYBLOCK
 62
     0
 10
322.82643
 20
34.667329
 30
0.0
  0
POINT
  5
18A
  8
DEFPOINTS
  6
BYBLOCK
 62
     0
 10
323.52643
 20
34.652329
 30
0.0
  0
POINT
  5
18B
  8
DEFPOINTS
  6
BYBLOCK
 62
     0
 10
323.52643
 20
34.159609
 30
0.0
  0
ENDBLK
  5
18C
  8
0
  0
BLOCK
  8
0
  2
*D3
 70
     1
 10
0.0
 20
0.0
 30
0.0
  3
*D3
  1

  0
LINE
  5
190
  8
0
  6
BYBLOCK
 62
     0
 10
322.42643
 20
34.652329
 30
0.0
 11
322.42643
 21
33.820574
 31
0.0
  0
LINE
  5
191
  8
0
  6
BYBLOCK
 62
     0
 10
324.42643
 20
34.652329
 30
0.0
 11
324.42643
 21
33.820574
 31
0.0
  0
LINE
  5
192
  8
0
  6
BYBLOCK
 62
     0
 10
322.57643
 20
33.835574
 30
0.0
 11
324.27643
 21
33.835574
 31
0.0
  0
SOLID
  5
193
  8
0
  6
BYBLOCK
 62
     0
 10
322.57643
 20
33.860574
 30
0.0
 11
322.57643
 21
33.810574
 31
0.0
 12
322.42643
 22
33.835574
 32
0.0
 13
322.42643
 23
33.835574
 33
0.0
  0
SOLID
  5
194
  8
0
  6
BYBLOCK
 62
     0
 10
324.27643
 20
33.860574
 30
0.0
 11
324.27643
 21
33.810574
 31
0.0
 12
324.42643
 22
33.835574
 32
0.0
 13
324.42643
 23
33.835574
 33
0.0
  0
TEXT
  8
0
  40
0.075
  5
2D7
  62
0
  72
0
  71
0
 10
323.276
 20
33.7778
 30
0.000000
  1
2.00
  7
ROMANC
  0
POINT
  5
196
  8
DEFPOINTS
  6
BYBLOCK
 62
     0
 10
322.42643
 20
34.667329
 30
0.0
  0
POINT
  5
197
  8
DEFPOINTS
  6
BYBLOCK
 62
     0
 10
324.42643
 20
34.667329
 30
0.0
  0
POINT
  5
198
  8
DEFPOINTS
  6
BYBLOCK
 62
     0
 10
324.42643
 20
33.835574
 30
0.0
  0
ENDBLK
  5
199
  8
0
  0
BLOCK
  8
0
  2
*D4
 70
     1
 10
0.0
 20
0.0
 30
0.0
  3
*D4
  1

  0
LINE
  5
19D
  8
0
  6
BYBLOCK
 62
     0
 10
323.19143
 20
34.437329
 30
0.0
 11
324.825377
 21
34.437329
 31
0.0
  0
LINE
  5
19E
  8
0
  6
BYBLOCK
 62
     0
 10
323.54143
 20
34.667329
 30
0.0
 11
324.825377
 21
34.667329
 31
0.0
  0
LINE
  5
19F
  8
0
  6
BYBLOCK
 62
     0
 10
324.810377
 20
34.287329
 30
0.0
 11
324.810377
 21
34.137329
 31
0.0
  0
LINE
  5
1A0
  8
0
  6
BYBLOCK
 62
     0
 10
324.810377
 20
34.817329
 30
0.0
 11
324.810377
 21
34.967329
 31
0.0
  0
LINE
  5
1A1
  8
0
  6
BYBLOCK
 62
     0
 10
324.810377
 20
34.437329
 30
0.0
 11
324.810377
 21
34.667329
 31
0.0
  0
SOLID
  5
1A2
  8
0
  6
BYBLOCK
 62
     0
 10
324.785377
 20
34.287329
 30
0.0
 11
324.835377
 21
34.287329
 31
0.0
 12
324.810377
 22
34.437329
 32
0.0
 13
324.810377
 23
34.437329
 33
0.0
  0
SOLID
  5
1A3
  8
0
  6
BYBLOCK
 62
     0
 10
324.785377
 20
34.817329
 30
0.0
 11
324.835377
 21
34.817329
 31
0.0
 12
324.810377
 22
34.667329
 32
0.0
 13
324.810377
 23
34.667329
 33
0.0
  0
TEXT
  8
0
  40
0.075
  5
2D8
  62
0
  72
0
  71
0
 10
324.585
 20
34.4196
 30
0.000000
  1
0.23
  7
ROMANC
  0
POINT
  5
1A5
  8
DEFPOINTS
  6
BYBLOCK
 62
     0
 10
323.17643
 20
34.437329
 30
0.0
  0
POINT
  5
1A6
  8
DEFPOINTS
  6
BYBLOCK
 62
     0
 10
323.52643
 20
34.667329
 30
0.0
  0
POINT
  5
1A7
  8
DEFPOINTS
  6
BYBLOCK
 62
     0
 10
324.810377
 20
34.667329
 30
0.0
  0
ENDBLK
  5
1A8
  8
0
  0
BLOCK
  8
0
  2
*D5
 70
     1
 10
0.0
 20
0.0
 30
0.0
  3
*D5
  1

  0
LINE
  5
1AC
  8
0
  6
BYBLOCK
 62
     0
 10
324.44143
 20
35.717329
 30
0.0
 11
324.825377
 21
35.717329
 31
0.0
  0
LINE
  5
1AD
  8
0
  6
BYBLOCK
 62
     0
 10
324.44143
 20
34.667329
 30
0.0
 11
324.825377
 21
34.667329
 31
0.0
  0
LINE
  5
1AE
  8
0
  6
BYBLOCK
 62
     0
 10
324.810377
 20
35.567329
 30
0.0
 11
324.810377
 21
34.817329
 31
0.0
  0
SOLID
  5
1AF
  8
0
  6
BYBLOCK
 62
     0
 10
324.785377
 20
35.567329
 30
0.0
 11
324.835377
 21
35.567329
 31
0.0
 12
324.810377
 22
35.717329
 32
0.0
 13
324.810377
 23
35.717329
 33
0.0
  0
SOLID
  5
1B0
  8
0
  6
BYBLOCK
 62
     0
 10
324.785377
 20
34.817329
 30
0.0
 11
324.835377
 21
34.817329
 31
0.0
 12
324.810377
 22
34.667329
 32
0.0
 13
324.810377
 23
34.667329
 33
0.0
  0
TEXT
  8
0
  40
0.075
  5
2D9
  62
0
  72
0
  71
0
 10
324.585
 20
35.0596
 30
0.000000
  1
1.05
  7
ROMANC
  0
POINT
  5
1B2
  8
DEFPOINTS
  6
BYBLOCK
 62
     0
 10
324.42643
 20
35.717329
 30
0.0
  0
POINT
  5
1B3
  8
DEFPOINTS
  6
BYBLOCK
 62
     0
 10
324.42643
 20
34.667329
 30
0.0
  0
POINT
  5
1B4
  8
DEFPOINTS
  6
BYBLOCK
 62
     0
 10
324.810377
 20
34.667329
 30
0.0
  0
ENDBLK
  5
1B5
  8
0
  0
BLOCK
  8
0
  2
*D6
 70
     1
 10
0.0
 20
0.0
 30
0.0
  3
*D6
  1

  0
LINE
  5
1B9
  8
0
  6
BYBLOCK
 62
     0
 10
323.44143
 20
36.237329
 30
0.0
 11
324.825377
 21
36.237329
 31
0.0
  0
LINE
  5
1BA
  8
0
  6
BYBLOCK
 62
     0
 10
324.45643
 20
35.717329
 30
0.0
 11
324.825377
 21
35.717329
 31
0.0
  0
LINE
  5
1BB
  8
0
  6
BYBLOCK
 62
     0
 10
324.810377
 20
36.087329
 30
0.0
 11
324.810377
 21
35.867329
 31
0.0
  0
SOLID
  5
1BC
  8
0
  6
BYBLOCK
 62
     0
 10
324.785377
 20
36.087329
 30
0.0
 11
324.835377
 21
36.087329
 31
0.0
 12
324.810377
 22
36.237329
 32
0.0
 13
324.810377
 23
36.237329
 33
0.0
  0
SOLID
  5
1BD
  8
0
  6
BYBLOCK
 62
     0
 10
324.785377
 20
35.867329
 30
0.0
 11
324.835377
 21
35.867329
 31
0.0
 12
324.810377
 22
35.717329
 32
0.0
 13
324.810377
 23
35.717329
 33
0.0
  0
TEXT
  8
0
  40
0.075
  5
2DA
  62
0
  72
0
  71
0
 10
324.585
 20
35.8446
 30
0.000000
  1
0.52
  7
ROMANC
  0
POINT
  5
1BF
  8
DEFPOINTS
  6
BYBLOCK
 62
     0
 10
323.42643
 20
36.237329
 30
0.0
  0
POINT
  5
1C0
  8
DEFPOINTS
  6
BYBLOCK
 62
     0
 10
324.44143
 20
35.717329
 30
0.0
  0
POINT
  5
1C1
  8
DEFPOINTS
  6
BYBLOCK
 62
     0
 10
324.810377
 20
35.717329
 30
0.0
  0
ENDBLK
  5
1C2
  8
0
  0
BLOCK
  8
0
  2
*D7
 70
     1
 10
0.0
 20
0.0
 30
0.0
  3
*D7
  1

  0
LINE
  5
1C6
  8
0
  6
BYBLOCK
 62
     0
 10
323.44143
 20
36.237329
 30
0.0
 11
325.172811
 21
36.237329
 31
0.0
  0
LINE
  5
1C7
  8
0
  6
BYBLOCK
 62
     0
 10
323.19143
 20
34.437329
 30
0.0
 11
325.172811
 21
34.437329
 31
0.0
  0
LINE
  5
1C8
  8
0
  6
BYBLOCK
 62
     0
 10
325.157811
 20
36.087329
 30
0.0
 11
325.157811
 21
34.587329
 31
0.0
  0
SOLID
  5
1C9
  8
0
  6
BYBLOCK
 62
     0
 10
325.132811
 20
36.087329
 30
0.0
 11
325.182811
 21
36.087329
 31
0.0
 12
325.157811
 22
36.237329
 32
0.0
 13
325.157811
 23
36.237329
 33
0.0
  0
SOLID
  5
1CA
  8
0
  6
BYBLOCK
 62
     0
 10
325.132811
 20
34.587329
 30
0.0
 11
325.182811
 21
34.587329
 31
0.0
 12
325.157811
 22
34.437329
 32
0.0
 13
325.157811
 23
34.437329
 33
0.0
  0
TEXT
  8
0
  40
0.075
  5
2DB
  62
0
  72
0
  71
0
 10
324.933
 20
35.2046
 30
0.000000
  1
1.80
  7
ROMANC
  0
POINT
  5
1CC
  8
DEFPOINTS
  6
BYBLOCK
 62
     0
 10
323.42643
 20
36.237329
 30
0.0
  0
POINT
  5
1CD
  8
DEFPOINTS
  6
BYBLOCK
 62
     0
 10
323.17643
 20
34.437329
 30
0.0
  0
POINT
  5
1CE
  8
DEFPOINTS
  6
BYBLOCK
 62
     0
 10
325.157811
 20
34.437329
 30
0.0
  0
ENDBLK
  5
1CF
  8
0
  0
BLOCK
  8
0
  2
*D8
 70
     1
 10
0.0
 20
0.0
 30
0.0
  3
*D8
  1

  0
LINE
  5
1ED
  8
0
  6
BYBLOCK
 62
     0
 10
323.108781
 20
34.457147
 30
0.0
 11
323.108781
 21
33.907124
 31
0.0
  0
LINE
  5
1EE
  8
0
  6
BYBLOCK
 62
     0
 10
323.708781
 20
34.457147
 30
0.0
 11
323.708781
 21
33.907124
 31
0.0
  0
LINE
  5
1EF
  8
0
  6
BYBLOCK
 62
     0
 10
323.258781
 20
33.922124
 30
0.0
 11
323.558781
 21
33.922124
 31
0.0
  0
SOLID
  5
1F0
  8
0
  6
BYBLOCK
 62
     0
 10
323.258781
 20
33.947124
 30
0.0
 11
323.258781
 21
33.897124
 31
0.0
 12
323.108781
 22
33.922124
 32
0.0
 13
323.108781
 23
33.922124
 33
0.0
  0
SOLID
  5
1F1
  8
0
  6
BYBLOCK
 62
     0
 10
323.558781
 20
33.947124
 30
0.0
 11
323.558781
 21
33.897124
 31
0.0
 12
323.708781
 22
33.922124
 32
0.0
 13
323.708781
 23
33.922124
 33
0.0
  0
TEXT
  8
0
  40
0.075
  5
2DC
  62
0
  72
0
  71
0
 10
323.259
 20
33.8644
 30
0.000000
  1
0.60
  7
ROMANC
  0
POINT
  5
1F3
  8
DEFPOINTS
  6
BYBLOCK
 62
     0
 10
323.108781
 20
34.472147
 30
0.0
  0
POINT
  5
1F4
  8
DEFPOINTS
  6
BYBLOCK
 62
     0
 10
323.708781
 20
34.472147
 30
0.0
  0
POINT
  5
1F5
  8
DEFPOINTS
  6
BYBLOCK
 62
     0
 10
323.708781
 20
33.922124
 30
0.0
  0
ENDBLK
  5
1F6
  8
0
  0
BLOCK
  8
0
  2
*D9
 70
     1
 10
0.0
 20
0.0
 30
0.0
  3
*D9
  1

  0
LINE
  5
1FA
  8
0
  6
BYBLOCK
 62
     0
 10
322.778781
 20
34.457147
 30
0.0
 11
322.778781
 21
33.596119
 31
0.0
  0
LINE
  5
1FB
  8
0
  6
BYBLOCK
 62
     0
 10
324.038781
 20
34.457147
 30
0.0
 11
324.038781
 21
33.596119
 31
0.0
  0
LINE
  5
1FC
  8
0
  6
BYBLOCK
 62
     0
 10
322.928781
 20
33.611119
 30
0.0
 11
323.888781
 21
33.611119
 31
0.0
  0
SOLID
  5
1FD
  8
0
  6
BYBLOCK
 62
     0
 10
322.928781
 20
33.636119
 30
0.0
 11
322.928781
 21
33.586119
 31
0.0
 12
322.778781
 22
33.611119
 32
0.0
 13
322.778781
 23
33.611119
 33
0.0
  0
SOLID
  5
1FE
  8
0
  6
BYBLOCK
 62
     0
 10
323.888781
 20
33.636119
 30
0.0
 11
323.888781
 21
33.586119
 31
0.0
 12
324.038781
 22
33.611119
 32
0.0
 13
324.038781
 23
33.611119
 33
0.0
  0
TEXT
  8
0
  40
0.075
  5
2DD
  62
0
  72
0
  71
0
 10
323.259
 20
33.5534
 30
0.000000
  1
1.26
  7
ROMANC
  0
POINT
  5
200
  8
DEFPOINTS
  6
BYBLOCK
 62
     0
 10
322.778781
 20
34.472147
 30
0.0
  0
POINT
  5
201
  8
DEFPOINTS
  6
BYBLOCK
 62
     0
 10
324.038781
 20
34.472147
 30
0.0
  0
POINT
  5
202
  8
DEFPOINTS
  6
BYBLOCK
 62
     0
 10
324.038781
 20
33.611119
 30
0.0
  0
ENDBLK
  5
203
  8
0
  0
BLOCK
  8
0
  2
*D10
 70
     1
 10
0.0
 20
0.0
 30
0.0
  3
*D10
  1

  0
LINE
  5
207
  8
0
  6
BYBLOCK
 62
     0
 10
323.423781
 20
34.172147
 30
0.0
 11
324.406206
 21
34.172147
 31
0.0
  0
LINE
  5
208
  8
0
  6
BYBLOCK
 62
     0
 10
323.723781
 20
34.472147
 30
0.0
 11
324.406206
 21
34.472147
 31
0.0
  0
LINE
  5
209
  8
0
  6
BYBLOCK
 62
     0
 10
324.391206
 20
34.022147
 30
0.0
 11
324.391206
 21
33.872147
 31
0.0
  0
LINE
  5
20A
  8
0
  6
BYBLOCK
 62
     0
 10
324.391206
 20
34.622147
 30
0.0
 11
324.391206
 21
34.772147
 31
0.0
  0
LINE
  5
20B
  8
0
  6
BYBLOCK
 62
     0
 10
324.391206
 20
34.172147
 30
0.0
 11
324.391206
 21
34.472147
 31
0.0
  0
SOLID
  5
20C
  8
0
  6
BYBLOCK
 62
     0
 10
324.366206
 20
34.022147
 30
0.0
 11
324.416206
 21
34.022147
 31
0.0
 12
324.391206
 22
34.172147
 32
0.0
 13
324.391206
 23
34.172147
 33
0.0
  0
SOLID
  5
20D
  8
0
  6
BYBLOCK
 62
     0
 10
324.366206
 20
34.622147
 30
0.0
 11
324.416206
 21
34.622147
 31
0.0
 12
324.391206
 22
34.472147
 32
0.0
 13
324.391206
 23
34.472147
 33
0.0
  0
TEXT
  8
0
  40
0.075
  5
2DE
  62
0
  72
0
  71
0
 10
324.166
 20
34.1894
 30
0.000000
  1
0.30
  7
ROMANC
  0
POINT
  5
20F
  8
DEFPOINTS
  6
BYBLOCK
 62
     0
 10
323.408781
 20
34.172147
 30
0.0
  0
POINT
  5
210
  8
DEFPOINTS
  6
BYBLOCK
 62
     0
 10
323.708781
 20
34.472147
 30
0.0
  0
POINT
  5
211
  8
DEFPOINTS
  6
BYBLOCK
 62
     0
 10
324.391206
 20
34.472147
 30
0.0
  0
ENDBLK
  5
212
  8
0
  0
BLOCK
  8
0
  2
*D11
 70
     1
 10
0.0
 20
0.0
 30
0.0
  3
*D11
  1

  0
LINE
  5
216
  8
0
  6
BYBLOCK
 62
     0
 10
324.053781
 20
34.472147
 30
0.0
 11
324.406206
 21
34.472147
 31
0.0
  0
LINE
  5
217
  8
0
  6
BYBLOCK
 62
     0
 10
324.053781
 20
35.502147
 30
0.0
 11
324.406206
 21
35.502147
 31
0.0
  0
LINE
  5
218
  8
0
  6
BYBLOCK
 62
     0
 10
324.391206
 20
34.622147
 30
0.0
 11
324.391206
 21
35.352147
 31
0.0
  0
SOLID
  5
219
  8
0
  6
BYBLOCK
 62
     0
 10
324.366206
 20
34.622147
 30
0.0
 11
324.416206
 21
34.622147
 31
0.0
 12
324.391206
 22
34.472147
 32
0.0
 13
324.391206
 23
34.472147
 33
0.0
  0
SOLID
  5
21A
  8
0
  6
BYBLOCK
 62
     0
 10
324.366206
 20
35.352147
 30
0.0
 11
324.416206
 21
35.352147
 31
0.0
 12
324.391206
 22
35.502147
 32
0.0
 13
324.391206
 23
35.502147
 33
0.0
  0
TEXT
  8
0
  40
0.075
  5
2DF
  62
0
  72
0
  71
0
 10
324.166
 20
34.8544
 30
0.000000
  1
1.03
  7
ROMANC
  0
POINT
  5
21C
  8
DEFPOINTS
  6
BYBLOCK
 62
     0
 10
324.038781
 20
34.472147
 30
0.0
  0
POINT
  5
21D
  8
DEFPOINTS
  6
BYBLOCK
 62
     0
 10
324.038781
 20
35.502147
 30
0.0
  0
POINT
  5
21E
  8
DEFPOINTS
  6
BYBLOCK
 62
     0
 10
324.391206
 20
35.502147
 30
0.0
  0
ENDBLK
  5
21F
  8
0
  0
BLOCK
  8
0
  2
*D12
 70
     1
 10
0.0
 20
0.0
 30
0.0
  3
*D12
  1

  0
LINE
  5
223
  8
0
  6
BYBLOCK
 62
     0
 10
322.928781
 20
35.502147
 30
0.0
 11
323.888781
 21
35.502147
 31
0.0
  0
SOLID
  5
224
  8
0
  6
BYBLOCK
 62
     0
 10
322.928781
 20
35.527147
 30
0.0
 11
322.928781
 21
35.477147
 31
0.0
 12
322.778781
 22
35.502147
 32
0.0
 13
322.778781
 23
35.502147
 33
0.0
  0
SOLID
  5
225
  8
0
  6
BYBLOCK
 62
     0
 10
323.888781
 20
35.527147
 30
0.0
 11
323.888781
 21
35.477147
 31
0.0
 12
324.038781
 22
35.502147
 32
0.0
 13
324.038781
 23
35.502147
 33
0.0
  0
TEXT
  8
0
  40
0.075
  5
2E0
  62
0
  72
0
  71
0
 10
323.259
 20
35.4444
 30
0.000000
  1
1.26
  7
ROMANC
  0
POINT
  5
227
  8
DEFPOINTS
  6
BYBLOCK
 62
     0
 10
322.778781
 20
35.502147
 30
0.0
  0
POINT
  5
228
  8
DEFPOINTS
  6
BYBLOCK
 62
     0
 10
324.038781
 20
35.502147
 30
0.0
  0
POINT
  5
229
  8
DEFPOINTS
  6
BYBLOCK
 62
     0
 10
324.038781
 20
35.502147
 30
0.0
  0
ENDBLK
  5
22A
  8
0
  0
BLOCK
  8
0
  2
*D13
 70
     1
 10
0.0
 20
0.0
 30
0.0
  3
*D13
  1

  0
LINE
  5
22E
  8
0
  6
BYBLOCK
 62
     0
 10
323.308781
 20
35.867147
 30
0.0
 11
323.308781
 21
36.040977
 31
0.0
  0
LINE
  5
22F
  8
0
  6
BYBLOCK
 62
     0
 10
323.508781
 20
35.867147
 30
0.0
 11
323.508781
 21
36.040977
 31
0.0
  0
LINE
  5
230
  8
0
  6
BYBLOCK
 62
     0
 10
323.158781
 20
36.025977
 30
0.0
 11
323.008781
 21
36.025977
 31
0.0
  0
LINE
  5
231
  8
0
  6
BYBLOCK
 62
     0
 10
323.658781
 20
36.025977
 30
0.0
 11
323.808781
 21
36.025977
 31
0.0
  0
LINE
  5
232
  8
0
  6
BYBLOCK
 62
     0
 10
323.308781
 20
36.025977
 30
0.0
 11
323.508781
 21
36.025977
 31
0.0
  0
SOLID
  5
233
  8
0
  6
BYBLOCK
 62
     0
 10
323.158781
 20
36.050977
 30
0.0
 11
323.158781
 21
36.000977
 31
0.0
 12
323.308781
 22
36.025977
 32
0.0
 13
323.308781
 23
36.025977
 33
0.0
  0
SOLID
  5
234
  8
0
  6
BYBLOCK
 62
     0
 10
323.658781
 20
36.050977
 30
0.0
 11
323.658781
 21
36.000977
 31
0.0
 12
323.508781
 22
36.025977
 32
0.0
 13
323.508781
 23
36.025977
 33
0.0
  0
TEXT
  8
0
  40
0.075
  5
2E1
  62
0
  72
0
  71
0
 10
323.259
 20
35.9682
 30
0.000000
  1
0.20
  7
ROMANC
  0
POINT
  5
236
  8
DEFPOINTS
  6
BYBLOCK
 62
     0
 10
323.308781
 20
35.852147
 30
0.0
  0
POINT
  5
237
  8
DEFPOINTS
  6
BYBLOCK
 62
     0
 10
323.508781
 20
35.852147
 30
0.0
  0
POINT
  5
238
  8
DEFPOINTS
  6
BYBLOCK
 62
     0
 10
323.508781
 20
36.025977
 30
0.0
  0
ENDBLK
  5
239
  8
0
  0
BLOCK
  8
0
  2
*D14
 70
     1
 10
0.0
 20
0.0
 30
0.0
  3
*D14
  1

  0
LINE
  5
23D
  8
0
  6
BYBLOCK
 62
     0
 10
323.523781
 20
35.852147
 30
0.0
 11
324.760123
 21
35.852147
 31
0.0
  0
LINE
  5
23E
  8
0
  6
BYBLOCK
 62
     0
 10
323.423781
 20
34.172147
 30
0.0
 11
324.760123
 21
34.172147
 31
0.0
  0
LINE
  5
23F
  8
0
  6
BYBLOCK
 62
     0
 10
324.745123
 20
35.702147
 30
0.0
 11
324.745123
 21
34.322147
 31
0.0
  0
SOLID
  5
240
  8
0
  6
BYBLOCK
 62
     0
 10
324.720123
 20
35.702147
 30
0.0
 11
324.770123
 21
35.702147
 31
0.0
 12
324.745123
 22
35.852147
 32
0.0
 13
324.745123
 23
35.852147
 33
0.0
  0
SOLID
  5
241
  8
0
  6
BYBLOCK
 62
     0
 10
324.720123
 20
34.322147
 30
0.0
 11
324.770123
 21
34.322147
 31
0.0
 12
324.745123
 22
34.172147
 32
0.0
 13
324.745123
 23
34.172147
 33
0.0
  0
TEXT
  8
0
  40
0.075
  5
2E2
  62
0
  72
0
  71
0
 10
324.520
 20
34.8794
 30
0.000000
  1
1.68
  7
ROMANC
  0
POINT
  5
243
  8
DEFPOINTS
  6
BYBLOCK
 62
     0
 10
323.508781
 20
35.852147
 30
0.0
  0
POINT
  5
244
  8
DEFPOINTS
  6
BYBLOCK
 62
     0
 10
323.408781
 20
34.172147
 30
0.0
  0
POINT
  5
245
  8
DEFPOINTS
  6
BYBLOCK
 62
     0
 10
324.745123
 20
34.172147
 30
0.0
  0
ENDBLK
  5
246
  8
0
  0
BLOCK
  8
0
  2
*D15
 70
     1
 10
0.0
 20
0.0
 30
0.0
  3
*D15
  1

  0
LINE
  5
24A
  8
0
  6
BYBLOCK
 62
     0
 10
323.517047
 20
35.864664
 30
0.0
 11
323.593175
 21
35.979944
 31
0.0
  0
LINE
  5
24B
  8
0
  6
BYBLOCK
 62
     0
 10
324.047047
 20
35.514664
 30
0.0
 11
324.123175
 21
35.629944
 31
0.0
  0
LINE
  5
24C
  8
0
  6
BYBLOCK
 62
     0
 10
323.710079
 20
35.884767
 30
0.0
 11
323.98974
 21
35.700086
 31
0.0
  0
SOLID
  5
24D
  8
0
  6
BYBLOCK
 62
     0
 10
323.723856
 20
35.905629
 30
0.0
 11
323.696303
 21
35.863906
 31
0.0
 12
323.584909
 22
35.967427
 32
0.0
 13
323.584909
 23
35.967427
 33
0.0
  0
SOLID
  5
24E
  8
0
  6
BYBLOCK
 62
     0
 10
324.003516
 20
35.720947
 30
0.0
 11
323.975963
 21
35.679224
 31
0.0
 12
324.114909
 22
35.617427
 32
0.0
 13
324.114909
 23
35.617427
 33
0.0
  0
TEXT
  8
0
  40
0.075
  5
2E3
  62
0
  72
0
  71
0
 10
323.741
 20
35.7223
 30
0.000000
  1
0.64
  7
ROMANC
  0
POINT
  5
250
  8
DEFPOINTS
  6
BYBLOCK
 62
     0
 10
323.508781
 20
35.852147
 30
0.0
  0
POINT
  5
251
  8
DEFPOINTS
  6
BYBLOCK
 62
     0
 10
324.038781
 20
35.502147
 30
0.0
  0
POINT
  5
252
  8
DEFPOINTS
  6
BYBLOCK
 62
     0
 10
324.114909
 20
35.617427
 30
0.0
  0
ENDBLK
  5
253
  8
0
  0
BLOCK
  8
0
  2
*D16
 70
     1
 10
0.0
 20
0.0
 30
0.0
  3
*D16
  1

  0
LINE
  5
257
  8
0
  6
BYBLOCK
 62
     0
 10
323.300515
 20
35.864664
 30
0.0
 11
323.224141
 21
35.980317
 31
0.0
  0
LINE
  5
258
  8
0
  6
BYBLOCK
 62
     0
 10
322.770515
 20
35.514664
 30
0.0
 11
322.694141
 21
35.630317
 31
0.0
  0
LINE
  5
259
  8
0
  6
BYBLOCK
 62
     0
 10
323.107237
 20
35.885141
 30
0.0
 11
322.827576
 21
35.700459
 31
0.0
  0
SOLID
  5
25A
  8
0
  6
BYBLOCK
 62
     0
 10
323.09346
 20
35.906003
 30
0.0
 11
323.121013
 21
35.864279
 31
0.0
 12
323.232406
 22
35.9678
 32
0.0
 13
323.232406
 23
35.9678
 33
0.0
  0
SOLID
  5
25B
  8
0
  6
BYBLOCK
 62
     0
 10
322.8138
 20
35.721321
 30
0.0
 11
322.841353
 21
35.679598
 31
0.0
 12
322.702406
 22
35.6178
 32
0.0
 13
322.702406
 23
35.6178
 33
0.0
  0
TEXT
  8
0
  40
0.075
  5
2E4
  62
0
  72
0
  71
0
 10
322.776
 20
35.7226
 30
0.000000
  1
0.64
  7
ROMANC
  0
POINT
  5
25D
  8
DEFPOINTS
  6
BYBLOCK
 62
     0
 10
323.308781
 20
35.852147
 30
0.0
  0
POINT
  5
25E
  8
DEFPOINTS
  6
BYBLOCK
 62
     0
 10
322.778781
 20
35.502147
 30
0.0
  0
POINT
  5
25F
  8
DEFPOINTS
  6
BYBLOCK
 62
     0
 10
322.702406
 20
35.6178
 30
0.0
  0
ENDBLK
  5
260
  8
0
  0
ENDSEC
  0
SECTION
  2
ENTITIES
  0
LINE
  5
27
  8
0
 10
329.348696
 20
29.863623
 30
0.0
 11
329.348696
 21
44.713623
 31
0.0
  0
LINE
  5
28
  8
0
 10
318.848696
 20
44.713623
 30
0.0
 11
318.848696
 21
29.863623
 31
0.0
  0
LINE
  5
29
  8
0
 10
318.848696
 20
29.863623
 30
0.0
 11
329.348696
 21
29.863623
 31
0.0
  0
TEXT
  5
2A
  8
0
 10
321.773149
 20
42.309482
 30
0.0
 40
0.3
  1
TIPUS   NT169B
  7
ROMANC
  0
TEXT
  5
2D
  8
0
 10
321.735227
 20
40.527599
 30
0.0
 40
0.3
  1
P = 51,3 dm
  7
ROMANC
  0
TEXT
  5
2E
  8
0
 10
321.786243
 20
41.225178
 30
0.0
 40
0.3
  1
S = 169 dm
  7
ROMANC
  0
TEXT
  5
2F
  8
0
 10
321.773149
 20
41.823768
 30
0.0
 40
0.3
  1
ESCALA  1:50
  7
ROMANC
  0
TEXT
  5
30
  8
0
 10
324.991178
 20
41.531094
 30
0.0
 40
0.1
  1
2
  7
ROMANC
  0
LINE
  5
31
  8
0
 10
329.348696
 20
44.713623
 30
0.0
 11
318.848696
 21
44.713623
 31
0.0
  0
LINE
  5
268
  8
0
 10
324.053781
 20
34.457147
 30
0.0
 11
324.053781
 21
35.510217
 31
0.0
  0
LINE
  5
269
  8
0
 10
324.053781
 20
35.510217
 30
0.0
 11
323.513287
 21
35.867147
 31
0.0
  0
LINE
  5
26A
  8
0
 10
323.513287
 20
35.867147
 30
0.0
 11
323.304275
 21
35.867147
 31
0.0
  0
LINE
  5
26B
  8
0
 10
323.304275
 20
35.867147
 30
0.0
 11
322.763781
 21
35.510217
 31
0.0
  0
LINE
  5
26C
  8
0
 10
322.763781
 20
35.510217
 30
0.0
 11
322.763781
 21
34.457147
 31
0.0
  0
LINE
  5
26D
  8
0
 10
322.763781
 20
34.457147
 30
0.0
 11
323.094139
 21
34.457147
 31
0.0
  0
ARC
  5
26E
  8
0
 10
323.408781
 20
34.472147
 30
0.0
 40
0.315
 50
182.729403
 51
357.270597
  0
LINE
  5
26F
  8
0
 10
323.723424
 20
34.457147
 30
0.0
 11
324.053781
 21
34.457147
 31
0.0
  0
LINE
  5
270
  8
0
 10
324.046281
 20
34.464647
 30
0.0
 11
324.046281
 21
35.506182
 31
0.0
  0
LINE
  5
271
  8
0
 10
324.046281
 20
35.506182
 30
0.0
 11
323.511034
 21
35.859647
 31
0.0
  0
LINE
  5
272
  8
0
 10
323.511034
 20
35.859647
 30
0.0
 11
323.306528
 21
35.859647
 31
0.0
  0
LINE
  5
273
  8
0
 10
323.306528
 20
35.859647
 30
0.0
 11
322.771281
 21
35.506182
 31
0.0
  0
LINE
  5
274
  8
0
 10
322.771281
 20
35.506182
 30
0.0
 11
322.771281
 21
34.464647
 31
0.0
  0
LINE
  5
275
  8
0
 10
322.771281
 20
34.464647
 30
0.0
 11
323.101373
 21
34.464647
 31
0.0
  0
ARC
  5
276
  8
0
 10
323.408781
 20
34.472147
 30
0.0
 40
0.3075
 50
181.397597
 51
358.602403
  0
LINE
  5
277
  8
0
 10
323.71619
 20
34.464647
 30
0.0
 11
324.046281
 21
34.464647
 31
0.0
  0
LINE
  5
278
  8
0
 10
324.038781
 20
34.472147
 30
0.0
 11
324.038781
 21
35.502147
 31
0.0
  0
LINE
  5
279
  8
0
 10
324.038781
 20
35.502147
 30
0.0
 11
323.508781
 21
35.852147
 31
0.0
  0
LINE
  5
27A
  8
0
 10
323.508781
 20
35.852147
 30
0.0
 11
323.308781
 21
35.852147
 31
0.0
  0
LINE
  5
27B
  8
0
 10
323.308781
 20
35.852147
 30
0.0
 11
322.778781
 21
35.502147
 31
0.0
  0
LINE
  5
27C
  8
0
 10
322.778781
 20
35.502147
 30
0.0
 11
322.778781
 21
34.472147
 31
0.0
  0
LINE
  5
27D
  8
0
 10
322.778781
 20
34.472147
 30
0.0
 11
323.108781
 21
34.472147
 31
0.0
  0
ARC
  5
27E
  8
0
 10
323.408781
 20
34.472147
 30
0.0
 40
0.3
 50
180.0
 51
0.0
  0
LINE
  5
27F
  8
0
 10
323.708781
 20
34.472147
 30
0.0
 11
324.038781
 21
34.472147
 31
0.0
  0
LINE
  5
280
  8
0
  6
BYBLOCK
 62
     0
 10
323.300515
 20
35.864664
 30
0.0
 11
323.224141
 21
35.980317
 31
0.0
  0
LINE
  5
281
  8
0
  6
BYBLOCK
 62
     0
 10
322.770515
 20
35.514664
 30
0.0
 11
322.694141
 21
35.630317
 31
0.0
  0
LINE
  5
282
  8
0
  6
BYBLOCK
 62
     0
 10
323.107237
 20
35.885141
 30
0.0
 11
322.827576
 21
35.700459
 31
0.0
  0
SOLID
  5
283
  8
0
  6
BYBLOCK
 62
     0
 10
323.09346
 20
35.906003
 30
0.0
 11
323.121013
 21
35.864279
 31
0.0
 12
323.232406
 22
35.9678
 32
0.0
 13
323.232406
 23
35.9678
 33
0.0
  0
SOLID
  5
284
  8
0
  6
BYBLOCK
 62
     0
 10
322.8138
 20
35.721321
 30
0.0
 11
322.841353
 21
35.679598
 31
0.0
 12
322.702406
 22
35.6178
 32
0.0
 13
322.702406
 23
35.6178
 33
0.0
  0
TEXT
  8
0
  40
0.075
  5
2E5
  62
0
  72
0
  71
0
 10
322.776
 20
35.7226
 30
0.000000
  1
0.64
  7
ROMANC
  0
POINT
  5
286
  8
DEFPOINTS
  6
BYBLOCK
 62
     0
 10
323.308781
 20
35.852147
 30
0.0
  0
POINT
  5
287
  8
DEFPOINTS
  6
BYBLOCK
 62
     0
 10
322.778781
 20
35.502147
 30
0.0
  0
POINT
  5
288
  8
DEFPOINTS
  6
BYBLOCK
 62
     0
 10
322.702406
 20
35.6178
 30
0.0
  0
LINE
  5
289
  8
0
  6
BYBLOCK
 62
     0
 10
323.517047
 20
35.864664
 30
0.0
 11
323.593175
 21
35.979944
 31
0.0
  0
LINE
  5
28A
  8
0
  6
BYBLOCK
 62
     0
 10
324.047047
 20
35.514664
 30
0.0
 11
324.123175
 21
35.629944
 31
0.0
  0
LINE
  5
28B
  8
0
  6
BYBLOCK
 62
     0
 10
323.710079
 20
35.884767
 30
0.0
 11
323.98974
 21
35.700086
 31
0.0
  0
SOLID
  5
28C
  8
0
  6
BYBLOCK
 62
     0
 10
323.723856
 20
35.905629
 30
0.0
 11
323.696303
 21
35.863906
 31
0.0
 12
323.584909
 22
35.967427
 32
0.0
 13
323.584909
 23
35.967427
 33
0.0
  0
SOLID
  5
28D
  8
0
  6
BYBLOCK
 62
     0
 10
324.003516
 20
35.720947
 30
0.0
 11
323.975963
 21
35.679224
 31
0.0
 12
324.114909
 22
35.617427
 32
0.0
 13
324.114909
 23
35.617427
 33
0.0
  0
TEXT
  8
0
  40
0.075
  5
2E6
  62
0
  72
0
  71
0
 10
323.741
 20
35.7223
 30
0.000000
  1
0.64
  7
ROMANC
  0
POINT
  5
28F
  8
DEFPOINTS
  6
BYBLOCK
 62
     0
 10
323.508781
 20
35.852147
 30
0.0
  0
POINT
  5
290
  8
DEFPOINTS
  6
BYBLOCK
 62
     0
 10
324.038781
 20
35.502147
 30
0.0
  0
POINT
  5
291
  8
DEFPOINTS
  6
BYBLOCK
 62
     0
 10
324.114909
 20
35.617427
 30
0.0
  0
LINE
  5
292
  8
0
  6
BYBLOCK
 62
     0
 10
323.523781
 20
35.852147
 30
0.0
 11
324.760123
 21
35.852147
 31
0.0
  0
LINE
  5
293
  8
0
  6
BYBLOCK
 62
     0
 10
323.423781
 20
34.172147
 30
0.0
 11
324.760123
 21
34.172147
 31
0.0
  0
LINE
  5
294
  8
0
  6
BYBLOCK
 62
     0
 10
324.745123
 20
35.702147
 30
0.0
 11
324.745123
 21
34.322147
 31
0.0
  0
SOLID
  5
295
  8
0
  6
BYBLOCK
 62
     0
 10
324.720123
 20
35.702147
 30
0.0
 11
324.770123
 21
35.702147
 31
0.0
 12
324.745123
 22
35.852147
 32
0.0
 13
324.745123
 23
35.852147
 33
0.0
  0
SOLID
  5
296
  8
0
  6
BYBLOCK
 62
     0
 10
324.720123
 20
34.322147
 30
0.0
 11
324.770123
 21
34.322147
 31
0.0
 12
324.745123
 22
34.172147
 32
0.0
 13
324.745123
 23
34.172147
 33
0.0
  0
TEXT
  8
0
  40
0.075
  5
2E7
  62
0
  72
0
  71
0
 10
324.520
 20
34.8794
 30
0.000000
  1
1.68
  7
ROMANC
  0
POINT
  5
298
  8
DEFPOINTS
  6
BYBLOCK
 62
     0
 10
323.508781
 20
35.852147
 30
0.0
  0
POINT
  5
299
  8
DEFPOINTS
  6
BYBLOCK
 62
     0
 10
323.408781
 20
34.172147
 30
0.0
  0
POINT
  5
29A
  8
DEFPOINTS
  6
BYBLOCK
 62
     0
 10
324.745123
 20
34.172147
 30
0.0
  0
LINE
  5
29B
  8
0
  6
BYBLOCK
 62
     0
 10
323.308781
 20
35.867147
 30
0.0
 11
323.308781
 21
36.040977
 31
0.0
  0
LINE
  5
29C
  8
0
  6
BYBLOCK
 62
     0
 10
323.508781
 20
35.867147
 30
0.0
 11
323.508781
 21
36.040977
 31
0.0
  0
LINE
  5
29D
  8
0
  6
BYBLOCK
 62
     0
 10
323.158781
 20
36.025977
 30
0.0
 11
323.008781
 21
36.025977
 31
0.0
  0
LINE
  5
29E
  8
0
  6
BYBLOCK
 62
     0
 10
323.658781
 20
36.025977
 30
0.0
 11
323.808781
 21
36.025977
 31
0.0
  0
LINE
  5
29F
  8
0
  6
BYBLOCK
 62
     0
 10
323.308781
 20
36.025977
 30
0.0
 11
323.508781
 21
36.025977
 31
0.0
  0
SOLID
  5
2A0
  8
0
  6
BYBLOCK
 62
     0
 10
323.158781
 20
36.050977
 30
0.0
 11
323.158781
 21
36.000977
 31
0.0
 12
323.308781
 22
36.025977
 32
0.0
 13
323.308781
 23
36.025977
 33
0.0
  0
SOLID
  5
2A1
  8
0
  6
BYBLOCK
 62
     0
 10
323.658781
 20
36.050977
 30
0.0
 11
323.658781
 21
36.000977
 31
0.0
 12
323.508781
 22
36.025977
 32
0.0
 13
323.508781
 23
36.025977
 33
0.0
  0
TEXT
  8
0
  40
0.075
  5
2E8
  62
0
  72
0
  71
0
 10
323.259
 20
35.9682
 30
0.000000
  1
0.20
  7
ROMANC
  0
POINT
  5
2A3
  8
DEFPOINTS
  6
BYBLOCK
 62
     0
 10
323.308781
 20
35.852147
 30
0.0
  0
POINT
  5
2A4
  8
DEFPOINTS
  6
BYBLOCK
 62
     0
 10
323.508781
 20
35.852147
 30
0.0
  0
POINT
  5
2A5
  8
DEFPOINTS
  6
BYBLOCK
 62
     0
 10
323.508781
 20
36.025977
 30
0.0
  0
LINE
  5
2A6
  8
0
  6
BYBLOCK
 62
     0
 10
322.928781
 20
35.502147
 30
0.0
 11
323.888781
 21
35.502147
 31
0.0
  0
SOLID
  5
2A7
  8
0
  6
BYBLOCK
 62
     0
 10
322.928781
 20
35.527147
 30
0.0
 11
322.928781
 21
35.477147
 31
0.0
 12
322.778781
 22
35.502147
 32
0.0
 13
322.778781
 23
35.502147
 33
0.0
  0
SOLID
  5
2A8
  8
0
  6
BYBLOCK
 62
     0
 10
323.888781
 20
35.527147
 30
0.0
 11
323.888781
 21
35.477147
 31
0.0
 12
324.038781
 22
35.502147
 32
0.0
 13
324.038781
 23
35.502147
 33
0.0
  0
TEXT
  8
0
  40
0.075
  5
2E9
  62
0
  72
0
  71
0
 10
323.259
 20
35.4444
 30
0.000000
  1
1.26
  7
ROMANC
  0
POINT
  5
2AA
  8
DEFPOINTS
  6
BYBLOCK
 62
     0
 10
322.778781
 20
35.502147
 30
0.0
  0
POINT
  5
2AB
  8
DEFPOINTS
  6
BYBLOCK
 62
     0
 10
324.038781
 20
35.502147
 30
0.0
  0
POINT
  5
2AC
  8
DEFPOINTS
  6
BYBLOCK
 62
     0
 10
324.038781
 20
35.502147
 30
0.0
  0
LINE
  5
2AD
  8
0
  6
BYBLOCK
 62
     0
 10
324.053781
 20
34.472147
 30
0.0
 11
324.406206
 21
34.472147
 31
0.0
  0
LINE
  5
2AE
  8
0
  6
BYBLOCK
 62
     0
 10
324.053781
 20
35.502147
 30
0.0
 11
324.406206
 21
35.502147
 31
0.0
  0
LINE
  5
2AF
  8
0
  6
BYBLOCK
 62
     0
 10
324.391206
 20
34.622147
 30
0.0
 11
324.391206
 21
35.352147
 31
0.0
  0
SOLID
  5
2B0
  8
0
  6
BYBLOCK
 62
     0
 10
324.366206
 20
34.622147
 30
0.0
 11
324.416206
 21
34.622147
 31
0.0
 12
324.391206
 22
34.472147
 32
0.0
 13
324.391206
 23
34.472147
 33
0.0
  0
SOLID
  5
2B1
  8
0
  6
BYBLOCK
 62
     0
 10
324.366206
 20
35.352147
 30
0.0
 11
324.416206
 21
35.352147
 31
0.0
 12
324.391206
 22
35.502147
 32
0.0
 13
324.391206
 23
35.502147
 33
0.0
  0
TEXT
  8
0
  40
0.075
  5
2EA
  62
0
  72
0
  71
0
 10
324.166
 20
34.8544
 30
0.000000
  1
1.03
  7
ROMANC
  0
POINT
  5
2B3
  8
DEFPOINTS
  6
BYBLOCK
 62
     0
 10
324.038781
 20
34.472147
 30
0.0
  0
POINT
  5
2B4
  8
DEFPOINTS
  6
BYBLOCK
 62
     0
 10
324.038781
 20
35.502147
 30
0.0
  0
POINT
  5
2B5
  8
DEFPOINTS
  6
BYBLOCK
 62
     0
 10
324.391206
 20
35.502147
 30
0.0
  0
LINE
  5
2B6
  8
0
  6
BYBLOCK
 62
     0
 10
323.423781
 20
34.172147
 30
0.0
 11
324.406206
 21
34.172147
 31
0.0
  0
LINE
  5
2B7
  8
0
  6
BYBLOCK
 62
     0
 10
323.723781
 20
34.472147
 30
0.0
 11
324.406206
 21
34.472147
 31
0.0
  0
LINE
  5
2B8
  8
0
  6
BYBLOCK
 62
     0
 10
324.391206
 20
34.022147
 30
0.0
 11
324.391206
 21
33.872147
 31
0.0
  0
LINE
  5
2B9
  8
0
  6
BYBLOCK
 62
     0
 10
324.391206
 20
34.622147
 30
0.0
 11
324.391206
 21
34.772147
 31
0.0
  0
LINE
  5
2BA
  8
0
  6
BYBLOCK
 62
     0
 10
324.391206
 20
34.172147
 30
0.0
 11
324.391206
 21
34.472147
 31
0.0
  0
SOLID
  5
2BB
  8
0
  6
BYBLOCK
 62
     0
 10
324.366206
 20
34.022147
 30
0.0
 11
324.416206
 21
34.022147
 31
0.0
 12
324.391206
 22
34.172147
 32
0.0
 13
324.391206
 23
34.172147
 33
0.0
  0
SOLID
  5
2BC
  8
0
  6
BYBLOCK
 62
     0
 10
324.366206
 20
34.622147
 30
0.0
 11
324.416206
 21
34.622147
 31
0.0
 12
324.391206
 22
34.472147
 32
0.0
 13
324.391206
 23
34.472147
 33
0.0
  0
TEXT
  8
0
  40
0.075
  5
2EB
  62
0
  72
0
  71
0
 10
324.166
 20
34.1894
 30
0.000000
  1
0.30
  7
ROMANC
  0
POINT
  5
2BE
  8
DEFPOINTS
  6
BYBLOCK
 62
     0
 10
323.408781
 20
34.172147
 30
0.0
  0
POINT
  5
2BF
  8
DEFPOINTS
  6
BYBLOCK
 62
     0
 10
323.708781
 20
34.472147
 30
0.0
  0
POINT
  5
2C0
  8
DEFPOINTS
  6
BYBLOCK
 62
     0
 10
324.391206
 20
34.472147
 30
0.0
  0
LINE
  5
2C1
  8
0
  6
BYBLOCK
 62
     0
 10
322.778781
 20
34.457147
 30
0.0
 11
322.778781
 21
33.596119
 31
0.0
  0
LINE
  5
2C2
  8
0
  6
BYBLOCK
 62
     0
 10
324.038781
 20
34.457147
 30
0.0
 11
324.038781
 21
33.596119
 31
0.0
  0
LINE
  5
2C3
  8
0
  6
BYBLOCK
 62
     0
 10
322.928781
 20
33.611119
 30
0.0
 11
323.888781
 21
33.611119
 31
0.0
  0
SOLID
  5
2C4
  8
0
  6
BYBLOCK
 62
     0
 10
322.928781
 20
33.636119
 30
0.0
 11
322.928781
 21
33.586119
 31
0.0
 12
322.778781
 22
33.611119
 32
0.0
 13
322.778781
 23
33.611119
 33
0.0
  0
SOLID
  5
2C5
  8
0
  6
BYBLOCK
 62
     0
 10
323.888781
 20
33.636119
 30
0.0
 11
323.888781
 21
33.586119
 31
0.0
 12
324.038781
 22
33.611119
 32
0.0
 13
324.038781
 23
33.611119
 33
0.0
  0
TEXT
  8
0
  40
0.075
  5
2EC
  62
0
  72
0
  71
0
 10
323.259
 20
33.5534
 30
0.000000
  1
1.26
  7
ROMANC
  0
POINT
  5
2C7
  8
DEFPOINTS
  6
BYBLOCK
 62
     0
 10
322.778781
 20
34.472147
 30
0.0
  0
POINT
  5
2C8
  8
DEFPOINTS
  6
BYBLOCK
 62
     0
 10
324.038781
 20
34.472147
 30
0.0
  0
POINT
  5
2C9
  8
DEFPOINTS
  6
BYBLOCK
 62
     0
 10
324.038781
 20
33.611119
 30
0.0
  0
LINE
  5
2CA
  8
0
  6
BYBLOCK
 62
     0
 10
323.108781
 20
34.457147
 30
0.0
 11
323.108781
 21
33.907124
 31
0.0
  0
LINE
  5
2CB
  8
0
  6
BYBLOCK
 62
     0
 10
323.708781
 20
34.457147
 30
0.0
 11
323.708781
 21
33.907124
 31
0.0
  0
LINE
  5
2CC
  8
0
  6
BYBLOCK
 62
     0
 10
323.258781
 20
33.922124
 30
0.0
 11
323.558781
 21
33.922124
 31
0.0
  0
SOLID
  5
2CD
  8
0
  6
BYBLOCK
 62
     0
 10
323.258781
 20
33.947124
 30
0.0
 11
323.258781
 21
33.897124
 31
0.0
 12
323.108781
 22
33.922124
 32
0.0
 13
323.108781
 23
33.922124
 33
0.0
  0
SOLID
  5
2CE
  8
0
  6
BYBLOCK
 62
     0
 10
323.558781
 20
33.947124
 30
0.0
 11
323.558781
 21
33.897124
 31
0.0
 12
323.708781
 22
33.922124
 32
0.0
 13
323.708781
 23
33.922124
 33
0.0
  0
TEXT
  8
0
  40
0.075
  5
2ED
  62
0
  72
0
  71
0
 10
323.259
 20
33.8644
 30
0.000000
  1
0.60
  7
ROMANC
  0
POINT
  5
2D0
  8
DEFPOINTS
  6
BYBLOCK
 62
     0
 10
323.108781
 20
34.472147
 30
0.0
  0
POINT
  5
2D1
  8
DEFPOINTS
  6
BYBLOCK
 62
     0
 10
323.708781
 20
34.472147
 30
0.0
  0
POINT
  5
2D2
  8
DEFPOINTS
  6
BYBLOCK
 62
     0
 10
323.708781
 20
33.922124
 30
0.0
  0
ENDSEC
  0
EOF
