  0
SECTION
  2
HEADER
  9
$ACADVER
  1
AC1009
  9
$INSBASE
 10
81.197683
 20
-20.73031
 30
0.0
  9
$EXTMIN
 10
-3.35
 20
-34.354564
 30
0.0
  9
$EXTMAX
 10
478.171683
 20
96.450756
 30
0.0
  9
$LIMMIN
 10
0.0
 20
0.0
  9
$LIMMAX
 10
410.0
 20
287.0
  9
$ORTHOMODE
 70
     0
  9
$REGENMODE
 70
     1
  9
$FILLMODE
 70
     1
  9
$QTEXTMODE
 70
     0
  9
$MIRRTEXT
 70
     1
  9
$DRAGMODE
 70
     2
  9
$LTSCALE
 40
25.0
  9
$OSMODE
 70
    32
  9
$ATTMODE
 70
     1
  9
$TEXTSIZE
 40
0.1
  9
$TRACEWID
 40
1.0
  9
$TEXTSTYLE
  7
ROMANC
  9
$CLAYER
  8
0
  9
$CELTYPE
  6
BYLAYER
  9
$CECOLOR
 62
   256
  9
$DIMSCALE
 40
0.0
  9
$DIMASZ
 40
0.0
  9
$DIMEXO
 40
0.1
  9
$DIMDLI
 40
7.0
  9
$DIMRND
 40
0.0
  9
$DIMDLE
 40
0.0
  9
$DIMEXE
 40
1.8
  9
$DIMTP
 40
0.0
  9
$DIMTM
 40
0.0
  9
$DIMTXT
 40
0.03
  9
$DIMCEN
 40
1.5
  9
$DIMTSZ
 40
1.0
  9
$DIMTOL
 70
     0
  9
$DIMLIM
 70
     0
  9
$DIMTIH
 70
     0
  9
$DIMTOH
 70
     0
  9
$DIMSE1
 70
     0
  9
$DIMSE2
 70
     0
  9
$DIMTAD
 70
     0
  9
$DIMZIN
 70
     0
  9
$DIMBLK
  1

  9
$DIMASO
 70
     1
  9
$DIMSHO
 70
     0
  9
$DIMPOST
  1

  9
$DIMAPOST
  1

  9
$DIMALT
 70
     0
  9
$DIMALTD
 70
     2
  9
$DIMALTF
 40
25.4
  9
$DIMLFAC
 40
1.0
  9
$DIMTOFL
 70
     1
  9
$DIMTVP
 40
0.0
  9
$DIMTIX
 70
     1
  9
$DIMSOXD
 70
     0
  9
$DIMSAH
 70
     0
  9
$DIMBLK1
  1

  9
$DIMBLK2
  1

  9
$DIMSTYLE
  2
*UNNAMED
  9
$DIMCLRD
 70
     0
  9
$DIMCLRE
 70
     0
  9
$DIMCLRT
 70
     0
  9
$DIMTFAC
 40
116.666667
  9
$DIMGAP
 40
0.09
  9
$LUNITS
 70
     2
  9
$LUPREC
 70
     2
  9
$SKETCHINC
 40
1.0
  9
$FILLETRAD
 40
0.0
  9
$AUNITS
 70
     0
  9
$AUPREC
 70
     0
  9
$MENU
  1
acad
  9
$ELEVATION
 40
0.0
  9
$PELEVATION
 40
0.0
  9
$THICKNESS
 40
0.0
  9
$LIMCHECK
 70
     0
  9
$BLIPMODE
 70
     0
  9
$CHAMFERA
 40
0.0
  9
$CHAMFERB
 40
0.0
  9
$SKPOLY
 70
     0
  9
$TDCREATE
 40
2449967.650870255
  9
$TDUPDATE
 40
2449967.650870255
  9
$TDINDWG
 40
0.0000000000
  9
$TDUSRTIMER
 40
0.0000000000
  9
$USRTIMER
 70
     1
  9
$ANGBASE
 50
0.0
  9
$ANGDIR
 70
     0
  9
$PDMODE
 70
     0
  9
$PDSIZE
 40
0.0
  9
$PLINEWID
 40
0.0
  9
$COORDS
 70
     0
  9
$SPLFRAME
 70
     0
  9
$SPLINETYPE
 70
     6
  9
$SPLINESEGS
 70
     8
  9
$ATTDIA
 70
     0
  9
$ATTREQ
 70
     1
  9
$HANDLING
 70
     0
  9
$HANDSEED
  5
0
  9
$SURFTAB1
 70
     6
  9
$SURFTAB2
 70
     6
  9
$SURFTYPE
 70
     6
  9
$SURFU
 70
     6
  9
$SURFV
 70
     6
  9
$UCSNAME
  2

  9
$UCSORG
 10
0.0
 20
0.0
 30
0.0
  9
$UCSXDIR
 10
1.0
 20
0.0
 30
0.0
  9
$UCSYDIR
 10
0.0
 20
1.0
 30
0.0
  9
$PUCSNAME
  2

  9
$PUCSORG
 10
0.0
 20
0.0
 30
0.0
  9
$PUCSXDIR
 10
1.0
 20
0.0
 30
0.0
  9
$PUCSYDIR
 10
0.0
 20
1.0
 30
0.0
  9
$USERI1
 70
     0
  9
$USERI2
 70
     0
  9
$USERI3
 70
     0
  9
$USERI4
 70
     0
  9
$USERI5
 70
     0
  9
$USERR1
 40
0.0
  9
$USERR2
 40
0.0
  9
$USERR3
 40
0.0
  9
$USERR4
 40
0.0
  9
$USERR5
 40
0.0
  9
$WORLDVIEW
 70
     1
  9
$SHADEDGE
 70
     3
  9
$SHADEDIF
 70
    70
  9
$TILEMODE
 70
     1
  9
$MAXACTVP
 70
    16
  9
$PINSBASE
 10
0.0
 20
0.0
 30
0.0
  9
$PLIMCHECK
 70
     0
  9
$PEXTMIN
 10
1.000000E+20
 20
1.000000E+20
 30
1.000000E+20
  9
$PEXTMAX
 10
-1.000000E+20
 20
-1.000000E+20
 30
-1.000000E+20
  9
$PLIMMIN
 10
0.0
 20
0.0
  9
$PLIMMAX
 10
12.0
 20
9.0
  9
$UNITMODE
 70
     0
  9
$VISRETAIN
 70
     0
  9
$PLINEGEN
 70
     0
  9
$PSLTSCALE
 70
     0
  9
$TREEDEPTH
 70
  3020
  9
$DWGCODEPAGE
  3
iso8859-1
  0
ENDSEC
  0
SECTION
  2
TABLES
  0
TABLE
  2
VPORT
 70
     1
  0
VPORT
  2
*ACTIVE
 70
     0
 10
0.0
 20
0.0
 11
1.0
 21
1.0
 12
81.035358
 22
-13.227707
 13
0.0
 23
0.0
 14
1.0
 24
1.0
 15
10.0
 25
10.0
 16
0.0
 26
0.0
 36
1.0
 17
0.0
 27
0.0
 37
0.0
 40
17.014724
 41
1.639742
 42
50.0
 43
0.0
 44
0.0
 50
0.0
 51
0.0
 71
     0
 72
   100
 73
     1
 74
     0
 75
     0
 76
     0
 77
     0
 78
     1
  0
ENDTAB
  0
TABLE
  2
LTYPE
 70
     1
  0
LTYPE
  2
CONTINUOUS
 70
    64
  3
Solid line
 72
    65
 73
     0
 40
0.0
  0
ENDTAB
  0
TABLE
  2
LAYER
 70
     1
  0
LAYER
  2
0
 70
    64
 62
     7
  6
CONTINUOUS
  0
ENDTAB
  0
TABLE
  2
STYLE
 70
     2
  0
STYLE
  2
STANDARD
 70
     0
 40
0.0
 41
1.0
 50
0.0
 71
     0
 42
0.1
  3
txt
  4

  0
STYLE
  2
ROMANC
 70
    64
 40
0.0
 41
1.0
 50
0.0
 71
     0
 42
0.1
  3
romanc
  4

  0
ENDTAB
  0
TABLE
  2
VIEW
 70
     0
  0
ENDTAB
  0
TABLE
  2
UCS
 70
     0
  0
ENDTAB
  0
TABLE
  2
APPID
 70
     1
  0
APPID
  2
ACAD
 70
    64
  0
ENDTAB
  0
TABLE
  2
DIMSTYLE
 70
     0
  0
ENDTAB
  0
ENDSEC
  0
SECTION
  2
BLOCKS
  0
ENDSEC
  0
SECTION
  2
ENTITIES
  0
TEXT
  8
0
 10
83.74075
 20
-9.962168
 30
0.0
 40
0.3
  1
P = 51.3 dm
  7
ROMANC
  0
TEXT
  8
0
 10
86.857806
 20
-16.342638
 30
0.0
 40
0.1
  1
0.35
  7
ROMANC
  0
LINE
  8
0
 10
87.211488
 20
-16.218444
 30
0.0
 11
86.861488
 21
-16.218444
 31
0.0
  0
LINE
  8
0
 10
87.786488
 20
-16.443873
 30
0.0
 11
86.286488
 21
-16.443873
 31
0.0
  0
TEXT
  8
0
 10
83.727656
 20
-8.770165
 30
0.0
 40
0.3
  1
ESCALA  1:50
  7
ROMANC
  0
LINE
  8
0
 10
91.697683
 20
-5.88031
 30
0.0
 11
81.197683
 21
-5.88031
 31
0.0
  0
TEXT
  8
0
 10
83.727656
 20
-8.284451
 30
0.0
 40
0.3
  1
TIPUS   NT169
  7
ROMANC
  0
TEXT
  8
0
 10
83.74075
 20
-9.368755
 30
0.0
 40
0.3
  1
S = 169  dm
  7
ROMANC
  0
LINE
  8
0
 10
81.197683
 20
-20.73031
 30
0.0
 11
91.697683
 21
-20.73031
 31
0.0
  0
LINE
  8
0
 10
81.197683
 20
-5.88031
 30
0.0
 11
81.197683
 21
-20.73031
 31
0.0
  0
LINE
  8
0
 10
86.828935
 20
-16.248036
 30
0.0
 11
86.890295
 21
-16.192257
 31
0.0
  0
LINE
  8
0
 10
86.253935
 20
-16.473465
 30
0.0
 11
86.315295
 21
-16.417686
 31
0.0
  0
LINE
  8
0
 10
86.286488
 20
-15.936857
 30
0.0
 11
86.286488
 21
-16.443873
 31
0.0
  0
LINE
  8
0
 10
86.861488
 20
-15.936857
 30
0.0
 11
86.861488
 21
-16.218444
 31
0.0
  0
LINE
  8
0
 10
91.697683
 20
-20.73031
 30
0.0
 11
91.697683
 21
-5.88031
 31
0.0
  0
TEXT
  8
0
 10
86.948041
 20
-16.675594
 30
0.0
 40
0.1
  1
1.50
  7
ROMANC
  0
TEXT
  8
0
 10
88.259907
 20
-16.065175
 30
0.0
 40
0.1
  1
0.15
  7
ROMANC
  0
TEXT
  8
0
 10
88.246025
 20
-14.990006
 30
0.0
 40
0.1
  1
0.25
  7
ROMANC
  0
TEXT
  8
0
 10
88.252966
 20
-15.537995
 30
0.0
 40
0.1
  1
0.9
  7
ROMANC
  0
TEXT
  8
0
 10
88.718019
 20
-15.364581
 30
0.0
 40
0.1
  1
1.15
  7
ROMANC
  0
LINE
  8
0
 10
87.178935
 20
-16.248036
 30
0.0
 11
87.240295
 21
-16.192257
 31
0.0
  0
LINE
  8
0
 10
87.753935
 20
-16.473465
 30
0.0
 11
87.815295
 21
-16.417686
 31
0.0
  0
LINE
  8
0
 10
88.139246
 20
-14.816449
 30
0.0
 11
88.200607
 21
-14.76067
 31
0.0
  0
LINE
  8
0
 10
88.139246
 20
-15.066449
 30
0.0
 11
88.200607
 21
-15.01067
 31
0.0
  0
LINE
  8
0
 10
88.139246
 20
-15.966449
 30
0.0
 11
88.200607
 21
-15.91067
 31
0.0
  0
LINE
  8
0
 10
88.139246
 20
-16.116449
 30
0.0
 11
88.200607
 21
-16.06067
 31
0.0
  0
LINE
  8
0
 10
88.597369
 20
-15.966449
 30
0.0
 11
88.65873
 21
-15.91067
 31
0.0
  0
LINE
  8
0
 10
88.597369
 20
-14.816449
 30
0.0
 11
88.65873
 21
-14.76067
 31
0.0
  0
LINE
  8
0
 10
87.036488
 20
-16.086857
 30
0.0
 11
88.1718
 21
-16.086857
 31
0.0
  0
LINE
  8
0
 10
87.786488
 20
-15.936857
 30
0.0
 11
87.786488
 21
-16.443873
 31
0.0
  0
LINE
  8
0
 10
88.629922
 20
-15.936857
 30
0.0
 11
88.629922
 21
-14.786857
 31
0.0
  0
LINE
  8
0
 10
87.036488
 20
-14.786857
 30
0.0
 11
88.629922
 21
-14.786857
 31
0.0
  0
LINE
  8
0
 10
87.786488
 20
-15.036857
 30
0.0
 11
88.1718
 21
-15.036857
 31
0.0
  0
LINE
  8
0
 10
87.786488
 20
-15.936857
 30
0.0
 11
88.629922
 21
-15.936857
 31
0.0
  0
LINE
  8
0
 10
87.211488
 20
-15.936857
 30
0.0
 11
87.211488
 21
-16.218444
 31
0.0
  0
LINE
  8
0
 10
88.1718
 20
-16.086857
 30
0.0
 11
88.1718
 21
-14.786857
 31
0.0
  0
TEXT
  8
0
 10
87.248581
 20
-9.062839
 30
0.0
 40
0.1
  1
2
  7
ROMANC
  0
ARC
  8
0
 10
87.687673
 20
-15.036857
 30
0.0
 40
0.098815
 50
0.0
 51
51.17505
  0
ARC
  8
0
 10
87.380769
 20
-15.418228
 30
0.0
 40
0.58834
 50
51.17505
 51
71.565051
  0
ARC
  8
0
 10
87.173687
 20
-16.039474
 30
0.0
 40
1.24319
 50
71.565051
 51
82.138807
  0
ARC
  8
0
 10
87.036488
 20
-17.033156
 30
0.0
 40
2.246299
 50
82.138807
 51
90.0
  0
ARC
  8
0
 10
87.036488
 20
-17.033156
 30
0.0
 40
2.246299
 50
90.0
 51
97.861193
  0
ARC
  8
0
 10
86.899289
 20
-16.039474
 30
0.0
 40
1.24319
 50
97.861193
 51
108.434949
  0
ARC
  8
0
 10
86.692207
 20
-15.418228
 30
0.0
 40
0.58834
 50
108.434949
 51
128.82495
  0
ARC
  8
0
 10
86.385303
 20
-15.036857
 30
0.0
 40
0.098815
 50
128.82495
 51
180.0
  0
LINE
  8
0
 10
86.286488
 20
-15.036857
 30
0.0
 11
86.286488
 21
-15.936857
 31
0.0
  0
LINE
  8
0
 10
86.286488
 20
-15.936857
 30
0.0
 11
86.861488
 21
-15.936857
 31
0.0
  0
ARC
  8
0
 10
86.99068
 20
-15.936857
 30
0.0
 40
0.129192
 50
180.0
 51
205.792117
  0
ARC
  8
0
 10
87.012835
 20
-15.926151
 30
0.0
 40
0.153798
 50
205.792117
 51
229.398705
  0
ARC
  8
0
 10
87.02717
 20
-15.909426
 30
0.0
 40
0.175826
 50
229.398705
 51
250.453092
  0
ARC
  8
0
 10
87.036488
 20
-15.883182
 30
0.0
 40
0.203675
 50
250.453092
 51
270.0
  0
ARC
  8
0
 10
87.036488
 20
-15.883182
 30
0.0
 40
0.203675
 50
270.0
 51
289.546908
  0
ARC
  8
0
 10
87.045805
 20
-15.909426
 30
0.0
 40
0.175826
 50
289.546908
 51
310.601295
  0
ARC
  8
0
 10
87.060141
 20
-15.926151
 30
0.0
 40
0.153798
 50
310.601295
 51
334.207883
  0
ARC
  8
0
 10
87.082296
 20
-15.936857
 30
0.0
 40
0.129192
 50
334.207883
 51
0.0
  0
LINE
  8
0
 10
87.211488
 20
-15.936857
 30
0.0
 11
87.786488
 21
-15.936857
 31
0.0
  0
LINE
  8
0
 10
87.786488
 20
-15.936857
 30
0.0
 11
87.786488
 21
-15.036857
 31
0.0
  0
ARC
  8
0
 10
87.687673
 20
-15.036857
 30
0.0
 40
0.108815
 50
0.0
 51
51.17505
  0
ARC
  8
0
 10
87.380769
 20
-15.418228
 30
0.0
 40
0.59834
 50
51.17505
 51
71.565051
  0
ARC
  8
0
 10
87.173687
 20
-16.039474
 30
0.0
 40
1.25319
 50
71.565051
 51
82.138807
  0
ARC
  8
0
 10
87.036488
 20
-17.033156
 30
0.0
 40
2.256299
 50
82.138807
 51
90.0
  0
ARC
  8
0
 10
87.036488
 20
-17.033156
 30
0.0
 40
2.256299
 50
90.0
 51
97.861193
  0
ARC
  8
0
 10
86.899289
 20
-16.039474
 30
0.0
 40
1.25319
 50
97.861193
 51
108.434949
  0
ARC
  8
0
 10
86.692207
 20
-15.418228
 30
0.0
 40
0.59834
 50
108.434949
 51
128.82495
  0
ARC
  8
0
 10
86.385303
 20
-15.036857
 30
0.0
 40
0.108815
 50
128.82495
 51
180.0
  0
LINE
  8
0
 10
86.276488
 20
-15.036857
 30
0.0
 11
86.276488
 21
-15.946857
 31
0.0
  0
LINE
  8
0
 10
86.276488
 20
-15.946857
 30
0.0
 11
86.851848
 21
-15.946857
 31
0.0
  0
ARC
  8
0
 10
86.99068
 20
-15.936857
 30
0.0
 40
0.139192
 50
184.119851
 51
205.792117
  0
ARC
  8
0
 10
87.012835
 20
-15.926151
 30
0.0
 40
0.163798
 50
205.792117
 51
229.398705
  0
ARC
  8
0
 10
87.02717
 20
-15.909426
 30
0.0
 40
0.185826
 50
229.398705
 51
250.453092
  0
ARC
  8
0
 10
87.036488
 20
-15.883182
 30
0.0
 40
0.213675
 50
250.453092
 51
270.0
  0
ARC
  8
0
 10
87.036488
 20
-15.883182
 30
0.0
 40
0.213675
 50
270.0
 51
289.546908
  0
ARC
  8
0
 10
87.045805
 20
-15.909426
 30
0.0
 40
0.185826
 50
289.546908
 51
310.601295
  0
ARC
  8
0
 10
87.060141
 20
-15.926151
 30
0.0
 40
0.163798
 50
310.601295
 51
334.207883
  0
ARC
  8
0
 10
87.082296
 20
-15.936857
 30
0.0
 40
0.139192
 50
334.207883
 51
355.880149
  0
LINE
  8
0
 10
87.221128
 20
-15.946857
 30
0.0
 11
87.796488
 21
-15.946857
 31
0.0
  0
LINE
  8
0
 10
87.796488
 20
-15.946857
 30
0.0
 11
87.796488
 21
-15.036857
 31
0.0
  0
ARC
  8
0
 10
87.687673
 20
-15.036857
 30
0.0
 40
0.088815
 50
0.0
 51
51.17505
  0
ARC
  8
0
 10
87.380769
 20
-15.418228
 30
0.0
 40
0.57834
 50
51.17505
 51
71.565051
  0
ARC
  8
0
 10
87.173687
 20
-16.039474
 30
0.0
 40
1.23319
 50
71.565051
 51
82.138807
  0
ARC
  8
0
 10
87.036488
 20
-17.033156
 30
0.0
 40
2.236299
 50
82.138807
 51
90.0
  0
ARC
  8
0
 10
87.036488
 20
-17.033156
 30
0.0
 40
2.236299
 50
90.0
 51
97.861193
  0
ARC
  8
0
 10
86.899289
 20
-16.039474
 30
0.0
 40
1.23319
 50
97.861193
 51
108.434949
  0
ARC
  8
0
 10
86.692207
 20
-15.418228
 30
0.0
 40
0.57834
 50
108.434949
 51
128.82495
  0
ARC
  8
0
 10
86.385303
 20
-15.036857
 30
0.0
 40
0.088815
 50
128.82495
 51
180.0
  0
LINE
  8
0
 10
86.296488
 20
-15.036857
 30
0.0
 11
86.296488
 21
-15.926857
 31
0.0
  0
LINE
  8
0
 10
86.296488
 20
-15.926857
 30
0.0
 11
86.871908
 21
-15.926857
 31
0.0
  0
ARC
  8
0
 10
86.99068
 20
-15.936857
 30
0.0
 40
0.119192
 50
175.187341
 51
205.792117
  0
ARC
  8
0
 10
87.012835
 20
-15.926151
 30
0.0
 40
0.143798
 50
205.792117
 51
229.398705
  0
ARC
  8
0
 10
87.02717
 20
-15.909426
 30
0.0
 40
0.165826
 50
229.398705
 51
250.453092
  0
ARC
  8
0
 10
87.036488
 20
-15.883182
 30
0.0
 40
0.193675
 50
250.453092
 51
270.0
  0
ARC
  8
0
 10
87.036488
 20
-15.883182
 30
0.0
 40
0.193675
 50
270.0
 51
289.546908
  0
ARC
  8
0
 10
87.045805
 20
-15.909426
 30
0.0
 40
0.165826
 50
289.546908
 51
310.601295
  0
ARC
  8
0
 10
87.060141
 20
-15.926151
 30
0.0
 40
0.143798
 50
310.601295
 51
334.207883
  0
ARC
  8
0
 10
87.082296
 20
-15.936857
 30
0.0
 40
0.119192
 50
334.207883
 51
4.812659
  0
LINE
  8
0
 10
87.201068
 20
-15.926857
 30
0.0
 11
87.776488
 21
-15.926857
 31
0.0
  0
LINE
  8
0
 10
87.776488
 20
-15.926857
 30
0.0
 11
87.776488
 21
-15.036857
 31
0.0
  0
ENDSEC
  0
EOF
