  0
SECTION
  2
HEADER
  9
$ACADVER
  1
AC1009
  9
$INSBASE
 10
105.464027
 20
-4.528761
 30
0.0
  9
$EXTMIN
 10
0.0
 20
-27.532393
 30
0.0
  9
$EXTMAX
 10
351.54669
 20
44.747444
 30
0.0
  9
$LIMMIN
 10
0.0
 20
0.0
  9
$LIMMAX
 10
410.0
 20
287.0
  9
$ORTHOMODE
 70
     0
  9
$REGENMODE
 70
     1
  9
$FILLMODE
 70
     1
  9
$QTEXTMODE
 70
     0
  9
$MIRRTEXT
 70
     1
  9
$DRAGMODE
 70
     2
  9
$LTSCALE
 40
25.0
  9
$OSMODE
 70
    32
  9
$ATTMODE
 70
     1
  9
$TEXTSIZE
 40
0.1
  9
$TRACEWID
 40
1.0
  9
$TEXTSTYLE
  7
ROMANC
  9
$CLAYER
  8
0
  9
$CELTYPE
  6
BYLAYER
  9
$CECOLOR
 62
   256
  9
$DIMSCALE
 40
1.5
  9
$DIMASZ
 40
0.1
  9
$DIMEXO
 40
0.01
  9
$DIMDLI
 40
7.0
  9
$DIMRND
 40
0.0
  9
$DIMDLE
 40
0.0
  9
$DIMEXE
 40
0.01
  9
$DIMTP
 40
0.0
  9
$DIMTM
 40
0.0
  9
$DIMTXT
 40
0.05
  9
$DIMCEN
 40
0.1
  9
$DIMTSZ
 40
0.0
  9
$DIMTOL
 70
     0
  9
$DIMLIM
 70
     0
  9
$DIMTIH
 70
     0
  9
$DIMTOH
 70
     0
  9
$DIMSE1
 70
     0
  9
$DIMSE2
 70
     0
  9
$DIMTAD
 70
     1
  9
$DIMZIN
 70
     0
  9
$DIMBLK
  1

  9
$DIMASO
 70
     1
  9
$DIMSHO
 70
     0
  9
$DIMPOST
  1

  9
$DIMAPOST
  1

  9
$DIMALT
 70
     0
  9
$DIMALTD
 70
     2
  9
$DIMALTF
 40
25.4
  9
$DIMLFAC
 40
1.0
  9
$DIMTOFL
 70
     1
  9
$DIMTVP
 40
0.0
  9
$DIMTIX
 70
     1
  9
$DIMSOXD
 70
     0
  9
$DIMSAH
 70
     0
  9
$DIMBLK1
  1

  9
$DIMBLK2
  1

  9
$DIMSTYLE
  2
SILVIA
  9
$DIMCLRD
 70
     0
  9
$DIMCLRE
 70
     0
  9
$DIMCLRT
 70
     0
  9
$DIMTFAC
 40
70.0
  9
$DIMGAP
 40
0.09
  9
$LUNITS
 70
     2
  9
$LUPREC
 70
     2
  9
$SKETCHINC
 40
1.0
  9
$FILLETRAD
 40
0.0
  9
$AUNITS
 70
     0
  9
$AUPREC
 70
     0
  9
$MENU
  1
acad
  9
$ELEVATION
 40
0.0
  9
$PELEVATION
 40
0.0
  9
$THICKNESS
 40
0.0
  9
$LIMCHECK
 70
     0
  9
$BLIPMODE
 70
     0
  9
$CHAMFERA
 40
0.0
  9
$CHAMFERB
 40
0.0
  9
$SKPOLY
 70
     0
  9
$TDCREATE
 40
2450128.498441782
  9
$TDUPDATE
 40
2450207.429854282
  9
$TDINDWG
 40
0.0001716435
  9
$TDUSRTIMER
 40
0.0001716435
  9
$USRTIMER
 70
     1
  9
$ANGBASE
 50
0.0
  9
$ANGDIR
 70
     0
  9
$PDMODE
 70
     0
  9
$PDSIZE
 40
0.0
  9
$PLINEWID
 40
0.0
  9
$COORDS
 70
     2
  9
$SPLFRAME
 70
     0
  9
$SPLINETYPE
 70
     6
  9
$SPLINESEGS
 70
     8
  9
$ATTDIA
 70
     0
  9
$ATTREQ
 70
     1
  9
$HANDLING
 70
     0
  9
$HANDSEED
  5
0
  9
$SURFTAB1
 70
     6
  9
$SURFTAB2
 70
     6
  9
$SURFTYPE
 70
     6
  9
$SURFU
 70
     6
  9
$SURFV
 70
     6
  9
$UCSNAME
  2

  9
$UCSORG
 10
0.0
 20
0.0
 30
0.0
  9
$UCSXDIR
 10
1.0
 20
0.0
 30
0.0
  9
$UCSYDIR
 10
0.0
 20
1.0
 30
0.0
  9
$PUCSNAME
  2

  9
$PUCSORG
 10
0.0
 20
0.0
 30
0.0
  9
$PUCSXDIR
 10
1.0
 20
0.0
 30
0.0
  9
$PUCSYDIR
 10
0.0
 20
1.0
 30
0.0
  9
$USERI1
 70
     0
  9
$USERI2
 70
     0
  9
$USERI3
 70
     0
  9
$USERI4
 70
     0
  9
$USERI5
 70
     0
  9
$USERR1
 40
0.0
  9
$USERR2
 40
0.0
  9
$USERR3
 40
0.0
  9
$USERR4
 40
0.0
  9
$USERR5
 40
0.0
  9
$WORLDVIEW
 70
     1
  9
$SHADEDGE
 70
     3
  9
$SHADEDIF
 70
    70
  9
$TILEMODE
 70
     1
  9
$MAXACTVP
 70
    16
  9
$PINSBASE
 10
0.0
 20
0.0
 30
0.0
  9
$PLIMCHECK
 70
     0
  9
$PEXTMIN
 10
1.000000E+20
 20
1.000000E+20
 30
1.000000E+20
  9
$PEXTMAX
 10
-1.000000E+20
 20
-1.000000E+20
 30
-1.000000E+20
  9
$PLIMMIN
 10
0.0
 20
0.0
  9
$PLIMMAX
 10
12.0
 20
9.0
  9
$UNITMODE
 70
     0
  9
$VISRETAIN
 70
     0
  9
$PLINEGEN
 70
     0
  9
$PSLTSCALE
 70
     0
  9
$TREEDEPTH
 70
  3020
  9
$DWGCODEPAGE
  3
iso8859-1
  0
ENDSEC
  0
SECTION
  2
TABLES
  0
TABLE
  2
VPORT
 70
     2
  0
VPORT
  2
*ACTIVE
 70
     0
 10
0.0
 20
0.0
 11
1.0
 21
1.0
 12
295.273776
 22
38.775886
 13
0.0
 23
0.0
 14
1.0
 24
1.0
 15
10.0
 25
10.0
 16
0.0
 26
0.0
 36
1.0
 17
0.0
 27
0.0
 37
0.0
 40
19.367319
 41
1.65
 42
50.0
 43
0.0
 44
0.0
 50
0.0
 51
0.0
 71
     0
 72
   100
 73
     1
 74
     0
 75
     0
 76
     0
 77
     0
 78
     1
  0
ENDTAB
  0
TABLE
  2
LTYPE
 70
     1
  0
LTYPE
  2
CONTINUOUS
 70
    64
  3
Solid line
 72
    65
 73
     0
 40
0.0
  0
ENDTAB
  0
TABLE
  2
LAYER
 70
     3
  0
LAYER
  2
0
 70
    64
 62
     7
  6
CONTINUOUS
  0
LAYER
  2
MESURA
 70
     0
 62
     7
  6
CONTINUOUS
  0
LAYER
  2
DEFPOINTS
 70
    64
 62
     7
  6
CONTINUOUS
  0
ENDTAB
  0
TABLE
  2
STYLE
 70
     2
  0
STYLE
  2
STANDARD
 70
     0
 40
0.0
 41
1.0
 50
0.0
 71
     0
 42
0.1
  3
txt
  4

  0
STYLE
  2
ROMANC
 70
    64
 40
0.0
 41
1.0
 50
0.0
 71
     0
 42
0.1
  3
romanc
  4

  0
ENDTAB
  0
TABLE
  2
VIEW
 70
     0
  0
ENDTAB
  0
TABLE
  2
UCS
 70
     0
  0
ENDTAB
  0
TABLE
  2
APPID
 70
     1
  0
APPID
  2
ACAD
 70
    64
  0
ENDTAB
  0
TABLE
  2
DIMSTYLE
 70
     1
  0
DIMSTYLE
  2
SILVIA
 70
    64
  3

  4

  5

  6

  7

 40
1.5
 41
0.1
 42
0.01
 43
7.0
 44
0.01
 45
0.0
 46
0.0
 47
0.0
 48
0.0
140
0.05
141
0.1
142
0.0
143
25.4
144
1.0
145
0.0
146
70.0
147
0.09
 71
     0
 72
     0
 73
     0
 74
     0
 75
     0
 76
     0
 77
     1
 78
     0
170
     0
171
     2
172
     1
173
     0
174
     1
175
     0
176
     0
177
     0
178
     0
  0
ENDTAB
  0
ENDSEC
  0
SECTION
  2
BLOCKS
  0
BLOCK
  8
0
  2
*D26
 70
    65
 10
0.0
 20
0.0
 30
0.0
  3
*D
  0
LINE
  8
0
  6
BYBLOCK
 62
     0
 10
285.646811
 20
34.710509
 30
0.0
 11
285.646811
 21
33.999857
 31
0.0
  0
LINE
  8
0
  6
BYBLOCK
 62
     0
 10
286.846811
 20
34.710509
 30
0.0
 11
286.846811
 21
33.999857
 31
0.0
  0
LINE
  8
0
  6
BYBLOCK
 62
     0
 10
285.796811
 20
34.014857
 30
0.0
 11
286.696811
 21
34.014857
 31
0.0
  0
SOLID
  8
0
  6
BYBLOCK
 62
     0
 10
285.796811
 20
34.039857
 30
0.0
 11
285.796811
 21
33.989857
 31
0.0
 12
285.646811
 22
34.014857
 32
0.0
 13
285.646811
 23
34.014857
 33
0.0
  0
SOLID
  8
0
  6
BYBLOCK
 62
     0
 10
286.696811
 20
34.039857
 30
0.0
 11
286.696811
 21
33.989857
 31
0.0
 12
286.846811
 22
34.014857
 32
0.0
 13
286.846811
 23
34.014857
 33
0.0
  0
TEXT
  8
0
  6
BYBLOCK
 62
     0
 10
286.116454
 20
34.052357
 30
0.0
 40
0.075
  1
1.20
  7
ROMANC
 72
     1
 11
286.246811
 21
34.089857
 31
0.0
 73
     2
  0
POINT
  8
DEFPOINTS
  6
BYBLOCK
 62
     0
 10
285.646811
 20
34.725509
 30
0.0
  0
POINT
  8
DEFPOINTS
  6
BYBLOCK
 62
     0
 10
286.846811
 20
34.725509
 30
0.0
  0
POINT
  8
DEFPOINTS
  6
BYBLOCK
 62
     0
 10
286.846811
 20
34.014857
 30
0.0
  0
ENDBLK
  8
0
  0
BLOCK
  8
0
  2
*D27
 70
    65
 10
0.0
 20
0.0
 30
0.0
  3
*D
  0
LINE
  8
0
  6
BYBLOCK
 62
     0
 10
286.046811
 20
34.710509
 30
0.0
 11
286.046811
 21
34.317991
 31
0.0
  0
LINE
  8
0
  6
BYBLOCK
 62
     0
 10
286.446811
 20
34.710509
 30
0.0
 11
286.446811
 21
34.317991
 31
0.0
  0
LINE
  8
0
  6
BYBLOCK
 62
     0
 10
285.896811
 20
34.332991
 30
0.0
 11
285.746811
 21
34.332991
 31
0.0
  0
LINE
  8
0
  6
BYBLOCK
 62
     0
 10
286.596811
 20
34.332991
 30
0.0
 11
286.746811
 21
34.332991
 31
0.0
  0
SOLID
  8
0
  6
BYBLOCK
 62
     0
 10
285.896811
 20
34.357991
 30
0.0
 11
285.896811
 21
34.307991
 31
0.0
 12
286.046811
 22
34.332991
 32
0.0
 13
286.046811
 23
34.332991
 33
0.0
  0
SOLID
  8
0
  6
BYBLOCK
 62
     0
 10
286.596811
 20
34.357991
 30
0.0
 11
286.596811
 21
34.307991
 31
0.0
 12
286.446811
 22
34.332991
 32
0.0
 13
286.446811
 23
34.332991
 33
0.0
  0
LINE
  8
0
  6
BYBLOCK
 62
     0
 10
286.046811
 20
34.332991
 30
0.0
 11
286.446811
 21
34.332991
 31
0.0
  0
TEXT
  8
0
  6
BYBLOCK
 62
     0
 10
286.121811
 20
34.370491
 30
0.0
 40
0.075
  1
0.40
  7
ROMANC
 72
     1
 11
286.246811
 21
34.407991
 31
0.0
 73
     2
  0
POINT
  8
DEFPOINTS
  6
BYBLOCK
 62
     0
 10
286.046811
 20
34.725509
 30
0.0
  0
POINT
  8
DEFPOINTS
  6
BYBLOCK
 62
     0
 10
286.446811
 20
34.725509
 30
0.0
  0
POINT
  8
DEFPOINTS
  6
BYBLOCK
 62
     0
 10
286.446811
 20
34.332991
 30
0.0
  0
ENDBLK
  8
0
  0
BLOCK
  8
0
  2
*D28
 70
    65
 10
0.0
 20
0.0
 30
0.0
  3
*D
  0
LINE
  8
0
  6
BYBLOCK
 62
     0
 10
286.256804
 20
34.525572
 30
0.0
 11
287.273246
 21
34.525572
 31
0.0
  0
LINE
  8
0
  6
BYBLOCK
 62
     0
 10
286.861811
 20
34.725509
 30
0.0
 11
287.273246
 21
34.725509
 31
0.0
  0
LINE
  8
0
  6
BYBLOCK
 62
     0
 10
287.258246
 20
34.375572
 30
0.0
 11
287.258246
 21
34.225572
 31
0.0
  0
LINE
  8
0
  6
BYBLOCK
 62
     0
 10
287.258246
 20
34.875509
 30
0.0
 11
287.258246
 21
35.025509
 31
0.0
  0
SOLID
  8
0
  6
BYBLOCK
 62
     0
 10
287.233246
 20
34.375572
 30
0.0
 11
287.283246
 21
34.375572
 31
0.0
 12
287.258246
 22
34.525572
 32
0.0
 13
287.258246
 23
34.525572
 33
0.0
  0
SOLID
  8
0
  6
BYBLOCK
 62
     0
 10
287.233246
 20
34.875509
 30
0.0
 11
287.283246
 21
34.875509
 31
0.0
 12
287.258246
 22
34.725509
 32
0.0
 13
287.258246
 23
34.725509
 33
0.0
  0
LINE
  8
0
  6
BYBLOCK
 62
     0
 10
287.258246
 20
34.525572
 30
0.0
 11
287.258246
 21
34.725509
 31
0.0
  0
TEXT
  8
0
  6
BYBLOCK
 62
     0
 10
287.220746
 20
34.50054
 30
0.0
 40
0.075
  1
0.20
 50
90.0
  7
ROMANC
 72
     1
 11
287.183246
 21
34.62554
 31
0.0
 73
     2
  0
POINT
  8
DEFPOINTS
  6
BYBLOCK
 62
     0
 10
286.241804
 20
34.525572
 30
0.0
  0
POINT
  8
DEFPOINTS
  6
BYBLOCK
 62
     0
 10
286.846811
 20
34.725509
 30
0.0
  0
POINT
  8
DEFPOINTS
  6
BYBLOCK
 62
     0
 10
287.258246
 20
34.725509
 30
0.0
  0
ENDBLK
  8
0
  0
BLOCK
  8
0
  2
*D29
 70
    65
 10
0.0
 20
0.0
 30
0.0
  3
*D
  0
LINE
  8
0
  6
BYBLOCK
 62
     0
 10
286.861811
 20
34.725509
 30
0.0
 11
287.273246
 21
34.725509
 31
0.0
  0
LINE
  8
0
  6
BYBLOCK
 62
     0
 10
286.861811
 20
36.075509
 30
0.0
 11
287.273246
 21
36.075509
 31
0.0
  0
LINE
  8
0
  6
BYBLOCK
 62
     0
 10
287.258246
 20
34.875509
 30
0.0
 11
287.258246
 21
35.925509
 31
0.0
  0
SOLID
  8
0
  6
BYBLOCK
 62
     0
 10
287.233246
 20
34.875509
 30
0.0
 11
287.283246
 21
34.875509
 31
0.0
 12
287.258246
 22
34.725509
 32
0.0
 13
287.258246
 23
34.725509
 33
0.0
  0
SOLID
  8
0
  6
BYBLOCK
 62
     0
 10
287.233246
 20
35.925509
 30
0.0
 11
287.283246
 21
35.925509
 31
0.0
 12
287.258246
 22
36.075509
 32
0.0
 13
287.258246
 23
36.075509
 33
0.0
  0
TEXT
  8
0
  6
BYBLOCK
 62
     0
 10
287.220746
 20
35.270152
 30
0.0
 40
0.075
  1
1.35
 50
90.0
  7
ROMANC
 72
     1
 11
287.183246
 21
35.400509
 31
0.0
 73
     2
  0
POINT
  8
DEFPOINTS
  6
BYBLOCK
 62
     0
 10
286.846811
 20
34.725509
 30
0.0
  0
POINT
  8
DEFPOINTS
  6
BYBLOCK
 62
     0
 10
286.846811
 20
36.075509
 30
0.0
  0
POINT
  8
DEFPOINTS
  6
BYBLOCK
 62
     0
 10
287.258246
 20
36.075509
 30
0.0
  0
ENDBLK
  8
0
  0
BLOCK
  8
0
  2
*D30
 70
    65
 10
0.0
 20
0.0
 30
0.0
  3
*D
  0
LINE
  8
0
  6
BYBLOCK
 62
     0
 10
287.273246
 20
36.075509
 30
0.0
 11
287.652793
 21
36.075509
 31
0.0
  0
LINE
  8
0
  6
BYBLOCK
 62
     0
 10
287.273246
 20
34.525572
 30
0.0
 11
287.652793
 21
34.525572
 31
0.0
  0
LINE
  8
0
  6
BYBLOCK
 62
     0
 10
287.637793
 20
35.925509
 30
0.0
 11
287.637793
 21
34.675572
 31
0.0
  0
SOLID
  8
0
  6
BYBLOCK
 62
     0
 10
287.612793
 20
35.925509
 30
0.0
 11
287.662793
 21
35.925509
 31
0.0
 12
287.637793
 22
36.075509
 32
0.0
 13
287.637793
 23
36.075509
 33
0.0
  0
SOLID
  8
0
  6
BYBLOCK
 62
     0
 10
287.612793
 20
34.675572
 30
0.0
 11
287.662793
 21
34.675572
 31
0.0
 12
287.637793
 22
34.525572
 32
0.0
 13
287.637793
 23
34.525572
 33
0.0
  0
TEXT
  8
0
  6
BYBLOCK
 62
     0
 10
287.600293
 20
35.170183
 30
0.0
 40
0.075
  1
1.55
 50
90.0
  7
ROMANC
 72
     1
 11
287.562793
 21
35.30054
 31
0.0
 73
     2
  0
POINT
  8
DEFPOINTS
  6
BYBLOCK
 62
     0
 10
287.258246
 20
36.075509
 30
0.0
  0
POINT
  8
DEFPOINTS
  6
BYBLOCK
 62
     0
 10
287.258246
 20
34.525572
 30
0.0
  0
POINT
  8
DEFPOINTS
  6
BYBLOCK
 62
     0
 10
287.637793
 20
34.525572
 30
0.0
  0
ENDBLK
  8
0
  0
ENDSEC
  0
SECTION
  2
ENTITIES
  0
TEXT
  8
0
 10
249.762148
 20
-27.532393
 30
0.0
 40
0.1
  1
3.2
  7
ROMANC
  0
LINE
  8
0
 10
291.895795
 20
29.897444
 30
0.0
 11
291.895795
 21
44.747444
 31
0.0
  0
TEXT
  8
0
 10
283.887846
 20
40.56142
 30
0.0
 40
0.3
  1
P = 53.3 dm
  7
ROMANC
  0
LINE
  8
0
 10
281.395795
 20
44.747444
 30
0.0
 11
281.395795
 21
29.897444
 31
0.0
  0
LINE
  8
0
 10
281.395795
 20
29.897444
 30
0.0
 11
291.895795
 21
29.897444
 31
0.0
  0
LINE
  8
0
 10
291.895795
 20
44.747444
 30
0.0
 11
281.395795
 21
44.747444
 31
0.0
  0
TEXT
  8
0
 10
287.122271
 20
41.564915
 30
0.0
 40
0.1
  1
2
  7
ROMANC
  0
TEXT
  8
0
 10
283.925768
 20
41.857589
 30
0.0
 40
0.3
  1
ESCALA  1:50
  7
ROMANC
  0
TEXT
  8
0
 10
283.925768
 20
42.343303
 30
0.0
 40
0.3
  1
TIPUS   NT168A
  7
ROMANC
  0
TEXT
  8
0
 10
283.938862
 20
41.258999
 30
0.0
 40
0.3
  1
S=  168 dm
  7
ROMANC
  0
ARC
  8
0
 10
286.246811
 20
34.725509
 30
0.0
 40
0.21
 50
182.729403
 51
202.5
  0
ARC
  8
0
 10
286.246811
 20
34.725509
 30
0.0
 40
0.21
 50
202.5
 51
225.0
  0
ARC
  8
0
 10
286.246811
 20
34.725509
 30
0.0
 40
0.21
 50
225.0
 51
247.5
  0
ARC
  8
0
 10
286.246811
 20
34.725509
 30
0.0
 40
0.21
 50
247.5
 51
270.0
  0
ARC
  8
0
 10
286.246811
 20
34.725509
 30
0.0
 40
0.21
 50
270.0
 51
292.5
  0
ARC
  8
0
 10
286.246811
 20
34.725509
 30
0.0
 40
0.21
 50
292.5
 51
315.0
  0
ARC
  8
0
 10
286.246811
 20
34.725509
 30
0.0
 40
0.21
 50
315.0
 51
337.5
  0
ARC
  8
0
 10
286.246811
 20
34.725509
 30
0.0
 40
0.21
 50
337.5
 51
357.270597
  0
LINE
  8
0
 10
286.456573
 20
34.715509
 30
0.0
 11
286.856811
 21
34.715509
 31
0.0
  0
LINE
  8
0
 10
286.856811
 20
34.715509
 30
0.0
 11
286.856811
 21
36.085509
 31
0.0
  0
LINE
  8
0
 10
286.856811
 20
36.085509
 30
0.0
 11
285.636811
 21
36.085509
 31
0.0
  0
LINE
  8
0
 10
285.636811
 20
36.085509
 30
0.0
 11
285.636811
 21
34.715509
 31
0.0
  0
LINE
  8
0
 10
285.636811
 20
34.715509
 30
0.0
 11
286.03705
 21
34.715509
 31
0.0
  0
ARC
  8
0
 10
286.246811
 20
34.725509
 30
0.0
 40
0.19
 50
176.983039
 51
202.5
  0
ARC
  8
0
 10
286.246811
 20
34.725509
 30
0.0
 40
0.19
 50
202.5
 51
225.0
  0
ARC
  8
0
 10
286.246811
 20
34.725509
 30
0.0
 40
0.19
 50
225.0
 51
247.5
  0
ARC
  8
0
 10
286.246811
 20
34.725509
 30
0.0
 40
0.19
 50
247.5
 51
270.0
  0
ARC
  8
0
 10
286.246811
 20
34.725509
 30
0.0
 40
0.19
 50
270.0
 51
292.5
  0
ARC
  8
0
 10
286.246811
 20
34.725509
 30
0.0
 40
0.19
 50
292.5
 51
315.0
  0
ARC
  8
0
 10
286.246811
 20
34.725509
 30
0.0
 40
0.19
 50
315.0
 51
337.5
  0
ARC
  8
0
 10
286.246811
 20
34.725509
 30
0.0
 40
0.19
 50
337.5
 51
3.016961
  0
LINE
  8
0
 10
286.436548
 20
34.735509
 30
0.0
 11
286.836811
 21
34.735509
 31
0.0
  0
LINE
  8
0
 10
286.836811
 20
34.735509
 30
0.0
 11
286.836811
 21
36.065509
 31
0.0
  0
LINE
  8
0
 10
286.836811
 20
36.065509
 30
0.0
 11
285.656811
 21
36.065509
 31
0.0
  0
LINE
  8
0
 10
285.656811
 20
36.065509
 30
0.0
 11
285.656811
 21
34.735509
 31
0.0
  0
LINE
  8
0
 10
285.656811
 20
34.735509
 30
0.0
 11
286.057075
 21
34.735509
 31
0.0
  0
LINE
  8
0
  6
BYBLOCK
 62
     0
 10
287.273246
 20
36.075509
 30
0.0
 11
287.652793
 21
36.075509
 31
0.0
  0
LINE
  8
0
  6
BYBLOCK
 62
     0
 10
287.273246
 20
34.525572
 30
0.0
 11
287.652793
 21
34.525572
 31
0.0
  0
LINE
  8
0
  6
BYBLOCK
 62
     0
 10
287.637793
 20
35.925509
 30
0.0
 11
287.637793
 21
34.675572
 31
0.0
  0
SOLID
  8
0
  6
BYBLOCK
 62
     0
 10
287.612793
 20
35.925509
 30
0.0
 11
287.662793
 21
35.925509
 31
0.0
 12
287.637793
 22
36.075509
 32
0.0
 13
287.637793
 23
36.075509
 33
0.0
  0
SOLID
  8
0
  6
BYBLOCK
 62
     0
 10
287.612793
 20
34.675572
 30
0.0
 11
287.662793
 21
34.675572
 31
0.0
 12
287.637793
 22
34.525572
 32
0.0
 13
287.637793
 23
34.525572
 33
0.0
  0
TEXT
  8
0
  6
BYBLOCK
 62
     0
 10
287.600293
 20
35.170183
 30
0.0
 40
0.075
  1
1.55
 50
90.0
  7
ROMANC
 72
     1
 11
287.562793
 21
35.30054
 31
0.0
 73
     2
  0
POINT
  8
DEFPOINTS
  6
BYBLOCK
 62
     0
 10
287.258246
 20
36.075509
 30
0.0
  0
POINT
  8
DEFPOINTS
  6
BYBLOCK
 62
     0
 10
287.258246
 20
34.525572
 30
0.0
  0
POINT
  8
DEFPOINTS
  6
BYBLOCK
 62
     0
 10
287.637793
 20
34.525572
 30
0.0
  0
LINE
  8
0
  6
BYBLOCK
 62
     0
 10
286.861811
 20
34.725509
 30
0.0
 11
287.273246
 21
34.725509
 31
0.0
  0
LINE
  8
0
  6
BYBLOCK
 62
     0
 10
286.861811
 20
36.075509
 30
0.0
 11
287.273246
 21
36.075509
 31
0.0
  0
LINE
  8
0
  6
BYBLOCK
 62
     0
 10
287.258246
 20
34.875509
 30
0.0
 11
287.258246
 21
35.925509
 31
0.0
  0
SOLID
  8
0
  6
BYBLOCK
 62
     0
 10
287.233246
 20
34.875509
 30
0.0
 11
287.283246
 21
34.875509
 31
0.0
 12
287.258246
 22
34.725509
 32
0.0
 13
287.258246
 23
34.725509
 33
0.0
  0
SOLID
  8
0
  6
BYBLOCK
 62
     0
 10
287.233246
 20
35.925509
 30
0.0
 11
287.283246
 21
35.925509
 31
0.0
 12
287.258246
 22
36.075509
 32
0.0
 13
287.258246
 23
36.075509
 33
0.0
  0
TEXT
  8
0
  6
BYBLOCK
 62
     0
 10
287.220746
 20
35.270152
 30
0.0
 40
0.075
  1
1.35
 50
90.0
  7
ROMANC
 72
     1
 11
287.183246
 21
35.400509
 31
0.0
 73
     2
  0
POINT
  8
DEFPOINTS
  6
BYBLOCK
 62
     0
 10
286.846811
 20
34.725509
 30
0.0
  0
POINT
  8
DEFPOINTS
  6
BYBLOCK
 62
     0
 10
286.846811
 20
36.075509
 30
0.0
  0
POINT
  8
DEFPOINTS
  6
BYBLOCK
 62
     0
 10
287.258246
 20
36.075509
 30
0.0
  0
LINE
  8
0
  6
BYBLOCK
 62
     0
 10
286.256804
 20
34.525572
 30
0.0
 11
287.273246
 21
34.525572
 31
0.0
  0
LINE
  8
0
  6
BYBLOCK
 62
     0
 10
286.861811
 20
34.725509
 30
0.0
 11
287.273246
 21
34.725509
 31
0.0
  0
LINE
  8
0
  6
BYBLOCK
 62
     0
 10
287.258246
 20
34.375572
 30
0.0
 11
287.258246
 21
34.225572
 31
0.0
  0
LINE
  8
0
  6
BYBLOCK
 62
     0
 10
287.258246
 20
34.875509
 30
0.0
 11
287.258246
 21
35.025509
 31
0.0
  0
SOLID
  8
0
  6
BYBLOCK
 62
     0
 10
287.233246
 20
34.375572
 30
0.0
 11
287.283246
 21
34.375572
 31
0.0
 12
287.258246
 22
34.525572
 32
0.0
 13
287.258246
 23
34.525572
 33
0.0
  0
SOLID
  8
0
  6
BYBLOCK
 62
     0
 10
287.233246
 20
34.875509
 30
0.0
 11
287.283246
 21
34.875509
 31
0.0
 12
287.258246
 22
34.725509
 32
0.0
 13
287.258246
 23
34.725509
 33
0.0
  0
LINE
  8
0
  6
BYBLOCK
 62
     0
 10
287.258246
 20
34.525572
 30
0.0
 11
287.258246
 21
34.725509
 31
0.0
  0
TEXT
  8
0
  6
BYBLOCK
 62
     0
 10
287.220746
 20
34.50054
 30
0.0
 40
0.075
  1
0.20
 50
90.0
  7
ROMANC
 72
     1
 11
287.183246
 21
34.62554
 31
0.0
 73
     2
  0
POINT
  8
DEFPOINTS
  6
BYBLOCK
 62
     0
 10
286.241804
 20
34.525572
 30
0.0
  0
POINT
  8
DEFPOINTS
  6
BYBLOCK
 62
     0
 10
286.846811
 20
34.725509
 30
0.0
  0
POINT
  8
DEFPOINTS
  6
BYBLOCK
 62
     0
 10
287.258246
 20
34.725509
 30
0.0
  0
LINE
  8
0
  6
BYBLOCK
 62
     0
 10
286.046811
 20
34.710509
 30
0.0
 11
286.046811
 21
34.317991
 31
0.0
  0
LINE
  8
0
  6
BYBLOCK
 62
     0
 10
286.446811
 20
34.710509
 30
0.0
 11
286.446811
 21
34.317991
 31
0.0
  0
LINE
  8
0
  6
BYBLOCK
 62
     0
 10
285.896811
 20
34.332991
 30
0.0
 11
285.746811
 21
34.332991
 31
0.0
  0
LINE
  8
0
  6
BYBLOCK
 62
     0
 10
286.596811
 20
34.332991
 30
0.0
 11
286.746811
 21
34.332991
 31
0.0
  0
SOLID
  8
0
  6
BYBLOCK
 62
     0
 10
285.896811
 20
34.357991
 30
0.0
 11
285.896811
 21
34.307991
 31
0.0
 12
286.046811
 22
34.332991
 32
0.0
 13
286.046811
 23
34.332991
 33
0.0
  0
SOLID
  8
0
  6
BYBLOCK
 62
     0
 10
286.596811
 20
34.357991
 30
0.0
 11
286.596811
 21
34.307991
 31
0.0
 12
286.446811
 22
34.332991
 32
0.0
 13
286.446811
 23
34.332991
 33
0.0
  0
LINE
  8
0
  6
BYBLOCK
 62
     0
 10
286.046811
 20
34.332991
 30
0.0
 11
286.446811
 21
34.332991
 31
0.0
  0
TEXT
  8
0
  6
BYBLOCK
 62
     0
 10
286.121811
 20
34.370491
 30
0.0
 40
0.075
  1
0.40
  7
ROMANC
 72
     1
 11
286.246811
 21
34.407991
 31
0.0
 73
     2
  0
POINT
  8
DEFPOINTS
  6
BYBLOCK
 62
     0
 10
286.046811
 20
34.725509
 30
0.0
  0
POINT
  8
DEFPOINTS
  6
BYBLOCK
 62
     0
 10
286.446811
 20
34.725509
 30
0.0
  0
POINT
  8
DEFPOINTS
  6
BYBLOCK
 62
     0
 10
286.446811
 20
34.332991
 30
0.0
  0
LINE
  8
0
  6
BYBLOCK
 62
     0
 10
285.646811
 20
34.710509
 30
0.0
 11
285.646811
 21
33.999857
 31
0.0
  0
LINE
  8
0
  6
BYBLOCK
 62
     0
 10
286.846811
 20
34.710509
 30
0.0
 11
286.846811
 21
33.999857
 31
0.0
  0
LINE
  8
0
  6
BYBLOCK
 62
     0
 10
285.796811
 20
34.014857
 30
0.0
 11
286.696811
 21
34.014857
 31
0.0
  0
SOLID
  8
0
  6
BYBLOCK
 62
     0
 10
285.796811
 20
34.039857
 30
0.0
 11
285.796811
 21
33.989857
 31
0.0
 12
285.646811
 22
34.014857
 32
0.0
 13
285.646811
 23
34.014857
 33
0.0
  0
SOLID
  8
0
  6
BYBLOCK
 62
     0
 10
286.696811
 20
34.039857
 30
0.0
 11
286.696811
 21
33.989857
 31
0.0
 12
286.846811
 22
34.014857
 32
0.0
 13
286.846811
 23
34.014857
 33
0.0
  0
TEXT
  8
0
  6
BYBLOCK
 62
     0
 10
286.116454
 20
34.052357
 30
0.0
 40
0.075
  1
1.20
  7
ROMANC
 72
     1
 11
286.246811
 21
34.089857
 31
0.0
 73
     2
  0
POINT
  8
DEFPOINTS
  6
BYBLOCK
 62
     0
 10
285.646811
 20
34.725509
 30
0.0
  0
POINT
  8
DEFPOINTS
  6
BYBLOCK
 62
     0
 10
286.846811
 20
34.725509
 30
0.0
  0
POINT
  8
DEFPOINTS
  6
BYBLOCK
 62
     0
 10
286.846811
 20
34.014857
 30
0.0
  0
ARC
  8
0
 10
286.246811
 20
34.725509
 30
0.0
 40
0.2
 50
180.0
 51
202.5
  0
ARC
  8
0
 10
286.246811
 20
34.725509
 30
0.0
 40
0.2
 50
202.5
 51
225.0
  0
ARC
  8
0
 10
286.246811
 20
34.725509
 30
0.0
 40
0.2
 50
225.0
 51
247.5
  0
ARC
  8
0
 10
286.246811
 20
34.725509
 30
0.0
 40
0.2
 50
247.5
 51
270.0
  0
ARC
  8
0
 10
286.246811
 20
34.725509
 30
0.0
 40
0.2
 50
270.0
 51
292.5
  0
ARC
  8
0
 10
286.246811
 20
34.725509
 30
0.0
 40
0.2
 50
292.5
 51
315.0
  0
ARC
  8
0
 10
286.246811
 20
34.725509
 30
0.0
 40
0.2
 50
315.0
 51
337.5
  0
ARC
  8
0
 10
286.246811
 20
34.725509
 30
0.0
 40
0.2
 50
337.5
 51
0.0
  0
LINE
  8
0
 10
286.446811
 20
34.725509
 30
0.0
 11
286.846811
 21
34.725509
 31
0.0
  0
LINE
  8
0
 10
286.846811
 20
34.725509
 30
0.0
 11
286.846811
 21
36.075509
 31
0.0
  0
LINE
  8
0
 10
286.846811
 20
36.075509
 30
0.0
 11
285.646811
 21
36.075509
 31
0.0
  0
LINE
  8
0
 10
285.646811
 20
36.075509
 30
0.0
 11
285.646811
 21
34.725509
 31
0.0
  0
LINE
  8
0
 10
285.646811
 20
34.725509
 30
0.0
 11
286.046811
 21
34.725509
 31
0.0
  0
ENDSEC
  0
EOF
