  0
SECTION
  2
HEADER
  9
$ACADVER
  1
AC1009
  9
$INSBASE
 10
0.0
 20
0.0
 30
0.0
  9
$EXTMIN
 10
281.396
 20
29.897
 30
0.0
  9
$EXTMAX
 10
291.896
 20
44.747
 30
0.0
  9
$LIMMIN
 10
280.396
 20
28.897
  9
$LIMMAX
 10
292.896
 20
43.747
  9
$ORTHOMODE
 70
     0
  9
$REGENMODE
 70
     1
  9
$FILLMODE
 70
     1
  9
$QTEXTMODE
 70
     0
  9
$MIRRTEXT
 70
     1
  9
$DRAGMODE
 70
     2
  9
$LTSCALE
 40
1.0
  9
$OSMODE
 70
     0
  9
$ATTMODE
 70
     1
  9
$TEXTSIZE
 40
0.2
  9
$TRACEWID
 40
0.05
  9
$TEXTSTYLE
  7
STANDARD
  9
$CLAYER
  8
0
  9
$CELTYPE
  6
BYLAYER
  9
$CECOLOR
 62
   256
  9
$DIMSCALE
 40
1.0
  9
$DIMASZ
 40
0.0
  9
$DIMEXO
 40
0.0625
  9
$DIMDLI
 40
0.38
  9
$DIMRND
 40
0.0
  9
$DIMDLE
 40
0.0
  9
$DIMEXE
 40
0.03
  9
$DIMTP
 40
0.0
  9
$DIMTM
 40
0.0
  9
$DIMTXT
 40
0.075
  9
$DIMCEN
 40
0.09
  9
$DIMTSZ
 40
0.03
  9
$DIMTOL
 70
     0
  9
$DIMLIM
 70
     0
  9
$DIMTIH
 70
     1
  9
$DIMTOH
 70
     1
  9
$DIMSE1
 70
     0
  9
$DIMSE2
 70
     0
  9
$DIMTAD
 70
     0
  9
$DIMZIN
 70
     0
  9
$DIMBLK
  1

  9
$DIMASO
 70
     1
  9
$DIMSHO
 70
     1
  9
$DIMPOST
  1

  9
$DIMAPOST
  1

  9
$DIMALT
 70
     0
  9
$DIMALTD
 70
     2
  9
$DIMALTF
 40
25.4
  9
$DIMLFAC
 40
1.0
  9
$DIMTOFL
 70
     0
  9
$DIMTVP
 40
0.0
  9
$DIMTIX
 70
     0
  9
$DIMSOXD
 70
     0
  9
$DIMSAH
 70
     0
  9
$DIMBLK1
  1

  9
$DIMBLK2
  1

  9
$DIMSTYLE
  2
*UNNAMED
  9
$DIMCLRD
 70
     0
  9
$DIMCLRE
 70
     0
  9
$DIMCLRT
 70
     0
  9
$DIMTFAC
 40
2.4
  9
$DIMGAP
 40
0.09
  9
$LUNITS
 70
     2
  9
$LUPREC
 70
     4
  9
$SKETCHINC
 40
0.1
  9
$FILLETRAD
 40
0.0
  9
$AUNITS
 70
     0
  9
$AUPREC
 70
     0
  9
$MENU
  1
acad
  9
$ELEVATION
 40
0.0
  9
$PELEVATION
 40
0.0
  9
$THICKNESS
 40
0.0
  9
$LIMCHECK
 70
     0
  9
$BLIPMODE
 70
     1
  9
$CHAMFERA
 40
0.0
  9
$CHAMFERB
 40
0.0
  9
$SKPOLY
 70
     0
  9
$TDCREATE
 40
2448315.373408102
  9
$TDUPDATE
 40
2448315.373408102
  9
$TDINDWG
 40
0.0000000000
  9
$TDUSRTIMER
 40
0.0000000000
  9
$USRTIMER
 70
     1
  9
$ANGBASE
 50
0.0
  9
$ANGDIR
 70
     0
  9
$PDMODE
 70
     0
  9
$PDSIZE
 40
0.0
  9
$PLINEWID
 40
0.0
  9
$COORDS
 70
     0
  9
$SPLFRAME
 70
     0
  9
$SPLINETYPE
 70
     6
  9
$SPLINESEGS
 70
     8
  9
$ATTDIA
 70
     0
  9
$ATTREQ
 70
     1
  9
$HANDLING
 70
     0
  9
$HANDSEED
  5
0
  9
$SURFTAB1
 70
     6
  9
$SURFTAB2
 70
     6
  9
$SURFTYPE
 70
     6
  9
$SURFU
 70
     6
  9
$SURFV
 70
     6
  9
$UCSNAME
  2

  9
$UCSORG
 10
0.0
 20
0.0
 30
0.0
  9
$UCSXDIR
 10
1.0
 20
0.0
 30
0.0
  9
$UCSYDIR
 10
0.0
 20
1.0
 30
0.0
  9
$PUCSNAME
  2

  9
$PUCSORG
 10
0.0
 20
0.0
 30
0.0
  9
$PUCSXDIR
 10
1.0
 20
0.0
 30
0.0
  9
$PUCSYDIR
 10
0.0
 20
1.0
 30
0.0
  9
$USERI1
 70
     0
  9
$USERI2
 70
     0
  9
$USERI3
 70
     0
  9
$USERI4
 70
     0
  9
$USERI5
 70
     0
  9
$USERR1
 40
0.0
  9
$USERR2
 40
0.0
  9
$USERR3
 40
0.0
  9
$USERR4
 40
0.0
  9
$USERR5
 40
0.0
  9
$WORLDVIEW
 70
     1
  9
$SHADEDGE
 70
     3
  9
$SHADEDIF
 70
    70
  9
$TILEMODE
 70
     1
  9
$MAXACTVP
 70
    16
  9
$PINSBASE
 10
0.0
 20
0.0
 30
0.0
  9
$PLIMCHECK
 70
     0
  9
$PEXTMIN
 10
1.000000E+20
 20
1.000000E+20
 30
1.000000E+20
  9
$PEXTMAX
 10
-1.000000E+20
 20
-1.000000E+20
 30
-1.000000E+20
  9
$PLIMMIN
 10
0.0
 20
0.0
  9
$PLIMMAX
 10
12.0
 20
9.0
  9
$UNITMODE
 70
     0
  9
$VISRETAIN
 70
     0
  9
$PLINEGEN
 70
     0
  9
$PSLTSCALE
 70
     0
  9
$TREEDEPTH
 70
  3020
  9
$DWGCODEPAGE
  3
iso8859-1
  0
ENDSEC
  0
SECTION
  2
TABLES
  0
TABLE
  2
VPORT
 70
     2
  0
VPORT
  2
*ACTIVE
 70
     0
 10
0.0
 20
0.0
 11
1.0
 21
1.0
 12
293.35785
 22
37.322
 13
0.0
 23
0.0
 14
1.0
 24
1.0
 15
10.0
 25
10.0
 16
0.0
 26
0.0
 36
1.0
 17
0.0
 27
0.0
 37
0.0
 40
14.85
 41
1.611024
 42
50.0
 43
0.0
 44
0.0
 50
0.0
 51
0.0
 71
     0
 72
   100
 73
     1
 74
     0
 75
     0
 76
     0
 77
     0
 78
     0
  0
ENDTAB
  0
TABLE
  2
LTYPE
 70
     1
  0
LTYPE
  2
CONTINUOUS
 70
    64
  3
Solid line
 72
    65
 73
     0
 40
0.0
  0
ENDTAB
  0
TABLE
  2
LAYER
 70
     8
  0
LAYER
  2
0
 70
    64
 62
     7
  6
CONTINUOUS
  0
LAYER
  2
1
 70
    64
 62
     7
  6
CONTINUOUS
  0
LAYER
  2
7
 70
    64
 62
     7
  6
CONTINUOUS
  0
LAYER
  2
8
 70
    64
 62
     7
  6
CONTINUOUS
  0
LAYER
  2
9
 70
    64
 62
     7
  6
CONTINUOUS
  0
LAYER
  2
22
 70
    64
 62
     7
  6
CONTINUOUS
  0
LAYER
  2
25
 70
    64
 62
     7
  6
CONTINUOUS
  0
LAYER
  2
DEFPOINTS
 70
    64
 62
     7
  6
CONTINUOUS
  0
ENDTAB
  0
TABLE
  2
STYLE
 70
     2
  0
STYLE
  2
STANDARD
 70
     0
 40
0.0
 41
1.0
 50
0.0
 71
     0
 42
3.5
  3
txt
  4

  0
STYLE
  2
ROMANC
 70
     0
 40
0.0
 41
1.0
 50
0.0
 71
     0
 42
0.2
  3
ROMANC
  4

  0
ENDTAB
  0
TABLE
  2
VIEW
 70
     0
  0
ENDTAB
  0
TABLE
  2
UCS
 70
     0
  0
ENDTAB
  0
TABLE
  2
APPID
 70
     1
  0
APPID
  2
ACAD
 70
    64
  0
ENDTAB
  0
TABLE
  2
DIMSTYLE
 70
     0
  0
ENDTAB
  0
ENDSEC
  0
SECTION
  2
BLOCKS
  0
BLOCK
  8
0
  2
*D0
 70
    65
 10
0.0
 20
0.0
 30
0.0
  3
*D
  0
LINE
  8
0
  6
BYBLOCK
 62
     0
 10
285.84412
 20
34.515961
 30
0.0
 11
285.84412
 21
35.413093
 31
0.0
  0
LINE
  8
0
  6
BYBLOCK
 62
     0
 10
286.96388
 20
34.515961
 30
0.0
 11
286.96388
 21
35.413093
 31
0.0
  0
LINE
  8
0
  6
BYBLOCK
 62
     0
 10
285.84412
 20
35.383093
 30
0.0
 11
286.19525
 21
35.383093
 31
0.0
  0
LINE
  8
0
  6
BYBLOCK
 62
     0
 10
286.96388
 20
35.383093
 30
0.0
 11
286.61275
 21
35.383093
 31
0.0
  0
LINE
  8
0
  6
BYBLOCK
 62
     0
 10
285.81412
 20
35.353093
 30
0.0
 11
285.87412
 21
35.413093
 31
0.0
  0
LINE
  8
0
  6
BYBLOCK
 62
     0
 10
286.93388
 20
35.353093
 30
0.0
 11
286.99388
 21
35.413093
 31
0.0
  0
TEXT
  8
0
  6
BYBLOCK
 62
     0
 10
286.28525
 20
35.345593
 30
0.0
 40
0.075
  1
1.120
 72
     1
 11
286.404
 21
35.383093
 31
0.0
 73
     2
  0
POINT
  8
DEFPOINTS
  6
BYBLOCK
 62
     0
 10
285.84412
 20
34.453461
 30
0.0
  0
POINT
  8
DEFPOINTS
  6
BYBLOCK
 62
     0
 10
286.96388
 20
34.453461
 30
0.0
  0
POINT
  8
DEFPOINTS
  6
BYBLOCK
 62
     0
 10
286.96388
 20
35.383093
 30
0.0
  0
ENDBLK
  8
0
  0
ENDSEC
  0
SECTION
  2
ENTITIES
  0
TEXT
  8
0
  6
CONTINUOUS
 10
286.909
 20
41.324
 30
0.0
 40
0.1
  1
2
  7
ROMANC
  0
TEXT
  8
0
  6
CONTINUOUS
 10
283.926
 20
41.768
 30
0.0
 40
0.3
  1
ESCALA  1:50
  7
ROMANC
  0
POLYLINE
  8
0
  6
CONTINUOUS
 66
     1
 10
0.0
 20
0.0
 30
0.0
 70
     1
  0
VERTEX
  8
0
  6
CONTINUOUS
 10
281.396
 20
44.747
 30
0.0
  0
VERTEX
  8
0
  6
CONTINUOUS
 10
291.896
 20
44.747
 30
0.0
  0
VERTEX
  8
0
  6
CONTINUOUS
 10
291.896
 20
29.897
 30
0.0
  0
VERTEX
  8
0
  6
CONTINUOUS
 10
281.396
 20
29.897
 30
0.0
  0
SEQEND
  8
0
  0
TEXT
  8
0
  6
CONTINUOUS
 10
283.926
 20
42.381
 30
0.0
 40
0.3
  1
TIPUS   NT168
  7
ROMANC
  0
TEXT
  8
0
  6
CONTINUOUS
 10
283.945
 20
41.099
 30
0.0
 40
0.3
  1
S = 168 dm
  7
ROMANC
  0
TEXT
  8
0
  6
CONTINUOUS
 10
283.922
 20
40.529
 30
0.0
 40
0.3
  1
P = 52 dm
  7
ROMANC
  0
ARC
  8
1
  6
CONTINUOUS
 10
286.404
 20
33.922894
 30
0.0
 40
0.832106
 50
52.721333
 51
127.278664
  0
ARC
  8
1
  6
CONTINUOUS
 10
286.810479
 20
34.477354
 30
0.0
 40
0.145251
 50
351.146997
 51
47.825261
  0
LINE
  8
1
  6
CONTINUOUS
 10
285.904
 20
33.155
 30
0.0
 11
285.854
 21
34.455
 31
0.0
  0
ARC
  8
1
  6
CONTINUOUS
 10
285.997521
 20
34.477354
 30
0.0
 40
0.145251
 50
132.174739
 51
188.853003
  0
ARC
  8
1
  6
CONTINUOUS
 10
286.404
 20
33.155
 30
0.0
 40
0.2
 50
180.0
 51
0.0
  0
TEXT
  8
1
  6
CONTINUOUS
 10
286.282
 20
32.766
 30
0.0
 40
0.075
  1
0.40
  7
ROMANC
  0
LINE
  8
1
  6
CONTINUOUS
 10
286.054
 20
32.803
 30
0.0
 11
286.204
 21
32.803
 31
0.0
  0
LINE
  8
1
  6
CONTINUOUS
 10
286.754
 20
32.803
 30
0.0
 11
286.604
 21
32.803
 31
0.0
  0
LINE
  8
1
  6
CONTINUOUS
 10
286.242
 20
32.822
 30
0.0
 11
286.166
 21
32.784
 31
0.0
  0
LINE
  8
1
  6
CONTINUOUS
 10
286.566
 20
32.784
 30
0.0
 11
286.642
 21
32.822
 31
0.0
  0
LINE
  8
1
  6
CONTINUOUS
 10
286.204
 20
33.117
 30
0.0
 11
286.204
 21
32.765
 31
0.0
  0
LINE
  8
1
  6
CONTINUOUS
 10
286.604
 20
33.117
 30
0.0
 11
286.604
 21
32.765
 31
0.0
  0
LINE
  8
1
  6
CONTINUOUS
 10
286.204
 20
33.155
 30
0.0
 11
285.904
 21
33.155
 31
0.0
  0
LINE
  8
1
  6
CONTINUOUS
 10
286.954
 20
34.455
 30
0.0
 11
286.904
 21
33.155
 31
0.0
  0
TEXT
  8
1
  6
CONTINUOUS
 10
286.294
 20
32.598
 30
0.0
 40
0.075
  1
1.00
  7
ROMANC
  0
LINE
  8
1
  6
CONTINUOUS
 10
286.256
 20
32.636
 30
0.0
 11
285.904
 21
32.636
 31
0.0
  0
LINE
  8
1
  6
CONTINUOUS
 10
286.551
 20
32.636
 30
0.0
 11
286.904
 21
32.636
 31
0.0
  0
LINE
  8
1
  6
CONTINUOUS
 10
285.866
 20
32.617
 30
0.0
 11
285.942
 21
32.655
 31
0.0
  0
LINE
  8
1
  6
CONTINUOUS
 10
286.942
 20
32.655
 30
0.0
 11
286.866
 21
32.617
 31
0.0
  0
LINE
  8
1
  6
CONTINUOUS
 10
285.904
 20
33.117
 30
0.0
 11
285.904
 21
32.598
 31
0.0
  0
LINE
  8
1
  6
CONTINUOUS
 10
286.904
 20
33.117
 30
0.0
 11
286.904
 21
32.598
 31
0.0
  0
LINE
  8
1
  6
CONTINUOUS
 10
286.904
 20
33.155
 30
0.0
 11
286.604
 21
33.155
 31
0.0
  0
TEXT
  8
1
  6
CONTINUOUS
 10
287.132
 20
33.374
 30
0.0
 40
0.075
  1
0.20
 50
90.0
  7
ROMANC
  0
LINE
  8
1
  6
CONTINUOUS
 10
287.094
 20
32.805
 30
0.0
 11
287.094
 21
32.955
 31
0.0
  0
LINE
  8
1
  6
CONTINUOUS
 10
287.094
 20
33.336
 30
0.0
 11
287.094
 21
33.155
 31
0.0
  0
LINE
  8
1
  6
CONTINUOUS
 10
287.075
 20
32.992
 30
0.0
 11
287.113
 21
32.918
 31
0.0
  0
LINE
  8
1
  6
CONTINUOUS
 10
287.113
 20
33.118
 30
0.0
 11
287.075
 21
33.192
 31
0.0
  0
LINE
  8
1
  6
CONTINUOUS
 10
286.442
 20
32.955
 30
0.0
 11
287.132
 21
32.955
 31
0.0
  0
LINE
  8
1
  6
CONTINUOUS
 10
286.942
 20
33.155
 30
0.0
 11
287.132
 21
33.155
 31
0.0
  0
TEXT
  8
1
  6
CONTINUOUS
 10
287.344
 20
33.695
 30
0.0
 40
0.075
  1
1.30
 50
90.0
  7
ROMANC
  0
LINE
  8
1
  6
CONTINUOUS
 10
287.307
 20
33.657
 30
0.0
 11
287.307
 21
33.155
 31
0.0
  0
LINE
  8
1
  6
CONTINUOUS
 10
287.307
 20
33.952
 30
0.0
 11
287.307
 21
34.455
 31
0.0
  0
LINE
  8
1
  6
CONTINUOUS
 10
287.326
 20
33.118
 30
0.0
 11
287.288
 21
33.192
 31
0.0
  0
LINE
  8
1
  6
CONTINUOUS
 10
287.288
 20
34.492
 30
0.0
 11
287.326
 21
34.418
 31
0.0
  0
LINE
  8
1
  6
CONTINUOUS
 10
286.942
 20
33.155
 30
0.0
 11
287.345
 21
33.155
 31
0.0
  0
LINE
  8
1
  6
CONTINUOUS
 10
286.992
 20
34.455
 30
0.0
 11
287.345
 21
34.455
 31
0.0
  0
TEXT
  8
1
  6
CONTINUOUS
 10
287.588
 20
33.745
 30
0.0
 40
0.075
  1
1.80
 50
90.0
  7
ROMANC
  0
LINE
  8
1
  6
CONTINUOUS
 10
287.55
 20
33.707
 30
0.0
 11
287.55
 21
32.955
 31
0.0
  0
LINE
  8
1
  6
CONTINUOUS
 10
287.55
 20
34.002
 30
0.0
 11
287.55
 21
34.755
 31
0.0
  0
LINE
  8
1
  6
CONTINUOUS
 10
287.569
 20
32.918
 30
0.0
 11
287.531
 21
32.992
 31
0.0
  0
LINE
  8
1
  6
CONTINUOUS
 10
287.531
 20
34.792
 30
0.0
 11
287.569
 21
34.718
 31
0.0
  0
LINE
  8
1
  6
CONTINUOUS
 10
286.442
 20
32.955
 30
0.0
 11
287.588
 21
32.955
 31
0.0
  0
LINE
  8
1
  6
CONTINUOUS
 10
286.442
 20
34.755
 30
0.0
 11
287.588
 21
34.755
 31
0.0
  0
TEXT
  8
1
  6
CONTINUOUS
 10
287.344
 20
34.5
 30
0.0
 40
0.075
  1
0.30
 50
90.0
  7
ROMANC
  0
LINE
  8
1
  6
CONTINUOUS
 10
287.307
 20
34.305
 30
0.0
 11
287.307
 21
34.455
 31
0.0
  0
LINE
  8
1
  6
CONTINUOUS
 10
287.307
 20
34.905
 30
0.0
 11
287.307
 21
34.755
 31
0.0
  0
LINE
  8
1
  6
CONTINUOUS
 10
287.288
 20
34.492
 30
0.0
 11
287.326
 21
34.418
 31
0.0
  0
LINE
  8
1
  6
CONTINUOUS
 10
287.326
 20
34.718
 30
0.0
 11
287.288
 21
34.792
 31
0.0
  0
LINE
  8
1
  6
CONTINUOUS
 10
286.992
 20
34.455
 30
0.0
 11
287.345
 21
34.455
 31
0.0
  0
LINE
  8
1
  6
CONTINUOUS
 10
286.442
 20
34.755
 30
0.0
 11
287.345
 21
34.755
 31
0.0
  0
ARC
  8
1
  6
CONTINUOUS
 10
286.404
 20
33.922894
 30
0.0
 40
0.842106
 50
52.721333
 51
127.278664
  0
ARC
  8
1
  6
CONTINUOUS
 10
286.404
 20
33.922894
 30
0.0
 40
0.852106
 50
52.721333
 51
127.278664
  0
ARC
  8
1
  6
CONTINUOUS
 10
286.810479
 20
34.477354
 30
0.0
 40
0.155251
 50
351.146997
 51
47.825261
  0
ARC
  8
1
  6
CONTINUOUS
 10
286.810479
 20
34.477354
 30
0.0
 40
0.165251
 50
351.146997
 51
47.825261
  0
LINE
  8
1
  6
CONTINUOUS
 10
286.963
 20
34.454
 30
0.0
 11
286.913
 21
33.145
 31
0.0
  0
LINE
  8
1
  6
CONTINUOUS
 10
286.973
 20
34.454
 30
0.0
 11
286.922
 21
33.135
 31
0.0
  0
LINE
  8
1
  6
CONTINUOUS
 10
286.913
 20
33.145
 30
0.0
 11
286.614
 21
33.145
 31
0.0
  0
LINE
  8
1
  6
CONTINUOUS
 10
286.922
 20
33.135
 30
0.0
 11
286.623
 21
33.135
 31
0.0
  0
ARC
  8
1
  6
CONTINUOUS
 10
286.404
 20
33.155
 30
0.0
 40
0.21
 50
182.729403
 51
357.270597
  0
ARC
  8
1
  6
CONTINUOUS
 10
286.404
 20
33.155
 30
0.0
 40
0.22
 50
185.215908
 51
354.784092
  0
LINE
  8
1
  6
CONTINUOUS
 10
286.194
 20
33.145
 30
0.0
 11
285.894
 21
33.145
 31
0.0
  0
LINE
  8
1
  6
CONTINUOUS
 10
286.185
 20
33.135
 30
0.0
 11
285.885
 21
33.135
 31
0.0
  0
LINE
  8
1
  6
CONTINUOUS
 10
285.894
 20
33.145
 30
0.0
 11
285.844
 21
34.454
 31
0.0
  0
LINE
  8
1
  6
CONTINUOUS
 10
285.885
 20
33.135
 30
0.0
 11
285.834
 21
34.454
 31
0.0
  0
ARC
  8
1
  6
CONTINUOUS
 10
285.997521
 20
34.477354
 30
0.0
 40
0.155251
 50
132.174739
 51
188.853003
  0
ARC
  8
1
  6
CONTINUOUS
 10
285.997521
 20
34.477354
 30
0.0
 40
0.165251
 50
132.174739
 51
188.853003
  0
LINE
  8
0
  6
BYBLOCK
 62
     0
 10
285.84412
 20
34.515961
 30
0.0
 11
285.84412
 21
35.413093
 31
0.0
  0
LINE
  8
0
  6
BYBLOCK
 62
     0
 10
286.96388
 20
34.515961
 30
0.0
 11
286.96388
 21
35.413093
 31
0.0
  0
LINE
  8
0
  6
BYBLOCK
 62
     0
 10
285.84412
 20
35.383093
 30
0.0
 11
286.19525
 21
35.383093
 31
0.0
  0
LINE
  8
0
  6
BYBLOCK
 62
     0
 10
286.96388
 20
35.383093
 30
0.0
 11
286.61275
 21
35.383093
 31
0.0
  0
LINE
  8
0
  6
BYBLOCK
 62
     0
 10
285.81412
 20
35.353093
 30
0.0
 11
285.87412
 21
35.413093
 31
0.0
  0
LINE
  8
0
  6
BYBLOCK
 62
     0
 10
286.93388
 20
35.353093
 30
0.0
 11
286.99388
 21
35.413093
 31
0.0
  0
TEXT
  8
0
  6
BYBLOCK
 62
     0
 10
286.28525
 20
35.345593
 30
0.0
 40
0.075
  1
1.120
 72
     1
 11
286.404
 21
35.383093
 31
0.0
 73
     2
  0
POINT
  8
DEFPOINTS
  6
BYBLOCK
 62
     0
 10
285.84412
 20
34.453461
 30
0.0
  0
POINT
  8
DEFPOINTS
  6
BYBLOCK
 62
     0
 10
286.96388
 20
34.453461
 30
0.0
  0
POINT
  8
DEFPOINTS
  6
BYBLOCK
 62
     0
 10
286.96388
 20
35.383093
 30
0.0
  0
ENDSEC
  0
EOF
