  0
SECTION
  2
HEADER
  9
$ACADVER
  1
AC1009
  9
$INSBASE
 10
105.464027
 20
-4.528761
 30
0.0
  9
$EXTMIN
 10
0.0
 20
-27.532393
 30
0.0
  9
$EXTMAX
 10
351.54669
 20
44.747444
 30
0.0
  9
$LIMMIN
 10
0.0
 20
0.0
  9
$LIMMAX
 10
410.0
 20
287.0
  9
$ORTHOMODE
 70
     0
  9
$REGENMODE
 70
     1
  9
$FILLMODE
 70
     1
  9
$QTEXTMODE
 70
     0
  9
$MIRRTEXT
 70
     1
  9
$DRAGMODE
 70
     2
  9
$LTSCALE
 40
25.0
  9
$OSMODE
 70
    32
  9
$ATTMODE
 70
     1
  9
$TEXTSIZE
 40
0.1
  9
$TRACEWID
 40
1.0
  9
$TEXTSTYLE
  7
ROMANC
  9
$CLAYER
  8
0
  9
$CELTYPE
  6
BYLAYER
  9
$CECOLOR
 62
   256
  9
$DIMSCALE
 40
1.5
  9
$DIMASZ
 40
0.1
  9
$DIMEXO
 40
0.01
  9
$DIMDLI
 40
7.0
  9
$DIMRND
 40
0.0
  9
$DIMDLE
 40
0.0
  9
$DIMEXE
 40
0.01
  9
$DIMTP
 40
0.0
  9
$DIMTM
 40
0.0
  9
$DIMTXT
 40
0.05
  9
$DIMCEN
 40
0.1
  9
$DIMTSZ
 40
0.0
  9
$DIMTOL
 70
     0
  9
$DIMLIM
 70
     0
  9
$DIMTIH
 70
     0
  9
$DIMTOH
 70
     0
  9
$DIMSE1
 70
     0
  9
$DIMSE2
 70
     0
  9
$DIMTAD
 70
     1
  9
$DIMZIN
 70
     0
  9
$DIMBLK
  1

  9
$DIMASO
 70
     1
  9
$DIMSHO
 70
     0
  9
$DIMPOST
  1

  9
$DIMAPOST
  1

  9
$DIMALT
 70
     0
  9
$DIMALTD
 70
     2
  9
$DIMALTF
 40
25.4
  9
$DIMLFAC
 40
1.0
  9
$DIMTOFL
 70
     1
  9
$DIMTVP
 40
0.0
  9
$DIMTIX
 70
     1
  9
$DIMSOXD
 70
     0
  9
$DIMSAH
 70
     0
  9
$DIMBLK1
  1

  9
$DIMBLK2
  1

  9
$DIMSTYLE
  2
SILVIA
  9
$DIMCLRD
 70
     0
  9
$DIMCLRE
 70
     0
  9
$DIMCLRT
 70
     0
  9
$DIMTFAC
 40
70.0
  9
$DIMGAP
 40
0.09
  9
$LUNITS
 70
     2
  9
$LUPREC
 70
     2
  9
$SKETCHINC
 40
1.0
  9
$FILLETRAD
 40
0.0
  9
$AUNITS
 70
     0
  9
$AUPREC
 70
     0
  9
$MENU
  1
acad
  9
$ELEVATION
 40
0.0
  9
$PELEVATION
 40
0.0
  9
$THICKNESS
 40
0.0
  9
$LIMCHECK
 70
     0
  9
$BLIPMODE
 70
     0
  9
$CHAMFERA
 40
0.0
  9
$CHAMFERB
 40
0.0
  9
$SKPOLY
 70
     0
  9
$TDCREATE
 40
2450128.538114004
  9
$TDUPDATE
 40
2450207.429278935
  9
$TDINDWG
 40
0.0067130787
  9
$TDUSRTIMER
 40
0.0067130787
  9
$USRTIMER
 70
     1
  9
$ANGBASE
 50
0.0
  9
$ANGDIR
 70
     0
  9
$PDMODE
 70
     0
  9
$PDSIZE
 40
0.0
  9
$PLINEWID
 40
0.0
  9
$COORDS
 70
     2
  9
$SPLFRAME
 70
     0
  9
$SPLINETYPE
 70
     6
  9
$SPLINESEGS
 70
     8
  9
$ATTDIA
 70
     0
  9
$ATTREQ
 70
     1
  9
$HANDLING
 70
     0
  9
$HANDSEED
  5
0
  9
$SURFTAB1
 70
     6
  9
$SURFTAB2
 70
     6
  9
$SURFTYPE
 70
     6
  9
$SURFU
 70
     6
  9
$SURFV
 70
     6
  9
$UCSNAME
  2

  9
$UCSORG
 10
0.0
 20
0.0
 30
0.0
  9
$UCSXDIR
 10
1.0
 20
0.0
 30
0.0
  9
$UCSYDIR
 10
0.0
 20
1.0
 30
0.0
  9
$PUCSNAME
  2

  9
$PUCSORG
 10
0.0
 20
0.0
 30
0.0
  9
$PUCSXDIR
 10
1.0
 20
0.0
 30
0.0
  9
$PUCSYDIR
 10
0.0
 20
1.0
 30
0.0
  9
$USERI1
 70
     0
  9
$USERI2
 70
     0
  9
$USERI3
 70
     0
  9
$USERI4
 70
     0
  9
$USERI5
 70
     0
  9
$USERR1
 40
0.0
  9
$USERR2
 40
0.0
  9
$USERR3
 40
0.0
  9
$USERR4
 40
0.0
  9
$USERR5
 40
0.0
  9
$WORLDVIEW
 70
     1
  9
$SHADEDGE
 70
     3
  9
$SHADEDIF
 70
    70
  9
$TILEMODE
 70
     1
  9
$MAXACTVP
 70
    16
  9
$PINSBASE
 10
0.0
 20
0.0
 30
0.0
  9
$PLIMCHECK
 70
     0
  9
$PEXTMIN
 10
1.000000E+20
 20
1.000000E+20
 30
1.000000E+20
  9
$PEXTMAX
 10
-1.000000E+20
 20
-1.000000E+20
 30
-1.000000E+20
  9
$PLIMMIN
 10
0.0
 20
0.0
  9
$PLIMMAX
 10
12.0
 20
9.0
  9
$UNITMODE
 70
     0
  9
$VISRETAIN
 70
     0
  9
$PLINEGEN
 70
     0
  9
$PSLTSCALE
 70
     0
  9
$TREEDEPTH
 70
  3020
  9
$DWGCODEPAGE
  3
iso8859-1
  0
ENDSEC
  0
SECTION
  2
TABLES
  0
TABLE
  2
VPORT
 70
     2
  0
VPORT
  2
*ACTIVE
 70
     0
 10
0.0
 20
0.0
 11
1.0
 21
1.0
 12
295.843694
 22
37.420508
 13
0.0
 23
0.0
 14
1.0
 24
1.0
 15
10.0
 25
10.0
 16
0.0
 26
0.0
 36
1.0
 17
0.0
 27
0.0
 37
0.0
 40
19.439024
 41
1.65
 42
50.0
 43
0.0
 44
0.0
 50
0.0
 51
0.0
 71
     0
 72
   100
 73
     1
 74
     0
 75
     0
 76
     0
 77
     0
 78
     1
  0
ENDTAB
  0
TABLE
  2
LTYPE
 70
     1
  0
LTYPE
  2
CONTINUOUS
 70
    64
  3
Solid line
 72
    65
 73
     0
 40
0.0
  0
ENDTAB
  0
TABLE
  2
LAYER
 70
     3
  0
LAYER
  2
0
 70
    64
 62
     7
  6
CONTINUOUS
  0
LAYER
  2
MESURA
 70
     0
 62
     7
  6
CONTINUOUS
  0
LAYER
  2
DEFPOINTS
 70
    64
 62
     7
  6
CONTINUOUS
  0
ENDTAB
  0
TABLE
  2
STYLE
 70
     2
  0
STYLE
  2
STANDARD
 70
     0
 40
0.0
 41
1.0
 50
0.0
 71
     0
 42
0.1
  3
txt
  4

  0
STYLE
  2
ROMANC
 70
    64
 40
0.0
 41
1.0
 50
0.0
 71
     0
 42
0.1
  3
romanc
  4

  0
ENDTAB
  0
TABLE
  2
VIEW
 70
     0
  0
ENDTAB
  0
TABLE
  2
UCS
 70
     0
  0
ENDTAB
  0
TABLE
  2
APPID
 70
     1
  0
APPID
  2
ACAD
 70
    64
  0
ENDTAB
  0
TABLE
  2
DIMSTYLE
 70
     1
  0
DIMSTYLE
  2
SILVIA
 70
    64
  3

  4

  5

  6

  7

 40
1.5
 41
0.1
 42
0.01
 43
7.0
 44
0.01
 45
0.0
 46
0.0
 47
0.0
 48
0.0
140
0.05
141
0.1
142
0.0
143
25.4
144
1.0
145
0.0
146
70.0
147
0.09
 71
     0
 72
     0
 73
     0
 74
     0
 75
     0
 76
     0
 77
     1
 78
     0
170
     0
171
     2
172
     1
173
     0
174
     1
175
     0
176
     0
177
     0
178
     0
  0
ENDTAB
  0
ENDSEC
  0
SECTION
  2
BLOCKS
  0
BLOCK
  8
0
  2
*D0
 70
    65
 10
0.0
 20
0.0
 30
0.0
  3
*D
  0
LINE
  8
0
  6
BYBLOCK
 62
     0
 10
286.273312
 20
35.597874
 30
0.0
 11
287.724313
 21
35.597874
 31
0.0
  0
LINE
  8
0
  6
BYBLOCK
 62
     0
 10
286.530079
 20
33.847947
 30
0.0
 11
287.724313
 21
33.847947
 31
0.0
  0
LINE
  8
0
  6
BYBLOCK
 62
     0
 10
287.709313
 20
35.447874
 30
0.0
 11
287.709313
 21
33.997947
 31
0.0
  0
SOLID
  8
0
  6
BYBLOCK
 62
     0
 10
287.684313
 20
35.447874
 30
0.0
 11
287.734313
 21
35.447874
 31
0.0
 12
287.709313
 22
35.597874
 32
0.0
 13
287.709313
 23
35.597874
 33
0.0
  0
SOLID
  8
0
  6
BYBLOCK
 62
     0
 10
287.684313
 20
33.997947
 30
0.0
 11
287.734313
 21
33.997947
 31
0.0
 12
287.709313
 22
33.847947
 32
0.0
 13
287.709313
 23
33.847947
 33
0.0
  0
TEXT
  8
0
  6
BYBLOCK
 62
     0
 10
287.671813
 20
34.592553
 30
0.0
 40
0.075
  1
1.75
 50
90.0
  7
ROMANC
 72
     1
 11
287.634313
 21
34.72291
 31
0.0
 73
     2
  0
POINT
  8
DEFPOINTS
  6
BYBLOCK
 62
     0
 10
286.258312
 20
35.597874
 30
0.0
  0
POINT
  8
DEFPOINTS
  6
BYBLOCK
 62
     0
 10
286.515079
 20
33.847947
 30
0.0
  0
POINT
  8
DEFPOINTS
  6
BYBLOCK
 62
     0
 10
287.709313
 20
33.847947
 30
0.0
  0
ENDBLK
  8
0
  0
BLOCK
  8
0
  2
*D1
 70
    65
 10
0.0
 20
0.0
 30
0.0
  3
*D
  0
LINE
  8
0
  6
BYBLOCK
 62
     0
 10
286.286153
 20
35.597615
 30
0.0
 11
287.274888
 21
35.597615
 31
0.0
  0
LINE
  8
0
  6
BYBLOCK
 62
     0
 10
286.873925
 20
34.997874
 30
0.0
 11
287.274888
 21
34.997874
 31
0.0
  0
LINE
  8
0
  6
BYBLOCK
 62
     0
 10
287.259888
 20
35.747615
 30
0.0
 11
287.259888
 21
35.897615
 31
0.0
  0
LINE
  8
0
  6
BYBLOCK
 62
     0
 10
287.259888
 20
34.847874
 30
0.0
 11
287.259888
 21
34.697874
 31
0.0
  0
SOLID
  8
0
  6
BYBLOCK
 62
     0
 10
287.234888
 20
35.747615
 30
0.0
 11
287.284888
 21
35.747615
 31
0.0
 12
287.259888
 22
35.597615
 32
0.0
 13
287.259888
 23
35.597615
 33
0.0
  0
SOLID
  8
0
  6
BYBLOCK
 62
     0
 10
287.234888
 20
34.847874
 30
0.0
 11
287.284888
 21
34.847874
 31
0.0
 12
287.259888
 22
34.997874
 32
0.0
 13
287.259888
 23
34.997874
 33
0.0
  0
LINE
  8
0
  6
BYBLOCK
 62
     0
 10
287.259888
 20
35.597615
 30
0.0
 11
287.259888
 21
34.997874
 31
0.0
  0
TEXT
  8
0
  6
BYBLOCK
 62
     0
 10
287.222388
 20
35.172744
 30
0.0
 40
0.075
  1
0.60
 50
90.0
  7
ROMANC
 72
     1
 11
287.184888
 21
35.297744
 31
0.0
 73
     2
  0
POINT
  8
DEFPOINTS
  6
BYBLOCK
 62
     0
 10
286.271153
 20
35.597615
 30
0.0
  0
POINT
  8
DEFPOINTS
  6
BYBLOCK
 62
     0
 10
286.858925
 20
34.997874
 30
0.0
  0
POINT
  8
DEFPOINTS
  6
BYBLOCK
 62
     0
 10
287.259888
 20
34.997874
 30
0.0
  0
ENDBLK
  8
0
  0
BLOCK
  8
0
  2
*D3
 70
    65
 10
0.0
 20
0.0
 30
0.0
  3
*D
  0
LINE
  8
0
  6
BYBLOCK
 62
     0
 10
286.823925
 20
34.197874
 30
0.0
 11
287.274888
 21
34.197874
 31
0.0
  0
LINE
  8
0
  6
BYBLOCK
 62
     0
 10
286.536547
 20
33.845943
 30
0.0
 11
287.274888
 21
33.845943
 31
0.0
  0
LINE
  8
0
  6
BYBLOCK
 62
     0
 10
287.259888
 20
34.347874
 30
0.0
 11
287.259888
 21
34.497874
 31
0.0
  0
LINE
  8
0
  6
BYBLOCK
 62
     0
 10
287.259888
 20
33.695943
 30
0.0
 11
287.259888
 21
33.545943
 31
0.0
  0
SOLID
  8
0
  6
BYBLOCK
 62
     0
 10
287.234888
 20
34.347874
 30
0.0
 11
287.284888
 21
34.347874
 31
0.0
 12
287.259888
 22
34.197874
 32
0.0
 13
287.259888
 23
34.197874
 33
0.0
  0
SOLID
  8
0
  6
BYBLOCK
 62
     0
 10
287.234888
 20
33.695943
 30
0.0
 11
287.284888
 21
33.695943
 31
0.0
 12
287.259888
 22
33.845943
 32
0.0
 13
287.259888
 23
33.845943
 33
0.0
  0
LINE
  8
0
  6
BYBLOCK
 62
     0
 10
287.259888
 20
34.197874
 30
0.0
 11
287.259888
 21
33.845943
 31
0.0
  0
TEXT
  8
0
  6
BYBLOCK
 62
     0
 10
287.222388
 20
33.896908
 30
0.0
 40
0.075
  1
0.35
 50
90.0
  7
ROMANC
 72
     1
 11
287.184888
 21
34.021908
 31
0.0
 73
     2
  0
POINT
  8
DEFPOINTS
  6
BYBLOCK
 62
     0
 10
286.808925
 20
34.197874
 30
0.0
  0
POINT
  8
DEFPOINTS
  6
BYBLOCK
 62
     0
 10
286.521547
 20
33.845943
 30
0.0
  0
POINT
  8
DEFPOINTS
  6
BYBLOCK
 62
     0
 10
287.259888
 20
33.845943
 30
0.0
  0
ENDBLK
  8
0
  0
BLOCK
  8
0
  2
*D4
 70
    65
 10
0.0
 20
0.0
 30
0.0
  3
*D
  0
LINE
  8
0
  6
BYBLOCK
 62
     0
 10
285.708925
 20
34.182874
 30
0.0
 11
285.708925
 21
32.977564
 31
0.0
  0
LINE
  8
0
  6
BYBLOCK
 62
     0
 10
286.808925
 20
34.182874
 30
0.0
 11
286.808925
 21
32.977564
 31
0.0
  0
LINE
  8
0
  6
BYBLOCK
 62
     0
 10
285.858925
 20
32.992564
 30
0.0
 11
286.658925
 21
32.992564
 31
0.0
  0
SOLID
  8
0
  6
BYBLOCK
 62
     0
 10
285.858925
 20
33.017564
 30
0.0
 11
285.858925
 21
32.967564
 31
0.0
 12
285.708925
 22
32.992564
 32
0.0
 13
285.708925
 23
32.992564
 33
0.0
  0
SOLID
  8
0
  6
BYBLOCK
 62
     0
 10
286.658925
 20
33.017564
 30
0.0
 11
286.658925
 21
32.967564
 31
0.0
 12
286.808925
 22
32.992564
 32
0.0
 13
286.808925
 23
32.992564
 33
0.0
  0
TEXT
  8
0
  6
BYBLOCK
 62
     0
 10
286.128568
 20
33.030064
 30
0.0
 40
0.075
  1
1.10
  7
ROMANC
 72
     1
 11
286.258925
 21
33.067564
 31
0.0
 73
     2
  0
POINT
  8
DEFPOINTS
  6
BYBLOCK
 62
     0
 10
285.708925
 20
34.197874
 30
0.0
  0
POINT
  8
DEFPOINTS
  6
BYBLOCK
 62
     0
 10
286.808925
 20
34.197874
 30
0.0
  0
POINT
  8
DEFPOINTS
  6
BYBLOCK
 62
     0
 10
286.808925
 20
32.992564
 30
0.0
  0
ENDBLK
  8
0
  0
BLOCK
  8
0
  2
*D5
 70
    65
 10
0.0
 20
0.0
 30
0.0
  3
*D
  0
LINE
  8
0
  6
BYBLOCK
 62
     0
 10
286.208925
 20
34.182874
 30
0.0
 11
286.208925
 21
33.433127
 31
0.0
  0
LINE
  8
0
  6
BYBLOCK
 62
     0
 10
286.808925
 20
34.182874
 30
0.0
 11
286.808925
 21
33.433127
 31
0.0
  0
LINE
  8
0
  6
BYBLOCK
 62
     0
 10
286.058925
 20
33.448127
 30
0.0
 11
285.908925
 21
33.448127
 31
0.0
  0
LINE
  8
0
  6
BYBLOCK
 62
     0
 10
286.958925
 20
33.448127
 30
0.0
 11
287.108925
 21
33.448127
 31
0.0
  0
SOLID
  8
0
  6
BYBLOCK
 62
     0
 10
286.058925
 20
33.473127
 30
0.0
 11
286.058925
 21
33.423127
 31
0.0
 12
286.208925
 22
33.448127
 32
0.0
 13
286.208925
 23
33.448127
 33
0.0
  0
SOLID
  8
0
  6
BYBLOCK
 62
     0
 10
286.958925
 20
33.473127
 30
0.0
 11
286.958925
 21
33.423127
 31
0.0
 12
286.808925
 22
33.448127
 32
0.0
 13
286.808925
 23
33.448127
 33
0.0
  0
LINE
  8
0
  6
BYBLOCK
 62
     0
 10
286.208925
 20
33.448127
 30
0.0
 11
286.808925
 21
33.448127
 31
0.0
  0
TEXT
  8
0
  6
BYBLOCK
 62
     0
 10
286.383925
 20
33.485627
 30
0.0
 40
0.075
  1
0.60
  7
ROMANC
 72
     1
 11
286.508925
 21
33.523127
 31
0.0
 73
     2
  0
POINT
  8
DEFPOINTS
  6
BYBLOCK
 62
     0
 10
286.208925
 20
34.197874
 30
0.0
  0
POINT
  8
DEFPOINTS
  6
BYBLOCK
 62
     0
 10
286.808925
 20
34.197874
 30
0.0
  0
POINT
  8
DEFPOINTS
  6
BYBLOCK
 62
     0
 10
286.808925
 20
33.448127
 30
0.0
  0
ENDBLK
  8
0
  0
BLOCK
  8
0
  2
*D6
 70
    65
 10
0.0
 20
0.0
 30
0.0
  3
*D
  0
LINE
  8
0
  6
BYBLOCK
 62
     0
 10
285.658925
 20
35.012874
 30
0.0
 11
285.658925
 21
36.331249
 31
0.0
  0
LINE
  8
0
  6
BYBLOCK
 62
     0
 10
286.858925
 20
35.012874
 30
0.0
 11
286.858925
 21
36.331249
 31
0.0
  0
LINE
  8
0
  6
BYBLOCK
 62
     0
 10
285.808925
 20
36.316249
 30
0.0
 11
286.708925
 21
36.316249
 31
0.0
  0
SOLID
  8
0
  6
BYBLOCK
 62
     0
 10
285.808925
 20
36.341249
 30
0.0
 11
285.808925
 21
36.291249
 31
0.0
 12
285.658925
 22
36.316249
 32
0.0
 13
285.658925
 23
36.316249
 33
0.0
  0
SOLID
  8
0
  6
BYBLOCK
 62
     0
 10
286.708925
 20
36.341249
 30
0.0
 11
286.708925
 21
36.291249
 31
0.0
 12
286.858925
 22
36.316249
 32
0.0
 13
286.858925
 23
36.316249
 33
0.0
  0
TEXT
  8
0
  6
BYBLOCK
 62
     0
 10
286.128568
 20
36.353749
 30
0.0
 40
0.075
  1
1.20
  7
ROMANC
 72
     1
 11
286.258925
 21
36.391249
 31
0.0
 73
     2
  0
POINT
  8
DEFPOINTS
  6
BYBLOCK
 62
     0
 10
285.658925
 20
34.997874
 30
0.0
  0
POINT
  8
DEFPOINTS
  6
BYBLOCK
 62
     0
 10
286.858925
 20
34.997874
 30
0.0
  0
POINT
  8
DEFPOINTS
  6
BYBLOCK
 62
     0
 10
286.858925
 20
36.316249
 30
0.0
  0
ENDBLK
  8
0
  0
BLOCK
  8
0
  2
*D7
 70
    65
 10
0.0
 20
0.0
 30
0.0
  3
*D
  0
LINE
  8
0
  6
BYBLOCK
 62
     0
 10
286.873925
 20
34.997874
 30
0.0
 11
287.274888
 21
34.997874
 31
0.0
  0
LINE
  8
0
  6
BYBLOCK
 62
     0
 10
286.823925
 20
34.197874
 30
0.0
 11
287.274888
 21
34.197874
 31
0.0
  0
LINE
  8
0
  6
BYBLOCK
 62
     0
 10
287.259888
 20
34.847874
 30
0.0
 11
287.259888
 21
34.347874
 31
0.0
  0
SOLID
  8
0
  6
BYBLOCK
 62
     0
 10
287.234888
 20
34.847874
 30
0.0
 11
287.284888
 21
34.847874
 31
0.0
 12
287.259888
 22
34.997874
 32
0.0
 13
287.259888
 23
34.997874
 33
0.0
  0
SOLID
  8
0
  6
BYBLOCK
 62
     0
 10
287.234888
 20
34.347874
 30
0.0
 11
287.284888
 21
34.347874
 31
0.0
 12
287.259888
 22
34.197874
 32
0.0
 13
287.259888
 23
34.197874
 33
0.0
  0
TEXT
  8
0
  6
BYBLOCK
 62
     0
 10
287.222388
 20
34.472874
 30
0.0
 40
0.075
  1
0.80
 50
90.0
  7
ROMANC
 72
     1
 11
287.184888
 21
34.597874
 31
0.0
 73
     2
  0
POINT
  8
DEFPOINTS
  6
BYBLOCK
 62
     0
 10
286.858925
 20
34.997874
 30
0.0
  0
POINT
  8
DEFPOINTS
  6
BYBLOCK
 62
     0
 10
286.808925
 20
34.197874
 30
0.0
  0
POINT
  8
DEFPOINTS
  6
BYBLOCK
 62
     0
 10
287.259888
 20
34.197874
 30
0.0
  0
ENDBLK
  8
0
  0
ENDSEC
  0
SECTION
  2
ENTITIES
  0
TEXT
  8
0
 10
249.762148
 20
-27.532393
 30
0.0
 40
0.1
  1
3.2
  7
ROMANC
  0
LINE
  8
0
 10
291.895795
 20
29.897444
 30
0.0
 11
291.895795
 21
44.747444
 31
0.0
  0
TEXT
  8
0
 10
283.887846
 20
40.56142
 30
0.0
 40
0.3
  1
P = 51.6 dm
  7
ROMANC
  0
LINE
  8
0
 10
281.395795
 20
44.747444
 30
0.0
 11
281.395795
 21
29.897444
 31
0.0
  0
LINE
  8
0
 10
281.395795
 20
29.897444
 30
0.0
 11
291.895795
 21
29.897444
 31
0.0
  0
LINE
  8
0
 10
291.895795
 20
44.747444
 30
0.0
 11
281.395795
 21
44.747444
 31
0.0
  0
TEXT
  8
0
 10
287.122271
 20
41.564915
 30
0.0
 40
0.1
  1
2
  7
ROMANC
  0
TEXT
  8
0
 10
283.925768
 20
41.857589
 30
0.0
 40
0.3
  1
ESCALA  1:50
  7
ROMANC
  0
TEXT
  8
0
 10
283.925768
 20
42.343303
 30
0.0
 40
0.3
  1
TIPUS   NT165B
  7
ROMANC
  0
TEXT
  8
0
 10
283.938862
 20
41.258999
 30
0.0
 40
0.3
  1
S=  165 dm
  7
ROMANC
  0
ARC
  8
0
 10
286.258925
 20
34.997874
 30
0.0
 40
0.59
 50
352.817141
 51
360.0
  0
ARC
  8
0
 10
286.258925
 20
34.997874
 30
0.0
 40
0.59
 50
0.0
 51
22.5
  0
ARC
  8
0
 10
286.258925
 20
34.997874
 30
0.0
 40
0.59
 50
22.5
 51
45.0
  0
ARC
  8
0
 10
286.258925
 20
34.997874
 30
0.0
 40
0.59
 50
45.0
 51
67.5
  0
ARC
  8
0
 10
286.258925
 20
34.997874
 30
0.0
 40
0.59
 50
67.5
 51
90.0
  0
ARC
  8
0
 10
286.258925
 20
34.997874
 30
0.0
 40
0.59
 50
90.0
 51
112.5
  0
ARC
  8
0
 10
286.258925
 20
34.997874
 30
0.0
 40
0.59
 50
112.5
 51
135.0
  0
ARC
  8
0
 10
286.258925
 20
34.997874
 30
0.0
 40
0.59
 50
135.0
 51
157.5
  0
ARC
  8
0
 10
286.258925
 20
34.997874
 30
0.0
 40
0.59
 50
157.5
 51
179.969809
  0
LINE
  8
0
 10
285.668925
 20
34.998185
 30
0.0
 11
285.718319
 21
34.207874
 31
0.0
  0
LINE
  8
0
 10
285.718319
 20
34.207874
 30
0.0
 11
286.219051
 21
34.207874
 31
0.0
  0
ARC
  8
0
 10
286.616274
 20
34.197874
 30
0.0
 40
0.397349
 50
178.557897
 51
199.546908
  0
ARC
  8
0
 10
286.563787
 20
34.179239
 30
0.0
 40
0.341653
 50
199.546908
 51
220.601295
  0
ARC
  8
0
 10
286.530337
 20
34.150567
 30
0.0
 40
0.297596
 50
220.601295
 51
244.207883
  0
ARC
  8
0
 10
286.508925
 20
34.106259
 30
0.0
 40
0.248385
 50
244.207883
 51
270.0
  0
ARC
  8
0
 10
286.508925
 20
34.106259
 30
0.0
 40
0.248385
 50
270.0
 51
295.792117
  0
ARC
  8
0
 10
286.487513
 20
34.150567
 30
0.0
 40
0.297596
 50
295.792117
 51
319.398705
  0
ARC
  8
0
 10
286.454062
 20
34.179239
 30
0.0
 40
0.341653
 50
319.398705
 51
340.453092
  0
ARC
  8
0
 10
286.399775
 20
34.198242
 30
0.0
 40
0.39917
 50
340.489747
 51
0.036654
  0
LINE
  8
0
 10
286.798944
 20
34.198498
 30
0.0
 11
286.844294
 21
34.924102
 31
0.0
  0
ARC
  8
0
 10
286.258925
 20
34.997874
 30
0.0
 40
0.61
 50
352.876776
 51
360.0
  0
ARC
  8
0
 10
286.258925
 20
34.997874
 30
0.0
 40
0.61
 50
360.0
 51
22.5
  0
ARC
  8
0
 10
286.258925
 20
34.997874
 30
0.0
 40
0.61
 50
22.5
 51
45.0
  0
ARC
  8
0
 10
286.258925
 20
34.997874
 30
0.0
 40
0.61
 50
45.0
 51
67.5
  0
ARC
  8
0
 10
286.258925
 20
34.997874
 30
0.0
 40
0.61
 50
67.5
 51
90.0
  0
ARC
  8
0
 10
286.258925
 20
34.997874
 30
0.0
 40
0.61
 50
90.0
 51
112.5
  0
ARC
  8
0
 10
286.258925
 20
34.997874
 30
0.0
 40
0.61
 50
112.5
 51
135.0
  0
ARC
  8
0
 10
286.258925
 20
34.997874
 30
0.0
 40
0.61
 50
135.0
 51
157.5
  0
ARC
  8
0
 10
286.260502
 20
34.997611
 30
0.0
 40
0.611558
 50
157.533807
 51
180.033807
  0
LINE
  8
0
 10
285.648944
 20
34.99725
 30
0.0
 11
285.69953
 21
34.187874
 31
0.0
  0
LINE
  8
0
 10
285.69953
 20
34.187874
 30
0.0
 11
286.199045
 21
34.187874
 31
0.0
  0
ARC
  8
0
 10
286.616274
 20
34.197874
 30
0.0
 40
0.417349
 50
181.372981
 51
199.546908
  0
ARC
  8
0
 10
286.563787
 20
34.179239
 30
0.0
 40
0.361653
 50
199.546908
 51
220.601295
  0
ARC
  8
0
 10
286.530337
 20
34.150567
 30
0.0
 40
0.317596
 50
220.601295
 51
244.207883
  0
ARC
  8
0
 10
286.508925
 20
34.106259
 30
0.0
 40
0.268385
 50
244.207883
 51
270.0
  0
ARC
  8
0
 10
286.508925
 20
34.106259
 30
0.0
 40
0.268385
 50
270.0
 51
295.792117
  0
ARC
  8
0
 10
286.487513
 20
34.150567
 30
0.0
 40
0.317596
 50
295.792117
 51
319.398705
  0
ARC
  8
0
 10
286.454062
 20
34.179239
 30
0.0
 40
0.361653
 50
319.398705
 51
340.453092
  0
ARC
  8
0
 10
286.401576
 20
34.197874
 30
0.0
 40
0.417349
 50
340.453092
 51
359.956881
  0
LINE
  8
0
 10
286.818925
 20
34.19756
 30
0.0
 11
286.864217
 21
34.922232
 31
0.0
  0
LINE
  8
0
  6
BYBLOCK
 62
     0
 10
286.873925
 20
34.997874
 30
0.0
 11
287.274888
 21
34.997874
 31
0.0
  0
LINE
  8
0
  6
BYBLOCK
 62
     0
 10
286.823925
 20
34.197874
 30
0.0
 11
287.274888
 21
34.197874
 31
0.0
  0
LINE
  8
0
  6
BYBLOCK
 62
     0
 10
287.259888
 20
34.847874
 30
0.0
 11
287.259888
 21
34.347874
 31
0.0
  0
SOLID
  8
0
  6
BYBLOCK
 62
     0
 10
287.234888
 20
34.847874
 30
0.0
 11
287.284888
 21
34.847874
 31
0.0
 12
287.259888
 22
34.997874
 32
0.0
 13
287.259888
 23
34.997874
 33
0.0
  0
SOLID
  8
0
  6
BYBLOCK
 62
     0
 10
287.234888
 20
34.347874
 30
0.0
 11
287.284888
 21
34.347874
 31
0.0
 12
287.259888
 22
34.197874
 32
0.0
 13
287.259888
 23
34.197874
 33
0.0
  0
TEXT
  8
0
  6
BYBLOCK
 62
     0
 10
287.222388
 20
34.472874
 30
0.0
 40
0.075
  1
0.80
 50
90.0
  7
ROMANC
 72
     1
 11
287.184888
 21
34.597874
 31
0.0
 73
     2
  0
POINT
  8
DEFPOINTS
  6
BYBLOCK
 62
     0
 10
286.858925
 20
34.997874
 30
0.0
  0
POINT
  8
DEFPOINTS
  6
BYBLOCK
 62
     0
 10
286.808925
 20
34.197874
 30
0.0
  0
POINT
  8
DEFPOINTS
  6
BYBLOCK
 62
     0
 10
287.259888
 20
34.197874
 30
0.0
  0
LINE
  8
0
  6
BYBLOCK
 62
     0
 10
285.658925
 20
35.012874
 30
0.0
 11
285.658925
 21
36.331249
 31
0.0
  0
LINE
  8
0
  6
BYBLOCK
 62
     0
 10
286.858925
 20
35.012874
 30
0.0
 11
286.858925
 21
36.331249
 31
0.0
  0
LINE
  8
0
  6
BYBLOCK
 62
     0
 10
285.808925
 20
36.316249
 30
0.0
 11
286.708925
 21
36.316249
 31
0.0
  0
SOLID
  8
0
  6
BYBLOCK
 62
     0
 10
285.808925
 20
36.341249
 30
0.0
 11
285.808925
 21
36.291249
 31
0.0
 12
285.658925
 22
36.316249
 32
0.0
 13
285.658925
 23
36.316249
 33
0.0
  0
SOLID
  8
0
  6
BYBLOCK
 62
     0
 10
286.708925
 20
36.341249
 30
0.0
 11
286.708925
 21
36.291249
 31
0.0
 12
286.858925
 22
36.316249
 32
0.0
 13
286.858925
 23
36.316249
 33
0.0
  0
TEXT
  8
0
  6
BYBLOCK
 62
     0
 10
286.128568
 20
36.353749
 30
0.0
 40
0.075
  1
1.20
  7
ROMANC
 72
     1
 11
286.258925
 21
36.391249
 31
0.0
 73
     2
  0
POINT
  8
DEFPOINTS
  6
BYBLOCK
 62
     0
 10
285.658925
 20
34.997874
 30
0.0
  0
POINT
  8
DEFPOINTS
  6
BYBLOCK
 62
     0
 10
286.858925
 20
34.997874
 30
0.0
  0
POINT
  8
DEFPOINTS
  6
BYBLOCK
 62
     0
 10
286.858925
 20
36.316249
 30
0.0
  0
LINE
  8
0
  6
BYBLOCK
 62
     0
 10
286.208925
 20
34.182874
 30
0.0
 11
286.208925
 21
33.433127
 31
0.0
  0
LINE
  8
0
  6
BYBLOCK
 62
     0
 10
286.808925
 20
34.182874
 30
0.0
 11
286.808925
 21
33.433127
 31
0.0
  0
LINE
  8
0
  6
BYBLOCK
 62
     0
 10
286.058925
 20
33.448127
 30
0.0
 11
285.908925
 21
33.448127
 31
0.0
  0
LINE
  8
0
  6
BYBLOCK
 62
     0
 10
286.958925
 20
33.448127
 30
0.0
 11
287.108925
 21
33.448127
 31
0.0
  0
SOLID
  8
0
  6
BYBLOCK
 62
     0
 10
286.058925
 20
33.473127
 30
0.0
 11
286.058925
 21
33.423127
 31
0.0
 12
286.208925
 22
33.448127
 32
0.0
 13
286.208925
 23
33.448127
 33
0.0
  0
SOLID
  8
0
  6
BYBLOCK
 62
     0
 10
286.958925
 20
33.473127
 30
0.0
 11
286.958925
 21
33.423127
 31
0.0
 12
286.808925
 22
33.448127
 32
0.0
 13
286.808925
 23
33.448127
 33
0.0
  0
LINE
  8
0
  6
BYBLOCK
 62
     0
 10
286.208925
 20
33.448127
 30
0.0
 11
286.808925
 21
33.448127
 31
0.0
  0
TEXT
  8
0
  6
BYBLOCK
 62
     0
 10
286.383925
 20
33.485627
 30
0.0
 40
0.075
  1
0.60
  7
ROMANC
 72
     1
 11
286.508925
 21
33.523127
 31
0.0
 73
     2
  0
POINT
  8
DEFPOINTS
  6
BYBLOCK
 62
     0
 10
286.208925
 20
34.197874
 30
0.0
  0
POINT
  8
DEFPOINTS
  6
BYBLOCK
 62
     0
 10
286.808925
 20
34.197874
 30
0.0
  0
POINT
  8
DEFPOINTS
  6
BYBLOCK
 62
     0
 10
286.808925
 20
33.448127
 30
0.0
  0
LINE
  8
0
  6
BYBLOCK
 62
     0
 10
285.708925
 20
34.182874
 30
0.0
 11
285.708925
 21
32.977564
 31
0.0
  0
LINE
  8
0
  6
BYBLOCK
 62
     0
 10
286.808925
 20
34.182874
 30
0.0
 11
286.808925
 21
32.977564
 31
0.0
  0
LINE
  8
0
  6
BYBLOCK
 62
     0
 10
285.858925
 20
32.992564
 30
0.0
 11
286.658925
 21
32.992564
 31
0.0
  0
SOLID
  8
0
  6
BYBLOCK
 62
     0
 10
285.858925
 20
33.017564
 30
0.0
 11
285.858925
 21
32.967564
 31
0.0
 12
285.708925
 22
32.992564
 32
0.0
 13
285.708925
 23
32.992564
 33
0.0
  0
SOLID
  8
0
  6
BYBLOCK
 62
     0
 10
286.658925
 20
33.017564
 30
0.0
 11
286.658925
 21
32.967564
 31
0.0
 12
286.808925
 22
32.992564
 32
0.0
 13
286.808925
 23
32.992564
 33
0.0
  0
TEXT
  8
0
  6
BYBLOCK
 62
     0
 10
286.128568
 20
33.030064
 30
0.0
 40
0.075
  1
1.10
  7
ROMANC
 72
     1
 11
286.258925
 21
33.067564
 31
0.0
 73
     2
  0
POINT
  8
DEFPOINTS
  6
BYBLOCK
 62
     0
 10
285.708925
 20
34.197874
 30
0.0
  0
POINT
  8
DEFPOINTS
  6
BYBLOCK
 62
     0
 10
286.808925
 20
34.197874
 30
0.0
  0
POINT
  8
DEFPOINTS
  6
BYBLOCK
 62
     0
 10
286.808925
 20
32.992564
 30
0.0
  0
LINE
  8
0
  6
BYBLOCK
 62
     0
 10
286.823925
 20
34.197874
 30
0.0
 11
287.274888
 21
34.197874
 31
0.0
  0
LINE
  8
0
  6
BYBLOCK
 62
     0
 10
286.536547
 20
33.845943
 30
0.0
 11
287.274888
 21
33.845943
 31
0.0
  0
LINE
  8
0
  6
BYBLOCK
 62
     0
 10
287.259888
 20
34.347874
 30
0.0
 11
287.259888
 21
34.497874
 31
0.0
  0
LINE
  8
0
  6
BYBLOCK
 62
     0
 10
287.259888
 20
33.695943
 30
0.0
 11
287.259888
 21
33.545943
 31
0.0
  0
SOLID
  8
0
  6
BYBLOCK
 62
     0
 10
287.234888
 20
34.347874
 30
0.0
 11
287.284888
 21
34.347874
 31
0.0
 12
287.259888
 22
34.197874
 32
0.0
 13
287.259888
 23
34.197874
 33
0.0
  0
SOLID
  8
0
  6
BYBLOCK
 62
     0
 10
287.234888
 20
33.695943
 30
0.0
 11
287.284888
 21
33.695943
 31
0.0
 12
287.259888
 22
33.845943
 32
0.0
 13
287.259888
 23
33.845943
 33
0.0
  0
LINE
  8
0
  6
BYBLOCK
 62
     0
 10
287.259888
 20
34.197874
 30
0.0
 11
287.259888
 21
33.845943
 31
0.0
  0
TEXT
  8
0
  6
BYBLOCK
 62
     0
 10
287.222388
 20
33.896908
 30
0.0
 40
0.075
  1
0.35
 50
90.0
  7
ROMANC
 72
     1
 11
287.184888
 21
34.021908
 31
0.0
 73
     2
  0
POINT
  8
DEFPOINTS
  6
BYBLOCK
 62
     0
 10
286.808925
 20
34.197874
 30
0.0
  0
POINT
  8
DEFPOINTS
  6
BYBLOCK
 62
     0
 10
286.521547
 20
33.845943
 30
0.0
  0
POINT
  8
DEFPOINTS
  6
BYBLOCK
 62
     0
 10
287.259888
 20
33.845943
 30
0.0
  0
LINE
  8
0
  6
BYBLOCK
 62
     0
 10
286.286153
 20
35.597615
 30
0.0
 11
287.274888
 21
35.597615
 31
0.0
  0
LINE
  8
0
  6
BYBLOCK
 62
     0
 10
286.873925
 20
34.997874
 30
0.0
 11
287.274888
 21
34.997874
 31
0.0
  0
LINE
  8
0
  6
BYBLOCK
 62
     0
 10
287.259888
 20
35.747615
 30
0.0
 11
287.259888
 21
35.897615
 31
0.0
  0
LINE
  8
0
  6
BYBLOCK
 62
     0
 10
287.259888
 20
34.847874
 30
0.0
 11
287.259888
 21
34.697874
 31
0.0
  0
SOLID
  8
0
  6
BYBLOCK
 62
     0
 10
287.234888
 20
35.747615
 30
0.0
 11
287.284888
 21
35.747615
 31
0.0
 12
287.259888
 22
35.597615
 32
0.0
 13
287.259888
 23
35.597615
 33
0.0
  0
SOLID
  8
0
  6
BYBLOCK
 62
     0
 10
287.234888
 20
34.847874
 30
0.0
 11
287.284888
 21
34.847874
 31
0.0
 12
287.259888
 22
34.997874
 32
0.0
 13
287.259888
 23
34.997874
 33
0.0
  0
LINE
  8
0
  6
BYBLOCK
 62
     0
 10
287.259888
 20
35.597615
 30
0.0
 11
287.259888
 21
34.997874
 31
0.0
  0
TEXT
  8
0
  6
BYBLOCK
 62
     0
 10
287.222388
 20
35.172744
 30
0.0
 40
0.075
  1
0.60
 50
90.0
  7
ROMANC
 72
     1
 11
287.184888
 21
35.297744
 31
0.0
 73
     2
  0
POINT
  8
DEFPOINTS
  6
BYBLOCK
 62
     0
 10
286.271153
 20
35.597615
 30
0.0
  0
POINT
  8
DEFPOINTS
  6
BYBLOCK
 62
     0
 10
286.858925
 20
34.997874
 30
0.0
  0
POINT
  8
DEFPOINTS
  6
BYBLOCK
 62
     0
 10
287.259888
 20
34.997874
 30
0.0
  0
LINE
  8
0
  6
BYBLOCK
 62
     0
 10
286.273312
 20
35.597874
 30
0.0
 11
287.724313
 21
35.597874
 31
0.0
  0
LINE
  8
0
  6
BYBLOCK
 62
     0
 10
286.530079
 20
33.847947
 30
0.0
 11
287.724313
 21
33.847947
 31
0.0
  0
LINE
  8
0
  6
BYBLOCK
 62
     0
 10
287.709313
 20
35.447874
 30
0.0
 11
287.709313
 21
33.997947
 31
0.0
  0
SOLID
  8
0
  6
BYBLOCK
 62
     0
 10
287.684313
 20
35.447874
 30
0.0
 11
287.734313
 21
35.447874
 31
0.0
 12
287.709313
 22
35.597874
 32
0.0
 13
287.709313
 23
35.597874
 33
0.0
  0
SOLID
  8
0
  6
BYBLOCK
 62
     0
 10
287.684313
 20
33.997947
 30
0.0
 11
287.734313
 21
33.997947
 31
0.0
 12
287.709313
 22
33.847947
 32
0.0
 13
287.709313
 23
33.847947
 33
0.0
  0
TEXT
  8
0
  6
BYBLOCK
 62
     0
 10
287.671813
 20
34.592553
 30
0.0
 40
0.075
  1
1.75
 50
90.0
  7
ROMANC
 72
     1
 11
287.634313
 21
34.72291
 31
0.0
 73
     2
  0
POINT
  8
DEFPOINTS
  6
BYBLOCK
 62
     0
 10
286.258312
 20
35.597874
 30
0.0
  0
POINT
  8
DEFPOINTS
  6
BYBLOCK
 62
     0
 10
286.515079
 20
33.847947
 30
0.0
  0
POINT
  8
DEFPOINTS
  6
BYBLOCK
 62
     0
 10
287.709313
 20
33.847947
 30
0.0
  0
ARC
  8
0
 10
286.258925
 20
34.997874
 30
0.0
 40
0.6
 50
352.847331
 51
0.0
  0
ARC
  8
0
 10
286.258925
 20
34.997874
 30
0.0
 40
0.6
 50
0.0
 51
22.5
  0
ARC
  8
0
 10
286.258925
 20
34.997874
 30
0.0
 40
0.6
 50
22.5
 51
45.0
  0
ARC
  8
0
 10
286.258925
 20
34.997874
 30
0.0
 40
0.6
 50
45.0
 51
67.5
  0
ARC
  8
0
 10
286.258925
 20
34.997874
 30
0.0
 40
0.6
 50
67.5
 51
90.0
  0
ARC
  8
0
 10
286.258925
 20
34.997874
 30
0.0
 40
0.6
 50
90.0
 51
112.5
  0
ARC
  8
0
 10
286.258925
 20
34.997874
 30
0.0
 40
0.6
 50
112.5
 51
135.0
  0
ARC
  8
0
 10
286.258925
 20
34.997874
 30
0.0
 40
0.6
 50
135.0
 51
157.5
  0
ARC
  8
0
 10
286.258925
 20
34.997874
 30
0.0
 40
0.6
 50
157.5
 51
180.0
  0
LINE
  8
0
 10
285.658925
 20
34.997874
 30
0.0
 11
285.708925
 21
34.197874
 31
0.0
  0
LINE
  8
0
 10
285.708925
 20
34.197874
 30
0.0
 11
286.208925
 21
34.197874
 31
0.0
  0
ARC
  8
0
 10
286.616274
 20
34.197874
 30
0.0
 40
0.407349
 50
180.0
 51
199.546908
  0
ARC
  8
0
 10
286.563787
 20
34.179239
 30
0.0
 40
0.351653
 50
199.546908
 51
220.601295
  0
ARC
  8
0
 10
286.530337
 20
34.150567
 30
0.0
 40
0.307596
 50
220.601295
 51
244.207883
  0
ARC
  8
0
 10
286.508925
 20
34.106259
 30
0.0
 40
0.258385
 50
244.207883
 51
270.0
  0
ARC
  8
0
 10
286.508925
 20
34.106259
 30
0.0
 40
0.258385
 50
270.0
 51
295.792117
  0
ARC
  8
0
 10
286.487513
 20
34.150567
 30
0.0
 40
0.307596
 50
295.792117
 51
319.398705
  0
ARC
  8
0
 10
286.454062
 20
34.179239
 30
0.0
 40
0.351653
 50
319.398705
 51
340.453092
  0
ARC
  8
0
 10
286.401576
 20
34.197874
 30
0.0
 40
0.407349
 50
340.453092
 51
0.0
  0
LINE
  8
0
 10
286.808925
 20
34.197874
 30
0.0
 11
286.858925
 21
34.997874
 31
0.0
  0
LINE
  8
0
 10
286.858925
 20
34.997874
 30
0.0
 11
286.854255
 21
34.923166
 31
0.0
  0
ENDSEC
  0
EOF
