  0
SECTION
  2
HEADER
  9
$ACADVER
  1
AC1009
  9
$INSBASE
 10
258.977249
 20
27.539131
 30
0.0
  9
$EXTMIN
 10
140.175068
 20
-27.532393
 30
0.0
  9
$EXTMAX
 10
351.54669
 20
43.022959
 30
0.0
  9
$LIMMIN
 10
0.0
 20
0.0
  9
$LIMMAX
 10
410.0
 20
287.0
  9
$ORTHOMODE
 70
     0
  9
$REGENMODE
 70
     1
  9
$FILLMODE
 70
     1
  9
$QTEXTMODE
 70
     0
  9
$MIRRTEXT
 70
     1
  9
$DRAGMODE
 70
     2
  9
$LTSCALE
 40
25.0
  9
$OSMODE
 70
    32
  9
$ATTMODE
 70
     1
  9
$TEXTSIZE
 40
0.1
  9
$TRACEWID
 40
1.0
  9
$TEXTSTYLE
  7
ROMANC
  9
$CLAYER
  8
0
  9
$CELTYPE
  6
BYLAYER
  9
$CECOLOR
 62
   256
  9
$DIMSCALE
 40
0.0
  9
$DIMASZ
 40
0.0
  9
$DIMEXO
 40
0.1
  9
$DIMDLI
 40
7.0
  9
$DIMRND
 40
0.0
  9
$DIMDLE
 40
0.0
  9
$DIMEXE
 40
1.8
  9
$DIMTP
 40
0.0
  9
$DIMTM
 40
0.0
  9
$DIMTXT
 40
0.03
  9
$DIMCEN
 40
1.5
  9
$DIMTSZ
 40
1.0
  9
$DIMTOL
 70
     0
  9
$DIMLIM
 70
     0
  9
$DIMTIH
 70
     0
  9
$DIMTOH
 70
     0
  9
$DIMSE1
 70
     0
  9
$DIMSE2
 70
     0
  9
$DIMTAD
 70
     0
  9
$DIMZIN
 70
     0
  9
$DIMBLK
  1

  9
$DIMASO
 70
     1
  9
$DIMSHO
 70
     0
  9
$DIMPOST
  1

  9
$DIMAPOST
  1

  9
$DIMALT
 70
     0
  9
$DIMALTD
 70
     2
  9
$DIMALTF
 40
25.4
  9
$DIMLFAC
 40
1.0
  9
$DIMTOFL
 70
     1
  9
$DIMTVP
 40
0.0
  9
$DIMTIX
 70
     1
  9
$DIMSOXD
 70
     0
  9
$DIMSAH
 70
     0
  9
$DIMBLK1
  1

  9
$DIMBLK2
  1

  9
$DIMSTYLE
  2
*UNNAMED
  9
$DIMCLRD
 70
     0
  9
$DIMCLRE
 70
     0
  9
$DIMCLRT
 70
     0
  9
$DIMTFAC
 40
116.666667
  9
$DIMGAP
 40
0.09
  9
$LUNITS
 70
     2
  9
$LUPREC
 70
     2
  9
$SKETCHINC
 40
1.0
  9
$FILLETRAD
 40
0.0
  9
$AUNITS
 70
     0
  9
$AUPREC
 70
     0
  9
$MENU
  1
acad
  9
$ELEVATION
 40
0.0
  9
$PELEVATION
 40
0.0
  9
$THICKNESS
 40
0.0
  9
$LIMCHECK
 70
     0
  9
$BLIPMODE
 70
     0
  9
$CHAMFERA
 40
0.0
  9
$CHAMFERB
 40
0.0
  9
$SKPOLY
 70
     0
  9
$TDCREATE
 40
2449967.720908449
  9
$TDUPDATE
 40
2450207.428952199
  9
$TDINDWG
 40
0.0003478009
  9
$TDUSRTIMER
 40
0.0003478009
  9
$USRTIMER
 70
     1
  9
$ANGBASE
 50
0.0
  9
$ANGDIR
 70
     0
  9
$PDMODE
 70
     0
  9
$PDSIZE
 40
0.0
  9
$PLINEWID
 40
0.0
  9
$COORDS
 70
     0
  9
$SPLFRAME
 70
     0
  9
$SPLINETYPE
 70
     6
  9
$SPLINESEGS
 70
     8
  9
$ATTDIA
 70
     0
  9
$ATTREQ
 70
     1
  9
$HANDLING
 70
     0
  9
$HANDSEED
  5
0
  9
$SURFTAB1
 70
     6
  9
$SURFTAB2
 70
     6
  9
$SURFTYPE
 70
     6
  9
$SURFU
 70
     6
  9
$SURFV
 70
     6
  9
$UCSNAME
  2

  9
$UCSORG
 10
0.0
 20
0.0
 30
0.0
  9
$UCSXDIR
 10
1.0
 20
0.0
 30
0.0
  9
$UCSYDIR
 10
0.0
 20
1.0
 30
0.0
  9
$PUCSNAME
  2

  9
$PUCSORG
 10
0.0
 20
0.0
 30
0.0
  9
$PUCSXDIR
 10
1.0
 20
0.0
 30
0.0
  9
$PUCSYDIR
 10
0.0
 20
1.0
 30
0.0
  9
$USERI1
 70
     0
  9
$USERI2
 70
     0
  9
$USERI3
 70
     0
  9
$USERI4
 70
     0
  9
$USERI5
 70
     0
  9
$USERR1
 40
0.0
  9
$USERR2
 40
0.0
  9
$USERR3
 40
0.0
  9
$USERR4
 40
0.0
  9
$USERR5
 40
0.0
  9
$WORLDVIEW
 70
     1
  9
$SHADEDGE
 70
     3
  9
$SHADEDIF
 70
    70
  9
$TILEMODE
 70
     1
  9
$MAXACTVP
 70
    16
  9
$PINSBASE
 10
0.0
 20
0.0
 30
0.0
  9
$PLIMCHECK
 70
     0
  9
$PEXTMIN
 10
1.000000E+20
 20
1.000000E+20
 30
1.000000E+20
  9
$PEXTMAX
 10
-1.000000E+20
 20
-1.000000E+20
 30
-1.000000E+20
  9
$PLIMMIN
 10
0.0
 20
0.0
  9
$PLIMMAX
 10
12.0
 20
9.0
  9
$UNITMODE
 70
     0
  9
$VISRETAIN
 70
     0
  9
$PLINEGEN
 70
     0
  9
$PSLTSCALE
 70
     0
  9
$TREEDEPTH
 70
  3020
  9
$DWGCODEPAGE
  3
iso8859-1
  0
ENDSEC
  0
SECTION
  2
TABLES
  0
TABLE
  2
VPORT
 70
     2
  0
VPORT
  2
*ACTIVE
 70
     0
 10
0.0
 20
0.0
 11
1.0
 21
1.0
 12
259.487073
 22
35.959103
 13
0.0
 23
0.0
 14
1.0
 24
1.0
 15
10.0
 25
10.0
 16
0.0
 26
0.0
 36
1.0
 17
0.0
 27
0.0
 37
0.0
 40
18.028176
 41
1.639742
 42
50.0
 43
0.0
 44
0.0
 50
0.0
 51
0.0
 71
     0
 72
   100
 73
     1
 74
     0
 75
     0
 76
     0
 77
     0
 78
     1
  0
ENDTAB
  0
TABLE
  2
LTYPE
 70
     1
  0
LTYPE
  2
CONTINUOUS
 70
    64
  3
Solid line
 72
    65
 73
     0
 40
0.0
  0
ENDTAB
  0
TABLE
  2
LAYER
 70
     1
  0
LAYER
  2
0
 70
    64
 62
     7
  6
CONTINUOUS
  0
ENDTAB
  0
TABLE
  2
STYLE
 70
     2
  0
STYLE
  2
STANDARD
 70
     0
 40
0.0
 41
1.0
 50
0.0
 71
     0
 42
0.1
  3
txt
  4

  0
STYLE
  2
ROMANC
 70
    64
 40
0.0
 41
1.0
 50
0.0
 71
     0
 42
0.1
  3
romanc
  4

  0
ENDTAB
  0
TABLE
  2
VIEW
 70
     0
  0
ENDTAB
  0
TABLE
  2
UCS
 70
     0
  0
ENDTAB
  0
TABLE
  2
APPID
 70
     1
  0
APPID
  2
ACAD
 70
    64
  0
ENDTAB
  0
TABLE
  2
DIMSTYLE
 70
     0
  0
ENDTAB
  0
ENDSEC
  0
SECTION
  2
BLOCKS
  0
ENDSEC
  0
SECTION
  2
ENTITIES
  0
LINE
  8
0
 10
269.477249
 20
27.539131
 30
0.0
 11
269.477249
 21
42.389131
 31
0.0
  0
LINE
  8
0
 10
258.977249
 20
42.389131
 30
0.0
 11
258.977249
 21
27.539131
 31
0.0
  0
LINE
  8
0
 10
258.977249
 20
27.539131
 30
0.0
 11
269.477249
 21
27.539131
 31
0.0
  0
LINE
  8
0
 10
269.477249
 20
42.389131
 30
0.0
 11
258.977249
 21
42.389131
 31
0.0
  0
TEXT
  8
0
 10
263.814597
 20
32.191049
 30
0.0
 40
0.1
  1
1.15
  7
ROMANC
  0
TEXT
  8
0
 10
263.802117
 20
32.440479
 30
0.0
 40
0.1
  1
0.4
  7
ROMANC
  0
LINE
  8
0
 10
263.31133
 20
32.329976
 30
0.0
 11
263.437493
 21
32.46844
 31
0.0
  0
LINE
  8
0
 10
264.460831
 20
32.329976
 30
0.0
 11
264.586994
 21
32.46844
 31
0.0
  0
LINE
  8
0
 10
263.68633
 20
32.529521
 30
0.0
 11
263.812493
 21
32.667985
 31
0.0
  0
LINE
  8
0
 10
264.085066
 20
32.529521
 30
0.0
 11
264.211229
 21
32.667985
 31
0.0
  0
LINE
  8
0
 10
264.893262
 20
32.608493
 30
0.0
 11
265.019425
 21
32.746957
 31
0.0
  0
LINE
  8
0
 10
264.896242
 20
32.777496
 30
0.0
 11
265.022405
 21
32.91596
 31
0.0
  0
LINE
  8
0
 10
264.880783
 20
33.768344
 30
0.0
 11
265.006946
 21
33.906808
 31
0.0
  0
LINE
  8
0
 10
264.887255
 20
34.288003
 30
0.0
 11
265.013418
 21
34.426467
 31
0.0
  0
TEXT
  8
0
 10
265.062559
 20
32.764739
 30
0.0
 40
0.1
  1
0.15
  7
ROMANC
  0
TEXT
  8
0
 10
265.062559
 20
33.338428
 30
0.0
 40
0.1
  1
1.0
  7
ROMANC
  0
TEXT
  8
0
 10
265.099998
 20
34.024361
 30
0.0
 40
0.1
  1
0.5
  7
ROMANC
  0
TEXT
  8
0
 10
261.507221
 20
39.984991
 30
0.0
 40
0.3
  1
TIPUS   NT165
  7
ROMANC
  0
TEXT
  8
0
 10
264.703725
 20
39.206603
 30
0.0
 40
0.1
  1
2
  7
ROMANC
  0
TEXT
  8
0
 10
261.507221
 20
39.499276
 30
0.0
 40
0.3
  1
ESCALA  1:50
  7
ROMANC
  0
TEXT
  8
0
 10
261.520315
 20
38.900687
 30
0.0
 40
0.3
  1
S = 165 dm
  7
ROMANC
  0
TEXT
  8
0
 10
261.469299
 20
38.203107
 30
0.0
 40
0.3
  1
P = 50 dm
  7
ROMANC
  0
LINE
  8
0
 10
263.948474
 20
34.357235
 30
0.0
 11
264.959323
 21
34.357235
 31
0.0
  0
LINE
  8
0
 10
264.959323
 20
34.357235
 30
0.0
 11
264.95804
 21
33.846266
 31
0.0
  0
LINE
  8
0
 10
264.95804
 20
33.846266
 30
0.0
 11
264.523708
 21
33.84642
 31
0.0
  0
LINE
  8
0
 10
264.95804
 20
33.846266
 30
0.0
 11
264.959323
 21
32.846728
 31
0.0
  0
LINE
  8
0
 10
264.959323
 20
32.846728
 30
0.0
 11
264.523708
 21
32.84642
 31
0.0
  0
LINE
  8
0
 10
264.959323
 20
32.846728
 30
0.0
 11
264.958875
 21
32.683629
 31
0.0
  0
LINE
  8
0
 10
264.958875
 20
32.683629
 30
0.0
 11
263.945483
 21
32.683629
 31
0.0
  0
LINE
  8
0
 10
263.374411
 20
32.845903
 30
0.0
 11
263.374411
 21
32.399208
 31
0.0
  0
LINE
  8
0
 10
263.374411
 20
32.399208
 30
0.0
 11
264.523913
 21
32.399208
 31
0.0
  0
LINE
  8
0
 10
264.523913
 20
32.399208
 30
0.0
 11
264.523708
 21
32.84642
 31
0.0
  0
LINE
  8
0
 10
263.749411
 20
32.845903
 30
0.0
 11
263.749411
 21
32.598753
 31
0.0
  0
LINE
  8
0
 10
263.749411
 20
32.598753
 30
0.0
 11
264.148148
 21
32.598753
 31
0.0
  0
LINE
  8
0
 10
264.148148
 20
32.598753
 30
0.0
 11
264.14941
 21
32.84642
 31
0.0
  0
LINE
  8
0
 10
264.14941
 20
32.84642
 30
0.0
 11
264.523708
 21
32.84642
 31
0.0
  0
LINE
  8
0
 10
264.523708
 20
32.84642
 30
0.0
 11
264.523708
 21
33.84642
 31
0.0
  0
ARC
  8
0
 10
264.086824
 20
33.846224
 30
0.0
 40
0.436885
 50
0.025755
 51
25.48275
  0
ARC
  8
0
 10
264.020172
 20
33.814457
 30
0.0
 40
0.510719
 50
25.48275
 51
48.999326
  0
ARC
  8
0
 10
263.977093
 20
33.764901
 30
0.0
 40
0.576382
 50
48.999326
 51
70.206292
  0
ARC
  8
0
 10
263.949131
 20
33.687208
 30
0.0
 40
0.658954
 50
70.206292
 51
90.025755
  0
ARC
  8
0
 10
263.949131
 20
33.687208
 30
0.0
 40
0.658954
 50
90.025755
 51
109.845218
  0
ARC
  8
0
 10
263.9211
 20
33.764876
 30
0.0
 40
0.576382
 50
109.845218
 51
131.052184
  0
ARC
  8
0
 10
263.877976
 20
33.814393
 30
0.0
 40
0.510719
 50
131.052184
 51
154.56876
  0
ARC
  8
0
 10
263.811296
 20
33.8461
 30
0.0
 40
0.436885
 50
154.56876
 51
180.025755
  0
LINE
  8
0
 10
263.374411
 20
33.845903
 30
0.0
 11
263.374411
 21
32.845903
 31
0.0
  0
LINE
  8
0
 10
263.374411
 20
32.845903
 30
0.0
 11
263.749411
 21
32.845903
 31
0.0
  0
ARC
  8
0
 10
263.863254
 20
32.845903
 30
0.0
 40
0.113843
 50
180.0
 51
208.911201
  0
ARC
  8
0
 10
263.904711
 20
32.868799
 30
0.0
 40
0.161203
 50
208.911201
 51
233.130102
  0
ARC
  8
0
 10
263.931752
 20
32.904854
 30
0.0
 40
0.206271
 50
233.130102
 51
252.742061
  0
ARC
  8
0
 10
263.949411
 20
32.961697
 30
0.0
 40
0.265793
 50
252.742061
 51
270.0
  0
ARC
  8
0
 10
263.949411
 20
32.961697
 30
0.0
 40
0.265793
 50
270.0
 51
287.257939
  0
ARC
  8
0
 10
263.96707
 20
32.904854
 30
0.0
 40
0.206271
 50
287.257939
 51
306.869898
  0
ARC
  8
0
 10
263.994111
 20
32.868799
 30
0.0
 40
0.161203
 50
306.869898
 51
331.088799
  0
ARC
  8
0
 10
264.035568
 20
32.845903
 30
0.0
 40
0.113843
 50
331.088799
 51
0.0
  0
ARC
  8
0
 10
264.035568
 20
32.845903
 30
0.0
 40
0.113843
 50
0.0
 51
0.260009
  0
LINE
  8
0
 10
264.159048
 20
32.83642
 30
0.0
 11
264.533708
 21
32.83642
 31
0.0
  0
LINE
  8
0
 10
264.533708
 20
32.83642
 30
0.0
 11
264.533708
 21
33.846424
 31
0.0
  0
ARC
  8
0
 10
264.086824
 20
33.846224
 30
0.0
 40
0.446885
 50
0.025755
 51
25.48275
  0
ARC
  8
0
 10
264.020172
 20
33.814457
 30
0.0
 40
0.520719
 50
25.48275
 51
48.999326
  0
ARC
  8
0
 10
263.977093
 20
33.764901
 30
0.0
 40
0.586382
 50
48.999326
 51
70.206292
  0
ARC
  8
0
 10
263.949131
 20
33.687208
 30
0.0
 40
0.668954
 50
70.206292
 51
90.025755
  0
ARC
  8
0
 10
263.949131
 20
33.687208
 30
0.0
 40
0.668954
 50
90.025755
 51
109.845218
  0
ARC
  8
0
 10
263.9211
 20
33.764876
 30
0.0
 40
0.586382
 50
109.845218
 51
131.052184
  0
ARC
  8
0
 10
263.877976
 20
33.814393
 30
0.0
 40
0.520719
 50
131.052184
 51
154.56876
  0
ARC
  8
0
 10
263.811296
 20
33.8461
 30
0.0
 40
0.446885
 50
154.56876
 51
180.025467
  0
LINE
  8
0
 10
263.364411
 20
33.845901
 30
0.0
 11
263.364411
 21
32.835903
 31
0.0
  0
LINE
  8
0
 10
263.364411
 20
32.835903
 30
0.0
 11
263.739816
 21
32.835903
 31
0.0
  0
ARC
  8
0
 10
263.863254
 20
32.845903
 30
0.0
 40
0.123843
 50
184.63152
 51
208.911201
  0
ARC
  8
0
 10
263.904711
 20
32.868799
 30
0.0
 40
0.171203
 50
208.911201
 51
233.130102
  0
ARC
  8
0
 10
263.931752
 20
32.904854
 30
0.0
 40
0.216271
 50
233.130102
 51
252.742061
  0
ARC
  8
0
 10
263.949411
 20
32.961697
 30
0.0
 40
0.275793
 50
252.742061
 51
270.0
  0
ARC
  8
0
 10
263.949411
 20
32.961697
 30
0.0
 40
0.275793
 50
270.0
 51
287.257939
  0
ARC
  8
0
 10
263.96707
 20
32.904854
 30
0.0
 40
0.216271
 50
287.257939
 51
306.869898
  0
ARC
  8
0
 10
263.994111
 20
32.868799
 30
0.0
 40
0.171203
 50
306.869898
 51
331.088799
  0
ARC
  8
0
 10
264.035568
 20
32.845903
 30
0.0
 40
0.123843
 50
331.088799
 51
355.608236
  0
LINE
  8
0
 10
264.138877
 20
32.85642
 30
0.0
 11
264.513708
 21
32.85642
 31
0.0
  0
LINE
  8
0
 10
264.513708
 20
32.85642
 30
0.0
 11
264.513708
 21
33.846418
 31
0.0
  0
ARC
  8
0
 10
264.086824
 20
33.846224
 30
0.0
 40
0.426885
 50
0.026056
 51
25.48275
  0
ARC
  8
0
 10
264.020172
 20
33.814457
 30
0.0
 40
0.500719
 50
25.48275
 51
48.999326
  0
ARC
  8
0
 10
263.977093
 20
33.764901
 30
0.0
 40
0.566382
 50
48.999326
 51
70.206292
  0
ARC
  8
0
 10
263.949131
 20
33.687208
 30
0.0
 40
0.648954
 50
70.206292
 51
90.025755
  0
ARC
  8
0
 10
263.949131
 20
33.687208
 30
0.0
 40
0.648954
 50
90.025755
 51
109.845218
  0
ARC
  8
0
 10
263.9211
 20
33.764876
 30
0.0
 40
0.566382
 50
109.845218
 51
131.052184
  0
ARC
  8
0
 10
263.877976
 20
33.814393
 30
0.0
 40
0.500719
 50
131.052184
 51
154.56876
  0
ARC
  8
0
 10
263.811306
 20
33.846097
 30
0.0
 40
0.426895
 50
154.569061
 51
180.026056
  0
LINE
  8
0
 10
263.384411
 20
33.845903
 30
0.0
 11
263.384411
 21
32.855903
 31
0.0
  0
LINE
  8
0
 10
263.384411
 20
32.855903
 30
0.0
 11
263.759894
 21
32.855903
 31
0.0
  0
ARC
  8
0
 10
263.863254
 20
32.845903
 30
0.0
 40
0.103843
 50
174.473908
 51
208.911201
  0
ARC
  8
0
 10
263.904711
 20
32.868799
 30
0.0
 40
0.151203
 50
208.911201
 51
233.130102
  0
ARC
  8
0
 10
263.931752
 20
32.904854
 30
0.0
 40
0.196271
 50
233.130102
 51
252.742061
  0
ARC
  8
0
 10
263.949411
 20
32.961697
 30
0.0
 40
0.255793
 50
252.742061
 51
270.0
  0
ARC
  8
0
 10
263.949411
 20
32.961697
 30
0.0
 40
0.255793
 50
270.0
 51
287.257939
  0
ARC
  8
0
 10
263.96707
 20
32.904854
 30
0.0
 40
0.196271
 50
287.257939
 51
306.869898
  0
ARC
  8
0
 10
263.994111
 20
32.868799
 30
0.0
 40
0.151203
 50
306.869898
 51
331.088799
  0
ARC
  8
0
 10
264.035568
 20
32.845903
 30
0.0
 40
0.103843
 50
331.088799
 51
5.81254
  0
ENDSEC
  0
EOF
