  0
SECTION
  2
HEADER
  9
$ACADVER
  1
AC1009
  9
$INSBASE
 10
105.464027
 20
-4.528761
 30
0.0
  9
$EXTMIN
 10
318.325506
 20
13.643061
 30
0.0
  9
$EXTMAX
 10
328.825506
 20
28.493061
 30
0.0
  9
$LIMMIN
 10
0.0
 20
0.0
  9
$LIMMAX
 10
410.0
 20
287.0
  9
$ORTHOMODE
 70
     0
  9
$REGENMODE
 70
     1
  9
$FILLMODE
 70
     1
  9
$QTEXTMODE
 70
     0
  9
$MIRRTEXT
 70
     1
  9
$DRAGMODE
 70
     2
  9
$LTSCALE
 40
25.0
  9
$OSMODE
 70
    32
  9
$ATTMODE
 70
     1
  9
$TEXTSIZE
 40
0.1
  9
$TRACEWID
 40
1.0
  9
$TEXTSTYLE
  7
ROMANC
  9
$CLAYER
  8
0
  9
$CELTYPE
  6
BYLAYER
  9
$CECOLOR
 62
   256
  9
$DIMSCALE
 40
1.5
  9
$DIMASZ
 40
0.1
  9
$DIMEXO
 40
0.01
  9
$DIMDLI
 40
7.0
  9
$DIMRND
 40
0.0
  9
$DIMDLE
 40
0.0
  9
$DIMEXE
 40
0.01
  9
$DIMTP
 40
0.0
  9
$DIMTM
 40
0.0
  9
$DIMTXT
 40
0.05
  9
$DIMCEN
 40
0.1
  9
$DIMTSZ
 40
0.0
  9
$DIMTOL
 70
     0
  9
$DIMLIM
 70
     0
  9
$DIMTIH
 70
     0
  9
$DIMTOH
 70
     0
  9
$DIMSE1
 70
     0
  9
$DIMSE2
 70
     0
  9
$DIMTAD
 70
     1
  9
$DIMZIN
 70
     0
  9
$DIMBLK
  1

  9
$DIMASO
 70
     1
  9
$DIMSHO
 70
     0
  9
$DIMPOST
  1

  9
$DIMAPOST
  1

  9
$DIMALT
 70
     0
  9
$DIMALTD
 70
     2
  9
$DIMALTF
 40
25.4
  9
$DIMLFAC
 40
1.0
  9
$DIMTOFL
 70
     1
  9
$DIMTVP
 40
0.0
  9
$DIMTIX
 70
     1
  9
$DIMSOXD
 70
     0
  9
$DIMSAH
 70
     0
  9
$DIMBLK1
  1

  9
$DIMBLK2
  1

  9
$DIMSTYLE
  2
SILVIA
  9
$DIMCLRD
 70
     0
  9
$DIMCLRE
 70
     0
  9
$DIMCLRT
 70
     0
  9
$DIMTFAC
 40
70.0
  9
$DIMGAP
 40
0.09
  9
$LUNITS
 70
     2
  9
$LUPREC
 70
     2
  9
$SKETCHINC
 40
1.0
  9
$FILLETRAD
 40
0.0
  9
$AUNITS
 70
     0
  9
$AUPREC
 70
     0
  9
$MENU
  1
acad
  9
$ELEVATION
 40
0.0
  9
$PELEVATION
 40
0.0
  9
$THICKNESS
 40
0.0
  9
$LIMCHECK
 70
     0
  9
$BLIPMODE
 70
     0
  9
$CHAMFERA
 40
0.0
  9
$CHAMFERB
 40
0.0
  9
$SKPOLY
 70
     0
  9
$TDCREATE
 40
2449791.694787731
  9
$TDUPDATE
 40
2450429.334906828
  9
$TDINDWG
 40
1.5209299769
  9
$TDUSRTIMER
 40
1.5209299769
  9
$USRTIMER
 70
     1
  9
$ANGBASE
 50
0.0
  9
$ANGDIR
 70
     0
  9
$PDMODE
 70
     0
  9
$PDSIZE
 40
0.0
  9
$PLINEWID
 40
0.0
  9
$COORDS
 70
     2
  9
$SPLFRAME
 70
     0
  9
$SPLINETYPE
 70
     6
  9
$SPLINESEGS
 70
     8
  9
$ATTDIA
 70
     0
  9
$ATTREQ
 70
     1
  9
$HANDLING
 70
     0
  9
$HANDSEED
  5
0
  9
$SURFTAB1
 70
     6
  9
$SURFTAB2
 70
     6
  9
$SURFTYPE
 70
     6
  9
$SURFU
 70
     6
  9
$SURFV
 70
     6
  9
$UCSNAME
  2

  9
$UCSORG
 10
0.0
 20
0.0
 30
0.0
  9
$UCSXDIR
 10
1.0
 20
0.0
 30
0.0
  9
$UCSYDIR
 10
0.0
 20
1.0
 30
0.0
  9
$PUCSNAME
  2

  9
$PUCSORG
 10
0.0
 20
0.0
 30
0.0
  9
$PUCSXDIR
 10
1.0
 20
0.0
 30
0.0
  9
$PUCSYDIR
 10
0.0
 20
1.0
 30
0.0
  9
$USERI1
 70
     0
  9
$USERI2
 70
     0
  9
$USERI3
 70
     0
  9
$USERI4
 70
     0
  9
$USERI5
 70
     0
  9
$USERR1
 40
0.0
  9
$USERR2
 40
0.0
  9
$USERR3
 40
0.0
  9
$USERR4
 40
0.0
  9
$USERR5
 40
0.0
  9
$WORLDVIEW
 70
     1
  9
$SHADEDGE
 70
     3
  9
$SHADEDIF
 70
    70
  9
$TILEMODE
 70
     1
  9
$MAXACTVP
 70
    16
  9
$PINSBASE
 10
0.0
 20
0.0
 30
0.0
  9
$PLIMCHECK
 70
     0
  9
$PEXTMIN
 10
1.000000E+20
 20
1.000000E+20
 30
1.000000E+20
  9
$PEXTMAX
 10
-1.000000E+20
 20
-1.000000E+20
 30
-1.000000E+20
  9
$PLIMMIN
 10
0.0
 20
0.0
  9
$PLIMMAX
 10
12.0
 20
9.0
  9
$UNITMODE
 70
     0
  9
$VISRETAIN
 70
     0
  9
$PLINEGEN
 70
     0
  9
$PSLTSCALE
 70
     0
  9
$TREEDEPTH
 70
  3020
  9
$DWGCODEPAGE
  3
iso8859-1
  0
ENDSEC
  0
SECTION
  2
TABLES
  0
TABLE
  2
VPORT
 70
     2
  0
VPORT
  2
*ACTIVE
 70
     0
 10
0.0
 20
0.0
 11
1.0
 21
1.0
 12
330.287357
 22
21.068061
 13
0.0
 23
0.0
 14
1.0
 24
1.0
 15
10.0
 25
10.0
 16
0.0
 26
0.0
 36
1.0
 17
0.0
 27
0.0
 37
0.0
 40
14.85
 41
1.611024
 42
50.0
 43
0.0
 44
0.0
 50
0.0
 51
0.0
 71
     0
 72
   100
 73
     1
 74
     0
 75
     0
 76
     0
 77
     0
 78
     1
  0
ENDTAB
  0
TABLE
  2
LTYPE
 70
     1
  0
LTYPE
  2
CONTINUOUS
 70
    64
  3
Solid line
 72
    65
 73
     0
 40
0.0
  0
ENDTAB
  0
TABLE
  2
LAYER
 70
     3
  0
LAYER
  2
0
 70
    64
 62
     7
  6
CONTINUOUS
  0
LAYER
  2
MESURA
 70
     0
 62
     7
  6
CONTINUOUS
  0
LAYER
  2
DEFPOINTS
 70
    64
 62
     7
  6
CONTINUOUS
  0
ENDTAB
  0
TABLE
  2
STYLE
 70
     2
  0
STYLE
  2
STANDARD
 70
     0
 40
0.0
 41
1.0
 50
0.0
 71
     0
 42
0.1
  3
txt
  4

  0
STYLE
  2
ROMANC
 70
    64
 40
0.0
 41
1.0
 50
0.0
 71
     0
 42
0.1
  3
romanc
  4

  0
ENDTAB
  0
TABLE
  2
VIEW
 70
     0
  0
ENDTAB
  0
TABLE
  2
UCS
 70
     0
  0
ENDTAB
  0
TABLE
  2
APPID
 70
     1
  0
APPID
  2
ACAD
 70
    64
  0
ENDTAB
  0
TABLE
  2
DIMSTYLE
 70
     1
  0
DIMSTYLE
  2
SILVIA
 70
     0
  3

  4

  5

  6

  7

 40
1.5
 41
0.1
 42
0.01
 43
7.0
 44
0.01
 45
0.0
 46
0.0
 47
0.0
 48
0.0
140
0.05
141
0.1
142
0.0
143
25.4
144
1.0
145
0.0
146
70.0
147
0.09
 71
     0
 72
     0
 73
     0
 74
     0
 75
     0
 76
     0
 77
     1
 78
     0
170
     0
171
     2
172
     1
173
     0
174
     1
175
     0
176
     0
177
     0
178
     0
  0
ENDTAB
  0
ENDSEC
  0
SECTION
  2
BLOCKS
  0
BLOCK
  8
0
  2
*D34
 70
    65
 10
0.0
 20
0.0
 30
0.0
  3
*D
  0
LINE
  8
0
  6
BYBLOCK
 62
     0
 10
322.869608
 20
17.819217
 30
0.0
 11
322.869608
 21
17.122765
 31
0.0
  0
LINE
  8
0
  6
BYBLOCK
 62
     0
 10
323.619608
 20
17.819217
 30
0.0
 11
323.619608
 21
17.122765
 31
0.0
  0
LINE
  8
0
  6
BYBLOCK
 62
     0
 10
322.719608
 20
17.137765
 30
0.0
 11
322.569608
 21
17.137765
 31
0.0
  0
LINE
  8
0
  6
BYBLOCK
 62
     0
 10
323.769608
 20
17.137765
 30
0.0
 11
323.919608
 21
17.137765
 31
0.0
  0
SOLID
  8
0
  6
BYBLOCK
 62
     0
 10
322.719608
 20
17.162765
 30
0.0
 11
322.719608
 21
17.112765
 31
0.0
 12
322.869608
 22
17.137765
 32
0.0
 13
322.869608
 23
17.137765
 33
0.0
  0
SOLID
  8
0
  6
BYBLOCK
 62
     0
 10
323.769608
 20
17.162765
 30
0.0
 11
323.769608
 21
17.112765
 31
0.0
 12
323.619608
 22
17.137765
 32
0.0
 13
323.619608
 23
17.137765
 33
0.0
  0
LINE
  8
0
  6
BYBLOCK
 62
     0
 10
322.869608
 20
17.137765
 30
0.0
 11
323.619608
 21
17.137765
 31
0.0
  0
TEXT
  8
0
  6
BYBLOCK
 62
     0
 10
323.119608
 20
17.175265
 30
0.0
 40
0.075
  1
0.75
  7
ROMANC
 72
     1
 11
323.244608
 21
17.212765
 31
0.0
 73
     2
  0
POINT
  8
DEFPOINTS
  6
BYBLOCK
 62
     0
 10
322.869608
 20
17.834217
 30
0.0
  0
POINT
  8
DEFPOINTS
  6
BYBLOCK
 62
     0
 10
323.619608
 20
17.834217
 30
0.0
  0
POINT
  8
DEFPOINTS
  6
BYBLOCK
 62
     0
 10
323.619608
 20
17.137765
 30
0.0
  0
ENDBLK
  8
0
  0
BLOCK
  8
0
  2
*D35
 70
    65
 10
0.0
 20
0.0
 30
0.0
  3
*D
  0
LINE
  8
0
  6
BYBLOCK
 62
     0
 10
323.044608
 20
17.819217
 30
0.0
 11
323.044608
 21
17.437757
 31
0.0
  0
LINE
  8
0
  6
BYBLOCK
 62
     0
 10
323.444608
 20
17.819217
 30
0.0
 11
323.444608
 21
17.437757
 31
0.0
  0
LINE
  8
0
  6
BYBLOCK
 62
     0
 10
322.894608
 20
17.452757
 30
0.0
 11
322.744608
 21
17.452757
 31
0.0
  0
LINE
  8
0
  6
BYBLOCK
 62
     0
 10
323.594608
 20
17.452757
 30
0.0
 11
323.744608
 21
17.452757
 31
0.0
  0
SOLID
  8
0
  6
BYBLOCK
 62
     0
 10
322.894608
 20
17.477757
 30
0.0
 11
322.894608
 21
17.427757
 31
0.0
 12
323.044608
 22
17.452757
 32
0.0
 13
323.044608
 23
17.452757
 33
0.0
  0
SOLID
  8
0
  6
BYBLOCK
 62
     0
 10
323.594608
 20
17.477757
 30
0.0
 11
323.594608
 21
17.427757
 31
0.0
 12
323.444608
 22
17.452757
 32
0.0
 13
323.444608
 23
17.452757
 33
0.0
  0
LINE
  8
0
  6
BYBLOCK
 62
     0
 10
323.044608
 20
17.452757
 30
0.0
 11
323.444608
 21
17.452757
 31
0.0
  0
TEXT
  8
0
  6
BYBLOCK
 62
     0
 10
323.119608
 20
17.490257
 30
0.0
 40
0.075
  1
0.40
  7
ROMANC
 72
     1
 11
323.244608
 21
17.527757
 31
0.0
 73
     2
  0
POINT
  8
DEFPOINTS
  6
BYBLOCK
 62
     0
 10
323.044608
 20
17.834217
 30
0.0
  0
POINT
  8
DEFPOINTS
  6
BYBLOCK
 62
     0
 10
323.444608
 20
17.834217
 30
0.0
  0
POINT
  8
DEFPOINTS
  6
BYBLOCK
 62
     0
 10
323.444608
 20
17.452757
 30
0.0
  0
ENDBLK
  8
0
  0
BLOCK
  8
0
  2
*D36
 70
    65
 10
0.0
 20
0.0
 30
0.0
  3
*D
  0
LINE
  8
0
  6
BYBLOCK
 62
     0
 10
323.259608
 20
19.584217
 30
0.0
 11
324.487011
 21
19.584217
 31
0.0
  0
LINE
  8
0
  6
BYBLOCK
 62
     0
 10
323.259608
 20
17.634217
 30
0.0
 11
324.487011
 21
17.634217
 31
0.0
  0
LINE
  8
0
  6
BYBLOCK
 62
     0
 10
324.472011
 20
19.434217
 30
0.0
 11
324.472011
 21
17.784217
 31
0.0
  0
SOLID
  8
0
  6
BYBLOCK
 62
     0
 10
324.447011
 20
19.434217
 30
0.0
 11
324.497011
 21
19.434217
 31
0.0
 12
324.472011
 22
19.584217
 32
0.0
 13
324.472011
 23
19.584217
 33
0.0
  0
SOLID
  8
0
  6
BYBLOCK
 62
     0
 10
324.447011
 20
17.784217
 30
0.0
 11
324.497011
 21
17.784217
 31
0.0
 12
324.472011
 22
17.634217
 32
0.0
 13
324.472011
 23
17.634217
 33
0.0
  0
TEXT
  8
0
  6
BYBLOCK
 62
     0
 10
324.434511
 20
18.47886
 30
0.0
 40
0.075
  1
1.95
 50
90.0
  7
ROMANC
 72
     1
 11
324.397011
 21
18.609217
 31
0.0
 73
     2
  0
POINT
  8
DEFPOINTS
  6
BYBLOCK
 62
     0
 10
323.244608
 20
19.584217
 30
0.0
  0
POINT
  8
DEFPOINTS
  6
BYBLOCK
 62
     0
 10
323.244608
 20
17.634217
 30
0.0
  0
POINT
  8
DEFPOINTS
  6
BYBLOCK
 62
     0
 10
324.472011
 20
17.634217
 30
0.0
  0
ENDBLK
  8
0
  0
BLOCK
  8
0
  2
*D37
 70
    65
 10
0.0
 20
0.0
 30
0.0
  3
*D
  0
LINE
  8
0
  6
BYBLOCK
 62
     0
 10
323.259608
 20
19.584217
 30
0.0
 11
324.068792
 21
19.584217
 31
0.0
  0
LINE
  8
0
  6
BYBLOCK
 62
     0
 10
323.259608
 20
18.934217
 30
0.0
 11
324.068792
 21
18.934217
 31
0.0
  0
LINE
  8
0
  6
BYBLOCK
 62
     0
 10
324.053792
 20
19.734217
 30
0.0
 11
324.053792
 21
19.884217
 31
0.0
  0
LINE
  8
0
  6
BYBLOCK
 62
     0
 10
324.053792
 20
18.784217
 30
0.0
 11
324.053792
 21
18.634217
 31
0.0
  0
SOLID
  8
0
  6
BYBLOCK
 62
     0
 10
324.028792
 20
19.734217
 30
0.0
 11
324.078792
 21
19.734217
 31
0.0
 12
324.053792
 22
19.584217
 32
0.0
 13
324.053792
 23
19.584217
 33
0.0
  0
SOLID
  8
0
  6
BYBLOCK
 62
     0
 10
324.028792
 20
18.784217
 30
0.0
 11
324.078792
 21
18.784217
 31
0.0
 12
324.053792
 22
18.934217
 32
0.0
 13
324.053792
 23
18.934217
 33
0.0
  0
LINE
  8
0
  6
BYBLOCK
 62
     0
 10
324.053792
 20
19.584217
 30
0.0
 11
324.053792
 21
18.934217
 31
0.0
  0
TEXT
  8
0
  6
BYBLOCK
 62
     0
 10
324.016292
 20
19.134217
 30
0.0
 40
0.075
  1
0.65
 50
90.0
  7
ROMANC
 72
     1
 11
323.978792
 21
19.259217
 31
0.0
 73
     2
  0
POINT
  8
DEFPOINTS
  6
BYBLOCK
 62
     0
 10
323.244608
 20
19.584217
 30
0.0
  0
POINT
  8
DEFPOINTS
  6
BYBLOCK
 62
     0
 10
323.244608
 20
18.934217
 30
0.0
  0
POINT
  8
DEFPOINTS
  6
BYBLOCK
 62
     0
 10
324.053792
 20
18.934217
 30
0.0
  0
ENDBLK
  8
0
  0
BLOCK
  8
0
  2
*D38
 70
    65
 10
0.0
 20
0.0
 30
0.0
  3
*D
  0
LINE
  8
0
  6
BYBLOCK
 62
     0
 10
323.259608
 20
18.934217
 30
0.0
 11
324.068792
 21
18.934217
 31
0.0
  0
LINE
  8
0
  6
BYBLOCK
 62
     0
 10
323.634608
 20
17.834217
 30
0.0
 11
324.068792
 21
17.834217
 31
0.0
  0
LINE
  8
0
  6
BYBLOCK
 62
     0
 10
324.053792
 20
18.784217
 30
0.0
 11
324.053792
 21
17.984217
 31
0.0
  0
SOLID
  8
0
  6
BYBLOCK
 62
     0
 10
324.028792
 20
18.784217
 30
0.0
 11
324.078792
 21
18.784217
 31
0.0
 12
324.053792
 22
18.934217
 32
0.0
 13
324.053792
 23
18.934217
 33
0.0
  0
SOLID
  8
0
  6
BYBLOCK
 62
     0
 10
324.028792
 20
17.984217
 30
0.0
 11
324.078792
 21
17.984217
 31
0.0
 12
324.053792
 22
17.834217
 32
0.0
 13
324.053792
 23
17.834217
 33
0.0
  0
TEXT
  8
0
  6
BYBLOCK
 62
     0
 10
324.016292
 20
18.25386
 30
0.0
 40
0.075
  1
1.10
 50
90.0
  7
ROMANC
 72
     1
 11
323.978792
 21
18.384217
 31
0.0
 73
     2
  0
POINT
  8
DEFPOINTS
  6
BYBLOCK
 62
     0
 10
323.244608
 20
18.934217
 30
0.0
  0
POINT
  8
DEFPOINTS
  6
BYBLOCK
 62
     0
 10
323.619608
 20
17.834217
 30
0.0
  0
POINT
  8
DEFPOINTS
  6
BYBLOCK
 62
     0
 10
324.053792
 20
17.834217
 30
0.0
  0
ENDBLK
  8
0
  0
BLOCK
  8
0
  2
*D39
 70
    65
 10
0.0
 20
0.0
 30
0.0
  3
*D
  0
LINE
  8
0
  6
BYBLOCK
 62
     0
 10
323.634608
 20
17.834217
 30
0.0
 11
324.068792
 21
17.834217
 31
0.0
  0
LINE
  8
0
  6
BYBLOCK
 62
     0
 10
323.259608
 20
17.634217
 30
0.0
 11
324.068792
 21
17.634217
 31
0.0
  0
LINE
  8
0
  6
BYBLOCK
 62
     0
 10
324.053792
 20
17.984217
 30
0.0
 11
324.053792
 21
18.134217
 31
0.0
  0
LINE
  8
0
  6
BYBLOCK
 62
     0
 10
324.053792
 20
17.484217
 30
0.0
 11
324.053792
 21
17.334217
 31
0.0
  0
SOLID
  8
0
  6
BYBLOCK
 62
     0
 10
324.028792
 20
17.984217
 30
0.0
 11
324.078792
 21
17.984217
 31
0.0
 12
324.053792
 22
17.834217
 32
0.0
 13
324.053792
 23
17.834217
 33
0.0
  0
SOLID
  8
0
  6
BYBLOCK
 62
     0
 10
324.028792
 20
17.484217
 30
0.0
 11
324.078792
 21
17.484217
 31
0.0
 12
324.053792
 22
17.634217
 32
0.0
 13
324.053792
 23
17.634217
 33
0.0
  0
LINE
  8
0
  6
BYBLOCK
 62
     0
 10
324.053792
 20
17.834217
 30
0.0
 11
324.053792
 21
17.634217
 31
0.0
  0
TEXT
  8
0
  6
BYBLOCK
 62
     0
 10
324.016292
 20
17.609217
 30
0.0
 40
0.075
  1
0.20
 50
90.0
  7
ROMANC
 72
     1
 11
323.978792
 21
17.734217
 31
0.0
 73
     2
  0
POINT
  8
DEFPOINTS
  6
BYBLOCK
 62
     0
 10
323.619608
 20
17.834217
 30
0.0
  0
POINT
  8
DEFPOINTS
  6
BYBLOCK
 62
     0
 10
323.244608
 20
17.634217
 30
0.0
  0
POINT
  8
DEFPOINTS
  6
BYBLOCK
 62
     0
 10
324.053792
 20
17.634217
 30
0.0
  0
ENDBLK
  8
0
  0
BLOCK
  8
0
  2
*D40
 70
    65
 10
0.0
 20
0.0
 30
0.0
  3
*D
  0
LINE
  8
0
  6
BYBLOCK
 62
     0
 10
322.683971
 20
18.963969
 30
0.0
 11
322.683971
 21
20.236052
 31
0.0
  0
LINE
  8
0
  6
BYBLOCK
 62
     0
 10
323.794608
 20
18.949217
 30
0.0
 11
323.794608
 21
20.236052
 31
0.0
  0
LINE
  8
0
  6
BYBLOCK
 62
     0
 10
322.833971
 20
20.221052
 30
0.0
 11
323.644608
 21
20.221052
 31
0.0
  0
SOLID
  8
0
  6
BYBLOCK
 62
     0
 10
322.833971
 20
20.246052
 30
0.0
 11
322.833971
 21
20.196052
 31
0.0
 12
322.683971
 22
20.221052
 32
0.0
 13
322.683971
 23
20.221052
 33
0.0
  0
SOLID
  8
0
  6
BYBLOCK
 62
     0
 10
323.644608
 20
20.246052
 30
0.0
 11
323.644608
 21
20.196052
 31
0.0
 12
323.794608
 22
20.221052
 32
0.0
 13
323.794608
 23
20.221052
 33
0.0
  0
TEXT
  8
0
  6
BYBLOCK
 62
     0
 10
323.112504
 20
20.258552
 30
0.0
 40
0.075
  1
1.11
  7
ROMANC
 72
     1
 11
323.23929
 21
20.296052
 31
0.0
 73
     2
  0
POINT
  8
DEFPOINTS
  6
BYBLOCK
 62
     0
 10
322.683971
 20
18.948969
 30
0.0
  0
POINT
  8
DEFPOINTS
  6
BYBLOCK
 62
     0
 10
323.794608
 20
18.934217
 30
0.0
  0
POINT
  8
DEFPOINTS
  6
BYBLOCK
 62
     0
 10
323.794608
 20
20.221052
 30
0.0
  0
ENDBLK
  8
0
  0
BLOCK
  8
0
  2
*D41
 70
    65
 10
0.0
 20
0.0
 30
0.0
  3
*D
  0
LINE
  8
0
  6
BYBLOCK
 62
     0
 10
322.702155
 20
18.957912
 30
0.0
 11
322.702155
 21
20.278455
 31
0.0
  0
LINE
  8
0
  6
BYBLOCK
 62
     0
 10
323.794608
 20
18.949217
 30
0.0
 11
323.794608
 21
20.278455
 31
0.0
  0
LINE
  8
0
  6
BYBLOCK
 62
     0
 10
322.852155
 20
20.263455
 30
0.0
 11
323.644608
 21
20.263455
 31
0.0
  0
SOLID
  8
0
  6
BYBLOCK
 62
     0
 10
322.852155
 20
20.288455
 30
0.0
 11
322.852155
 21
20.238455
 31
0.0
 12
322.702155
 22
20.263455
 32
0.0
 13
322.702155
 23
20.263455
 33
0.0
  0
SOLID
  8
0
  6
BYBLOCK
 62
     0
 10
323.644608
 20
20.288455
 30
0.0
 11
323.644608
 21
20.238455
 31
0.0
 12
323.794608
 22
20.263455
 32
0.0
 13
323.794608
 23
20.263455
 33
0.0
  0
TEXT
  8
0
  6
BYBLOCK
 62
     0
 10
323.118024
 20
20.300955
 30
0.0
 40
0.075
  1
1.10
  7
ROMANC
 72
     1
 11
323.248381
 21
20.338455
 31
0.0
 73
     2
  0
POINT
  8
DEFPOINTS
  6
BYBLOCK
 62
     0
 10
322.702155
 20
18.942912
 30
0.0
  0
POINT
  8
DEFPOINTS
  6
BYBLOCK
 62
     0
 10
323.794608
 20
18.934217
 30
0.0
  0
POINT
  8
DEFPOINTS
  6
BYBLOCK
 62
     0
 10
323.794608
 20
20.263455
 30
0.0
  0
ENDBLK
  8
0
  0
ENDSEC
  0
SECTION
  2
ENTITIES
  0
POLYLINE
  8
0
 66
     1
 10
0.0
 20
0.0
 30
0.0
  0
VERTEX
  8
0
 10
108.040631
 20
-16.548467
 30
0.0
 42
0.063415
  0
SEQEND
  8
0
  0
POLYLINE
  8
0
 66
     1
 10
0.0
 20
0.0
 30
0.0
  0
VERTEX
  8
0
 10
86.286488
 20
-15.036857
 30
0.0
 42
0.22708
  0
SEQEND
  8
0
  0
POLYLINE
  8
0
 66
     1
 10
0.0
 20
0.0
 30
0.0
  0
VERTEX
  8
0
 10
72.351426
 20
-14.976331
 30
0.0
 42
0.089446
  0
SEQEND
  8
0
  0
POLYLINE
  8
0
 66
     1
 10
0.0
 20
0.0
 30
0.0
  0
VERTEX
  8
0
 10
97.210524
 20
16.938509
 30
0.0
 42
0.05817
  0
SEQEND
  8
0
  0
POLYLINE
  8
0
 66
     1
 10
0.0
 20
0.0
 30
0.0
  0
VERTEX
  8
0
 10
121.196188
 20
17.602271
 30
0.0
 42
0.156162
  0
SEQEND
  8
0
  0
POLYLINE
  8
0
 66
     1
 10
0.0
 20
0.0
 30
0.0
  0
VERTEX
  8
0
 10
119.340696
 20
34.532686
 30
0.0
 42
0.283046
  0
SEQEND
  8
0
  0
POLYLINE
  8
0
 66
     1
 10
0.0
 20
0.0
 30
0.0
  0
VERTEX
  8
0
 10
157.359637
 20
32.54887
 30
0.0
 42
0.269827
  0
SEQEND
  8
0
  0
POLYLINE
  8
0
 66
     1
 10
0.0
 20
0.0
 30
0.0
  0
VERTEX
  8
0
 10
156.169702
 20
18.299763
 30
0.0
 42
0.066056
  0
SEQEND
  8
0
  0
POLYLINE
  8
0
 66
     1
 10
0.0
 20
0.0
 30
0.0
  0
VERTEX
  8
0
 10
168.512554
 20
1.430566
 30
0.0
 42
0.148501
  0
SEQEND
  8
0
  0
POLYLINE
  8
0
 66
     1
 10
0.0
 20
0.0
 30
0.0
  0
VERTEX
  8
0
 10
168.689549
 20
33.579487
 30
0.0
 42
0.08626
  0
SEQEND
  8
0
  0
POLYLINE
  8
0
 66
     1
 10
0.0
 20
0.0
 30
0.0
  0
VERTEX
  8
0
 10
180.209617
 20
34.197499
 30
0.0
 42
0.059446
  0
SEQEND
  8
0
  0
POLYLINE
  8
0
 66
     1
 10
0.0
 20
0.0
 30
0.0
  0
VERTEX
  8
0
 10
168.213495
 20
14.734069
 30
0.0
 42
0.06661
  0
SEQEND
  8
0
  0
POLYLINE
  8
0
 66
     1
 10
0.0
 20
0.0
 30
0.0
  0
VERTEX
  8
0
 10
180.09759
 20
16.643931
 30
0.0
 42
0.165716
  0
SEQEND
  8
0
  0
POLYLINE
  8
0
 66
     1
 10
0.0
 20
0.0
 30
0.0
  0
VERTEX
  8
0
 10
180.349774
 20
-12.199421
 30
0.0
 42
0.098491
  0
SEQEND
  8
0
  0
POLYLINE
  8
0
 66
     1
 10
0.0
 20
0.0
 30
0.0
  0
VERTEX
  8
0
 10
194.593929
 20
-14.402211
 30
0.0
 42
0.098491
  0
SEQEND
  8
0
  0
POLYLINE
  8
0
 66
     1
 10
0.0
 20
0.0
 30
0.0
  0
VERTEX
  8
0
 10
192.091391
 20
16.821986
 30
0.0
 42
0.129253
  0
SEQEND
  8
0
  0
LINE
  8
0
 10
328.825506
 20
28.493061
 30
0.0
 11
318.325506
 21
28.493061
 31
0.0
  0
LINE
  8
0
 10
318.325506
 20
13.643061
 30
0.0
 11
328.825506
 21
13.643061
 31
0.0
  0
LINE
  8
0
 10
318.325506
 20
28.493061
 30
0.0
 11
318.325506
 21
13.643061
 31
0.0
  0
TEXT
  8
0
 10
324.628926
 20
25.310533
 30
0.0
 40
0.1
  1
2
  7
ROMANC
  0
TEXT
  8
0
 10
320.817557
 20
24.307037
 30
0.0
 40
0.3
  1
P = 51.5 dm
  7
ROMANC
  0
TEXT
  8
0
 10
320.868573
 20
25.004617
 30
0.0
 40
0.3
  1
S = 164  dm
  7
ROMANC
  0
TEXT
  8
0
 10
320.855479
 20
26.088921
 30
0.0
 40
0.3
  1
TIPUS   NT164A
  7
ROMANC
  0
TEXT
  8
0
 10
320.855479
 20
25.603206
 30
0.0
 40
0.3
  1
ESCALA  1:50
  7
ROMANC
  0
LINE
  8
0
 10
328.825506
 20
13.643061
 30
0.0
 11
328.825506
 21
28.493061
 31
0.0
  0
POLYLINE
  8
0
 66
     1
 10
0.0
 20
0.0
 30
0.0
  0
VERTEX
  8
0
 10
322.694608
 20
18.934217
 30
0.0
 42
0.084478
  0
SEQEND
  8
0
  0
LINE
  8
0
  6
BYBLOCK
 62
     0
 10
322.702155
 20
18.957912
 30
0.0
 11
322.702155
 21
20.278455
 31
0.0
  0
LINE
  8
0
  6
BYBLOCK
 62
     0
 10
323.794608
 20
18.949217
 30
0.0
 11
323.794608
 21
20.278455
 31
0.0
  0
LINE
  8
0
  6
BYBLOCK
 62
     0
 10
322.852155
 20
20.263455
 30
0.0
 11
323.644608
 21
20.263455
 31
0.0
  0
SOLID
  8
0
  6
BYBLOCK
 62
     0
 10
322.852155
 20
20.288455
 30
0.0
 11
322.852155
 21
20.238455
 31
0.0
 12
322.702155
 22
20.263455
 32
0.0
 13
322.702155
 23
20.263455
 33
0.0
  0
SOLID
  8
0
  6
BYBLOCK
 62
     0
 10
323.644608
 20
20.288455
 30
0.0
 11
323.644608
 21
20.238455
 31
0.0
 12
323.794608
 22
20.263455
 32
0.0
 13
323.794608
 23
20.263455
 33
0.0
  0
TEXT
  8
0
  6
BYBLOCK
 62
     0
 10
323.118024
 20
20.300955
 30
0.0
 40
0.075
  1
1.10
  7
ROMANC
 72
     1
 11
323.248381
 21
20.338455
 31
0.0
 73
     2
  0
POINT
  8
DEFPOINTS
  6
BYBLOCK
 62
     0
 10
322.702155
 20
18.942912
 30
0.0
  0
POINT
  8
DEFPOINTS
  6
BYBLOCK
 62
     0
 10
323.794608
 20
18.934217
 30
0.0
  0
POINT
  8
DEFPOINTS
  6
BYBLOCK
 62
     0
 10
323.794608
 20
20.263455
 30
0.0
  0
ARC
  8
0
 10
323.460843
 20
18.934217
 30
0.0
 40
0.776235
 50
160.685028
 51
177.368883
  0
ARC
  8
0
 10
323.355075
 20
18.971288
 30
0.0
 40
0.664159
 50
139.763642
 51
160.685028
  0
ARC
  8
0
 10
323.287702
 20
19.028296
 30
0.0
 40
0.575904
 50
116.082909
 51
139.763642
  0
ARC
  8
0
 10
323.244608
 20
19.116328
 30
0.0
 40
0.477889
 50
90.0
 51
116.082909
  0
ARC
  8
0
 10
323.244608
 20
19.116328
 30
0.0
 40
0.477889
 50
63.917091
 51
90.0
  0
ARC
  8
0
 10
323.201514
 20
19.028296
 30
0.0
 40
0.575904
 50
40.236358
 51
63.917091
  0
ARC
  8
0
 10
323.13414
 20
18.971288
 30
0.0
 40
0.664159
 50
19.314972
 51
40.236358
  0
ARC
  8
0
 10
323.028373
 20
18.934217
 30
0.0
 40
0.776235
 50
359.941465
 51
19.314972
  0
LINE
  8
0
 10
323.804607
 20
18.933424
 30
0.0
 11
323.628143
 21
17.824217
 31
0.0
  0
LINE
  8
0
 10
323.628143
 20
17.824217
 30
0.0
 11
323.45437
 21
17.824217
 31
0.0
  0
ARC
  8
0
 10
323.244608
 20
17.834217
 30
0.0
 40
0.21
 50
337.5
 51
357.270597
  0
ARC
  8
0
 10
323.244608
 20
17.834217
 30
0.0
 40
0.21
 50
315.0
 51
337.5
  0
ARC
  8
0
 10
323.244608
 20
17.834217
 30
0.0
 40
0.21
 50
292.5
 51
315.0
  0
ARC
  8
0
 10
323.244608
 20
17.834217
 30
0.0
 40
0.21
 50
270.0
 51
292.5
  0
ARC
  8
0
 10
323.244608
 20
17.834217
 30
0.0
 40
0.21
 50
247.5
 51
270.0
  0
ARC
  8
0
 10
323.244608
 20
17.834217
 30
0.0
 40
0.21
 50
225.0
 51
247.5
  0
ARC
  8
0
 10
323.244608
 20
17.834217
 30
0.0
 40
0.21
 50
202.5
 51
225.0
  0
ARC
  8
0
 10
323.244608
 20
17.834217
 30
0.0
 40
0.21
 50
182.729403
 51
202.5
  0
LINE
  8
0
 10
323.034846
 20
17.824217
 30
0.0
 11
322.861024
 21
17.824217
 31
0.0
  0
LINE
  8
0
 10
322.861024
 20
17.824217
 30
0.0
 11
322.685426
 21
18.969851
 31
0.0
  0
ARC
  8
0
 10
323.460843
 20
18.934217
 30
0.0
 40
0.756235
 50
160.685028
 51
177.219339
  0
ARC
  8
0
 10
323.355075
 20
18.971288
 30
0.0
 40
0.644159
 50
139.763642
 51
160.685028
  0
ARC
  8
0
 10
323.287702
 20
19.028296
 30
0.0
 40
0.555904
 50
116.082909
 51
139.763642
  0
ARC
  8
0
 10
323.244608
 20
19.116328
 30
0.0
 40
0.457889
 50
90.0
 51
116.082909
  0
ARC
  8
0
 10
323.244608
 20
19.116328
 30
0.0
 40
0.457889
 50
63.917091
 51
90.0
  0
ARC
  8
0
 10
323.201514
 20
19.028296
 30
0.0
 40
0.555904
 50
40.236358
 51
63.917091
  0
ARC
  8
0
 10
323.13414
 20
18.971288
 30
0.0
 40
0.644159
 50
19.314972
 51
40.236358
  0
ARC
  8
0
 10
323.028373
 20
18.934217
 30
0.0
 40
0.756235
 50
0.059695
 51
19.314972
  0
LINE
  8
0
 10
323.784607
 20
18.935005
 30
0.0
 11
323.611073
 21
17.844217
 31
0.0
  0
LINE
  8
0
 10
323.611073
 20
17.844217
 30
0.0
 11
323.434344
 21
17.844217
 31
0.0
  0
ARC
  8
0
 10
323.244608
 20
17.834217
 30
0.0
 40
0.19
 50
337.5
 51
3.016961
  0
ARC
  8
0
 10
323.244608
 20
17.834217
 30
0.0
 40
0.19
 50
315.0
 51
337.5
  0
ARC
  8
0
 10
323.244608
 20
17.834217
 30
0.0
 40
0.19
 50
292.5
 51
315.0
  0
ARC
  8
0
 10
323.244608
 20
17.834217
 30
0.0
 40
0.19
 50
270.0
 51
292.5
  0
ARC
  8
0
 10
323.244608
 20
17.834217
 30
0.0
 40
0.19
 50
247.5
 51
270.0
  0
ARC
  8
0
 10
323.244608
 20
17.834217
 30
0.0
 40
0.19
 50
225.0
 51
247.5
  0
ARC
  8
0
 10
323.244608
 20
17.834217
 30
0.0
 40
0.19
 50
202.5
 51
225.0
  0
ARC
  8
0
 10
323.244608
 20
17.834217
 30
0.0
 40
0.19
 50
176.983039
 51
202.5
  0
LINE
  8
0
 10
323.054871
 20
17.844217
 30
0.0
 11
322.878192
 21
17.844217
 31
0.0
  0
LINE
  8
0
 10
322.878192
 20
17.844217
 30
0.0
 11
322.705498
 21
18.970904
 31
0.0
  0
ARC
  8
0
 10
323.460843
 20
18.934217
 30
0.0
 40
0.766235
 50
160.685028
 51
180.0
  0
ARC
  8
0
 10
323.355075
 20
18.971288
 30
0.0
 40
0.654159
 50
139.763642
 51
160.685028
  0
ARC
  8
0
 10
323.287702
 20
19.028296
 30
0.0
 40
0.565904
 50
116.082909
 51
139.763642
  0
ARC
  8
0
 10
323.244608
 20
19.116328
 30
0.0
 40
0.467889
 50
90.0
 51
116.082909
  0
ARC
  8
0
 10
323.244608
 20
19.116328
 30
0.0
 40
0.467889
 50
63.917091
 51
90.0
  0
ARC
  8
0
 10
323.201514
 20
19.028296
 30
0.0
 40
0.565904
 50
40.236358
 51
63.917091
  0
ARC
  8
0
 10
323.13414
 20
18.971288
 30
0.0
 40
0.654159
 50
19.314972
 51
40.236358
  0
ARC
  8
0
 10
323.028373
 20
18.934217
 30
0.0
 40
0.766235
 50
0.0
 51
19.314972
  0
LINE
  8
0
 10
323.794608
 20
18.934217
 30
0.0
 11
323.619608
 21
17.834217
 31
0.0
  0
LINE
  8
0
 10
323.619608
 20
17.834217
 30
0.0
 11
323.444608
 21
17.834217
 31
0.0
  0
ARC
  8
0
 10
323.244608
 20
17.834217
 30
0.0
 40
0.2
 50
337.5
 51
0.0
  0
ARC
  8
0
 10
323.244608
 20
17.834217
 30
0.0
 40
0.2
 50
315.0
 51
337.5
  0
ARC
  8
0
 10
323.244608
 20
17.834217
 30
0.0
 40
0.2
 50
292.5
 51
315.0
  0
ARC
  8
0
 10
323.244608
 20
17.834217
 30
0.0
 40
0.2
 50
270.0
 51
292.5
  0
ARC
  8
0
 10
323.244608
 20
17.834217
 30
0.0
 40
0.2
 50
247.5
 51
270.0
  0
ARC
  8
0
 10
323.244608
 20
17.834217
 30
0.0
 40
0.2
 50
225.0
 51
247.5
  0
ARC
  8
0
 10
323.244608
 20
17.834217
 30
0.0
 40
0.2
 50
202.5
 51
225.0
  0
ARC
  8
0
 10
323.244608
 20
17.834217
 30
0.0
 40
0.2
 50
180.0
 51
202.5
  0
LINE
  8
0
 10
323.044608
 20
17.834217
 30
0.0
 11
322.869608
 21
17.834217
 31
0.0
  0
LINE
  8
0
 10
322.869608
 20
17.834217
 30
0.0
 11
322.696332
 21
18.964701
 31
0.0
  0
LINE
  8
0
 10
322.696332
 20
18.964701
 30
0.0
 11
322.694608
 21
18.934217
 31
0.0
  0
LINE
  8
0
  6
BYBLOCK
 62
     0
 10
323.634608
 20
17.834217
 30
0.0
 11
324.068792
 21
17.834217
 31
0.0
  0
LINE
  8
0
  6
BYBLOCK
 62
     0
 10
323.259608
 20
17.634217
 30
0.0
 11
324.068792
 21
17.634217
 31
0.0
  0
LINE
  8
0
  6
BYBLOCK
 62
     0
 10
324.053792
 20
17.984217
 30
0.0
 11
324.053792
 21
18.134217
 31
0.0
  0
LINE
  8
0
  6
BYBLOCK
 62
     0
 10
324.053792
 20
17.484217
 30
0.0
 11
324.053792
 21
17.334217
 31
0.0
  0
SOLID
  8
0
  6
BYBLOCK
 62
     0
 10
324.028792
 20
17.984217
 30
0.0
 11
324.078792
 21
17.984217
 31
0.0
 12
324.053792
 22
17.834217
 32
0.0
 13
324.053792
 23
17.834217
 33
0.0
  0
SOLID
  8
0
  6
BYBLOCK
 62
     0
 10
324.028792
 20
17.484217
 30
0.0
 11
324.078792
 21
17.484217
 31
0.0
 12
324.053792
 22
17.634217
 32
0.0
 13
324.053792
 23
17.634217
 33
0.0
  0
LINE
  8
0
  6
BYBLOCK
 62
     0
 10
324.053792
 20
17.834217
 30
0.0
 11
324.053792
 21
17.634217
 31
0.0
  0
TEXT
  8
0
  6
BYBLOCK
 62
     0
 10
324.016292
 20
17.609217
 30
0.0
 40
0.075
  1
0.20
 50
90.0
  7
ROMANC
 72
     1
 11
323.978792
 21
17.734217
 31
0.0
 73
     2
  0
POINT
  8
DEFPOINTS
  6
BYBLOCK
 62
     0
 10
323.619608
 20
17.834217
 30
0.0
  0
POINT
  8
DEFPOINTS
  6
BYBLOCK
 62
     0
 10
323.244608
 20
17.634217
 30
0.0
  0
POINT
  8
DEFPOINTS
  6
BYBLOCK
 62
     0
 10
324.053792
 20
17.634217
 30
0.0
  0
LINE
  8
0
  6
BYBLOCK
 62
     0
 10
323.794608
 20
18.934217
 30
0.0
 11
324.068792
 21
18.934217
 31
0.0
  0
LINE
  8
0
  6
BYBLOCK
 62
     0
 10
323.634608
 20
17.834217
 30
0.0
 11
324.068792
 21
17.834217
 31
0.0
  0
LINE
  8
0
  6
BYBLOCK
 62
     0
 10
324.053792
 20
18.784217
 30
0.0
 11
324.053792
 21
17.984217
 31
0.0
  0
SOLID
  8
0
  6
BYBLOCK
 62
     0
 10
324.028792
 20
18.784217
 30
0.0
 11
324.078792
 21
18.784217
 31
0.0
 12
324.053792
 22
18.934217
 32
0.0
 13
324.053792
 23
18.934217
 33
0.0
  0
SOLID
  8
0
  6
BYBLOCK
 62
     0
 10
324.028792
 20
17.984217
 30
0.0
 11
324.078792
 21
17.984217
 31
0.0
 12
324.053792
 22
17.834217
 32
0.0
 13
324.053792
 23
17.834217
 33
0.0
  0
TEXT
  8
0
  6
BYBLOCK
 62
     0
 10
324.016292
 20
18.25386
 30
0.0
 40
0.075
  1
1.10
 50
90.0
  7
ROMANC
 72
     1
 11
323.978792
 21
18.384217
 31
0.0
 73
     2
  0
POINT
  8
DEFPOINTS
  6
BYBLOCK
 62
     0
 10
323.619608
 20
17.834217
 30
0.0
  0
POINT
  8
DEFPOINTS
  6
BYBLOCK
 62
     0
 10
324.053792
 20
17.834217
 30
0.0
  0
LINE
  8
0
  6
BYBLOCK
 62
     0
 10
323.259608
 20
19.584217
 30
0.0
 11
324.068792
 21
19.584217
 31
0.0
  0
LINE
  8
0
  6
BYBLOCK
 62
     0
 10
323.794608
 20
18.934217
 30
0.0
 11
324.068792
 21
18.934217
 31
0.0
  0
LINE
  8
0
  6
BYBLOCK
 62
     0
 10
324.053792
 20
19.734217
 30
0.0
 11
324.053792
 21
19.884217
 31
0.0
  0
LINE
  8
0
  6
BYBLOCK
 62
     0
 10
324.053792
 20
18.784217
 30
0.0
 11
324.053792
 21
18.634217
 31
0.0
  0
SOLID
  8
0
  6
BYBLOCK
 62
     0
 10
324.028792
 20
19.734217
 30
0.0
 11
324.078792
 21
19.734217
 31
0.0
 12
324.053792
 22
19.584217
 32
0.0
 13
324.053792
 23
19.584217
 33
0.0
  0
SOLID
  8
0
  6
BYBLOCK
 62
     0
 10
324.028792
 20
18.784217
 30
0.0
 11
324.078792
 21
18.784217
 31
0.0
 12
324.053792
 22
18.934217
 32
0.0
 13
324.053792
 23
18.934217
 33
0.0
  0
LINE
  8
0
  6
BYBLOCK
 62
     0
 10
324.053792
 20
19.584217
 30
0.0
 11
324.053792
 21
18.934217
 31
0.0
  0
TEXT
  8
0
  6
BYBLOCK
 62
     0
 10
324.016292
 20
19.134217
 30
0.0
 40
0.075
  1
0.65
 50
90.0
  7
ROMANC
 72
     1
 11
323.978792
 21
19.259217
 31
0.0
 73
     2
  0
POINT
  8
DEFPOINTS
  6
BYBLOCK
 62
     0
 10
323.244608
 20
19.584217
 30
0.0
  0
POINT
  8
DEFPOINTS
  6
BYBLOCK
 62
     0
 10
324.053792
 20
18.934217
 30
0.0
  0
LINE
  8
0
  6
BYBLOCK
 62
     0
 10
323.259608
 20
19.584217
 30
0.0
 11
324.487011
 21
19.584217
 31
0.0
  0
LINE
  8
0
  6
BYBLOCK
 62
     0
 10
323.259608
 20
17.634217
 30
0.0
 11
324.487011
 21
17.634217
 31
0.0
  0
LINE
  8
0
  6
BYBLOCK
 62
     0
 10
324.472011
 20
19.434217
 30
0.0
 11
324.472011
 21
17.784217
 31
0.0
  0
SOLID
  8
0
  6
BYBLOCK
 62
     0
 10
324.447011
 20
19.434217
 30
0.0
 11
324.497011
 21
19.434217
 31
0.0
 12
324.472011
 22
19.584217
 32
0.0
 13
324.472011
 23
19.584217
 33
0.0
  0
SOLID
  8
0
  6
BYBLOCK
 62
     0
 10
324.447011
 20
17.784217
 30
0.0
 11
324.497011
 21
17.784217
 31
0.0
 12
324.472011
 22
17.634217
 32
0.0
 13
324.472011
 23
17.634217
 33
0.0
  0
TEXT
  8
0
  6
BYBLOCK
 62
     0
 10
324.434511
 20
18.47886
 30
0.0
 40
0.075
  1
1.95
 50
90.0
  7
ROMANC
 72
     1
 11
324.397011
 21
18.609217
 31
0.0
 73
     2
  0
POINT
  8
DEFPOINTS
  6
BYBLOCK
 62
     0
 10
323.244608
 20
19.584217
 30
0.0
  0
POINT
  8
DEFPOINTS
  6
BYBLOCK
 62
     0
 10
323.244608
 20
17.634217
 30
0.0
  0
POINT
  8
DEFPOINTS
  6
BYBLOCK
 62
     0
 10
324.472011
 20
17.634217
 30
0.0
  0
LINE
  8
0
  6
BYBLOCK
 62
     0
 10
323.044608
 20
17.819217
 30
0.0
 11
323.044608
 21
17.437757
 31
0.0
  0
LINE
  8
0
  6
BYBLOCK
 62
     0
 10
323.444608
 20
17.819217
 30
0.0
 11
323.444608
 21
17.437757
 31
0.0
  0
LINE
  8
0
  6
BYBLOCK
 62
     0
 10
322.894608
 20
17.452757
 30
0.0
 11
322.744608
 21
17.452757
 31
0.0
  0
LINE
  8
0
  6
BYBLOCK
 62
     0
 10
323.594608
 20
17.452757
 30
0.0
 11
323.744608
 21
17.452757
 31
0.0
  0
SOLID
  8
0
  6
BYBLOCK
 62
     0
 10
322.894608
 20
17.477757
 30
0.0
 11
322.894608
 21
17.427757
 31
0.0
 12
323.044608
 22
17.452757
 32
0.0
 13
323.044608
 23
17.452757
 33
0.0
  0
SOLID
  8
0
  6
BYBLOCK
 62
     0
 10
323.594608
 20
17.477757
 30
0.0
 11
323.594608
 21
17.427757
 31
0.0
 12
323.444608
 22
17.452757
 32
0.0
 13
323.444608
 23
17.452757
 33
0.0
  0
LINE
  8
0
  6
BYBLOCK
 62
     0
 10
323.044608
 20
17.452757
 30
0.0
 11
323.444608
 21
17.452757
 31
0.0
  0
TEXT
  8
0
  6
BYBLOCK
 62
     0
 10
323.119608
 20
17.490257
 30
0.0
 40
0.075
  1
0.40
  7
ROMANC
 72
     1
 11
323.244608
 21
17.527757
 31
0.0
 73
     2
  0
POINT
  8
DEFPOINTS
  6
BYBLOCK
 62
     0
 10
323.044608
 20
17.834217
 30
0.0
  0
POINT
  8
DEFPOINTS
  6
BYBLOCK
 62
     0
 10
323.444608
 20
17.834217
 30
0.0
  0
POINT
  8
DEFPOINTS
  6
BYBLOCK
 62
     0
 10
323.444608
 20
17.452757
 30
0.0
  0
LINE
  8
0
  6
BYBLOCK
 62
     0
 10
322.869608
 20
17.819217
 30
0.0
 11
322.869608
 21
17.122765
 31
0.0
  0
LINE
  8
0
  6
BYBLOCK
 62
     0
 10
323.619608
 20
17.819217
 30
0.0
 11
323.619608
 21
17.122765
 31
0.0
  0
LINE
  8
0
  6
BYBLOCK
 62
     0
 10
322.719608
 20
17.137765
 30
0.0
 11
322.569608
 21
17.137765
 31
0.0
  0
LINE
  8
0
  6
BYBLOCK
 62
     0
 10
323.769608
 20
17.137765
 30
0.0
 11
323.919608
 21
17.137765
 31
0.0
  0
SOLID
  8
0
  6
BYBLOCK
 62
     0
 10
322.719608
 20
17.162765
 30
0.0
 11
322.719608
 21
17.112765
 31
0.0
 12
322.869608
 22
17.137765
 32
0.0
 13
322.869608
 23
17.137765
 33
0.0
  0
SOLID
  8
0
  6
BYBLOCK
 62
     0
 10
323.769608
 20
17.162765
 30
0.0
 11
323.769608
 21
17.112765
 31
0.0
 12
323.619608
 22
17.137765
 32
0.0
 13
323.619608
 23
17.137765
 33
0.0
  0
LINE
  8
0
  6
BYBLOCK
 62
     0
 10
322.869608
 20
17.137765
 30
0.0
 11
323.619608
 21
17.137765
 31
0.0
  0
TEXT
  8
0
  6
BYBLOCK
 62
     0
 10
323.119608
 20
17.175265
 30
0.0
 40
0.075
  1
0.75
  7
ROMANC
 72
     1
 11
323.244608
 21
17.212765
 31
0.0
 73
     2
  0
POINT
  8
DEFPOINTS
  6
BYBLOCK
 62
     0
 10
322.869608
 20
17.834217
 30
0.0
  0
POINT
  8
DEFPOINTS
  6
BYBLOCK
 62
     0
 10
323.619608
 20
17.834217
 30
0.0
  0
POINT
  8
DEFPOINTS
  6
BYBLOCK
 62
     0
 10
323.619608
 20
17.137765
 30
0.0
  0
ENDSEC
  0
EOF
