  0
SECTION
  2
HEADER
  9
$ACADVER
  1
AC1009
  9
$INSBASE
 10
105.464027
 20
-4.528761
 30
0.0
  9
$EXTMIN
 10
280.96095
 20
29.423763
 30
0.0
  9
$EXTMAX
 10
291.46095
 20
44.273763
 30
0.0
  9
$LIMMIN
 10
0.0
 20
0.0
  9
$LIMMAX
 10
410.0
 20
287.0
  9
$ORTHOMODE
 70
     1
  9
$REGENMODE
 70
     1
  9
$FILLMODE
 70
     1
  9
$QTEXTMODE
 70
     0
  9
$MIRRTEXT
 70
     1
  9
$DRAGMODE
 70
     2
  9
$LTSCALE
 40
25.0
  9
$OSMODE
 70
     0
  9
$ATTMODE
 70
     1
  9
$TEXTSIZE
 40
0.1
  9
$TRACEWID
 40
1.0
  9
$TEXTSTYLE
  7
ROMANC
  9
$CLAYER
  8
0
  9
$CELTYPE
  6
BYLAYER
  9
$CECOLOR
 62
   256
  9
$DIMSCALE
 40
1.5
  9
$DIMASZ
 40
0.1
  9
$DIMEXO
 40
0.01
  9
$DIMDLI
 40
7.0
  9
$DIMRND
 40
0.0
  9
$DIMDLE
 40
0.0
  9
$DIMEXE
 40
0.01
  9
$DIMTP
 40
0.0
  9
$DIMTM
 40
0.0
  9
$DIMTXT
 40
0.05
  9
$DIMCEN
 40
0.1
  9
$DIMTSZ
 40
0.0
  9
$DIMTOL
 70
     0
  9
$DIMLIM
 70
     0
  9
$DIMTIH
 70
     0
  9
$DIMTOH
 70
     0
  9
$DIMSE1
 70
     0
  9
$DIMSE2
 70
     0
  9
$DIMTAD
 70
     1
  9
$DIMZIN
 70
     0
  9
$DIMBLK
  1

  9
$DIMASO
 70
     1
  9
$DIMSHO
 70
     0
  9
$DIMPOST
  1

  9
$DIMAPOST
  1

  9
$DIMALT
 70
     0
  9
$DIMALTD
 70
     2
  9
$DIMALTF
 40
25.4
  9
$DIMLFAC
 40
1.0
  9
$DIMTOFL
 70
     1
  9
$DIMTVP
 40
0.0
  9
$DIMTIX
 70
     1
  9
$DIMSOXD
 70
     0
  9
$DIMSAH
 70
     0
  9
$DIMBLK1
  1

  9
$DIMBLK2
  1

  9
$DIMSTYLE
  2
*UNNAMED
  9
$DIMCLRD
 70
     0
  9
$DIMCLRE
 70
     0
  9
$DIMCLRT
 70
     0
  9
$DIMTFAC
 40
70.0
  9
$DIMGAP
 40
0.09
  9
$LUNITS
 70
     2
  9
$LUPREC
 70
     2
  9
$SKETCHINC
 40
1.0
  9
$FILLETRAD
 40
0.0
  9
$AUNITS
 70
     0
  9
$AUPREC
 70
     0
  9
$MENU
  1
acad
  9
$ELEVATION
 40
0.0
  9
$PELEVATION
 40
0.0
  9
$THICKNESS
 40
0.0
  9
$LIMCHECK
 70
     0
  9
$BLIPMODE
 70
     0
  9
$CHAMFERA
 40
0.0
  9
$CHAMFERB
 40
0.0
  9
$SKPOLY
 70
     0
  9
$TDCREATE
 40
2450305.554557986
  9
$TDUPDATE
 40
2450827.487938541
  9
$TDINDWG
 40
0.0876359954
  9
$TDUSRTIMER
 40
0.0876359954
  9
$USRTIMER
 70
     1
  9
$ANGBASE
 50
0.0
  9
$ANGDIR
 70
     0
  9
$PDMODE
 70
     0
  9
$PDSIZE
 40
0.0
  9
$PLINEWID
 40
0.0
  9
$COORDS
 70
     2
  9
$SPLFRAME
 70
     0
  9
$SPLINETYPE
 70
     6
  9
$SPLINESEGS
 70
     8
  9
$ATTDIA
 70
     0
  9
$ATTREQ
 70
     1
  9
$HANDLING
 70
     0
  9
$HANDSEED
  5
0
  9
$SURFTAB1
 70
     6
  9
$SURFTAB2
 70
     6
  9
$SURFTYPE
 70
     6
  9
$SURFU
 70
     6
  9
$SURFV
 70
     6
  9
$UCSNAME
  2

  9
$UCSORG
 10
0.0
 20
0.0
 30
0.0
  9
$UCSXDIR
 10
1.0
 20
0.0
 30
0.0
  9
$UCSYDIR
 10
0.0
 20
1.0
 30
0.0
  9
$PUCSNAME
  2

  9
$PUCSORG
 10
0.0
 20
0.0
 30
0.0
  9
$PUCSXDIR
 10
1.0
 20
0.0
 30
0.0
  9
$PUCSYDIR
 10
0.0
 20
1.0
 30
0.0
  9
$USERI1
 70
     0
  9
$USERI2
 70
     0
  9
$USERI3
 70
     0
  9
$USERI4
 70
     0
  9
$USERI5
 70
     0
  9
$USERR1
 40
0.0
  9
$USERR2
 40
0.0
  9
$USERR3
 40
0.0
  9
$USERR4
 40
0.0
  9
$USERR5
 40
0.0
  9
$WORLDVIEW
 70
     1
  9
$SHADEDGE
 70
     3
  9
$SHADEDIF
 70
    70
  9
$TILEMODE
 70
     1
  9
$MAXACTVP
 70
    16
  9
$PINSBASE
 10
0.0
 20
0.0
 30
0.0
  9
$PLIMCHECK
 70
     0
  9
$PEXTMIN
 10
1.000000E+20
 20
1.000000E+20
 30
1.000000E+20
  9
$PEXTMAX
 10
-1.000000E+20
 20
-1.000000E+20
 30
-1.000000E+20
  9
$PLIMMIN
 10
0.0
 20
0.0
  9
$PLIMMAX
 10
12.0
 20
9.0
  9
$UNITMODE
 70
     0
  9
$VISRETAIN
 70
     0
  9
$PLINEGEN
 70
     0
  9
$PSLTSCALE
 70
     0
  9
$TREEDEPTH
 70
  3020
  9
$DWGCODEPAGE
  3
iso8859-1
  0
ENDSEC
  0
SECTION
  2
TABLES
  0
TABLE
  2
VPORT
 70
     2
  0
VPORT
  2
*ACTIVE
 70
     0
 10
0.0
 20
0.0
 11
1.0
 21
1.0
 12
292.9228
 22
36.848763
 13
0.0
 23
0.0
 14
1.0
 24
1.0
 15
10.0
 25
10.0
 16
0.0
 26
0.0
 36
1.0
 17
0.0
 27
0.0
 37
0.0
 40
14.85
 41
1.611024
 42
50.0
 43
0.0
 44
0.0
 50
0.0
 51
0.0
 71
     0
 72
   100
 73
     1
 74
     0
 75
     0
 76
     0
 77
     0
 78
     1
  0
ENDTAB
  0
TABLE
  2
LTYPE
 70
     1
  0
LTYPE
  2
CONTINUOUS
 70
    64
  3
Solid line
 72
    65
 73
     0
 40
0.0
  0
ENDTAB
  0
TABLE
  2
LAYER
 70
     3
  0
LAYER
  2
0
 70
    64
 62
     7
  6
CONTINUOUS
  0
LAYER
  2
MESURA
 70
     0
 62
     7
  6
CONTINUOUS
  0
LAYER
  2
DEFPOINTS
 70
    64
 62
     7
  6
CONTINUOUS
  0
ENDTAB
  0
TABLE
  2
STYLE
 70
     2
  0
STYLE
  2
STANDARD
 70
     0
 40
0.0
 41
1.0
 50
0.0
 71
     0
 42
0.1
  3
txt
  4

  0
STYLE
  2
ROMANC
 70
    64
 40
0.0
 41
1.0
 50
0.0
 71
     0
 42
0.1
  3
romanc
  4

  0
ENDTAB
  0
TABLE
  2
VIEW
 70
     0
  0
ENDTAB
  0
TABLE
  2
UCS
 70
     0
  0
ENDTAB
  0
TABLE
  2
APPID
 70
     1
  0
APPID
  2
ACAD
 70
    64
  0
ENDTAB
  0
TABLE
  2
DIMSTYLE
 70
     1
  0
DIMSTYLE
  2
SILVIA
 70
     0
  3

  4

  5

  6

  7

 40
1.5
 41
0.1
 42
0.01
 43
7.0
 44
0.01
 45
0.0
 46
0.0
 47
0.0
 48
0.0
140
0.05
141
0.1
142
0.0
143
25.4
144
1.0
145
0.0
146
70.0
147
0.09
 71
     0
 72
     0
 73
     0
 74
     0
 75
     0
 76
     0
 77
     1
 78
     0
170
     0
171
     2
172
     1
173
     0
174
     1
175
     0
176
     0
177
     0
178
     0
  0
ENDTAB
  0
ENDSEC
  0
SECTION
  2
BLOCKS
  0
BLOCK
  8
0
  2
*D1
 70
    65
 10
0.0
 20
0.0
 30
0.0
  3
*D
  0
LINE
  8
0
  6
BYBLOCK
 62
     0
 10
286.152221
 20
34.958082
 30
0.0
 11
286.152221
 21
34.507374
 31
0.0
  0
LINE
  8
0
  6
BYBLOCK
 62
     0
 10
286.552221
 20
34.958082
 30
0.0
 11
286.552221
 21
34.507374
 31
0.0
  0
LINE
  8
0
  6
BYBLOCK
 62
     0
 10
286.002221
 20
34.522374
 30
0.0
 11
285.852221
 21
34.522374
 31
0.0
  0
LINE
  8
0
  6
BYBLOCK
 62
     0
 10
286.702221
 20
34.522374
 30
0.0
 11
286.852221
 21
34.522374
 31
0.0
  0
SOLID
  8
0
  6
BYBLOCK
 62
     0
 10
286.002221
 20
34.547374
 30
0.0
 11
286.002221
 21
34.497374
 31
0.0
 12
286.152221
 22
34.522374
 32
0.0
 13
286.152221
 23
34.522374
 33
0.0
  0
SOLID
  8
0
  6
BYBLOCK
 62
     0
 10
286.702221
 20
34.547374
 30
0.0
 11
286.702221
 21
34.497374
 31
0.0
 12
286.552221
 22
34.522374
 32
0.0
 13
286.552221
 23
34.522374
 33
0.0
  0
LINE
  8
0
  6
BYBLOCK
 62
     0
 10
286.152221
 20
34.522374
 30
0.0
 11
286.552221
 21
34.522374
 31
0.0
  0
TEXT
  8
0
  6
BYBLOCK
 62
     0
 10
286.227221
 20
34.559874
 30
0.0
 40
0.075
  1
0.40
  7
ROMANC
 72
     1
 11
286.352221
 21
34.597374
 31
0.0
 73
     2
  0
POINT
  8
DEFPOINTS
  6
BYBLOCK
 62
     0
 10
286.152221
 20
34.973082
 30
0.0
  0
POINT
  8
DEFPOINTS
  6
BYBLOCK
 62
     0
 10
286.552221
 20
34.973082
 30
0.0
  0
POINT
  8
DEFPOINTS
  6
BYBLOCK
 62
     0
 10
286.552221
 20
34.522374
 30
0.0
  0
ENDBLK
  8
0
  0
BLOCK
  8
0
  2
*D2
 70
    65
 10
0.0
 20
0.0
 30
0.0
  3
*D
  0
LINE
  8
0
  6
BYBLOCK
 62
     0
 10
285.652221
 20
34.958082
 30
0.0
 11
285.652221
 21
34.210004
 31
0.0
  0
LINE
  8
0
  6
BYBLOCK
 62
     0
 10
287.052221
 20
34.958082
 30
0.0
 11
287.052221
 21
34.210004
 31
0.0
  0
LINE
  8
0
  6
BYBLOCK
 62
     0
 10
285.802221
 20
34.225004
 30
0.0
 11
286.902221
 21
34.225004
 31
0.0
  0
SOLID
  8
0
  6
BYBLOCK
 62
     0
 10
285.802221
 20
34.250004
 30
0.0
 11
285.802221
 21
34.200004
 31
0.0
 12
285.652221
 22
34.225004
 32
0.0
 13
285.652221
 23
34.225004
 33
0.0
  0
SOLID
  8
0
  6
BYBLOCK
 62
     0
 10
286.902221
 20
34.250004
 30
0.0
 11
286.902221
 21
34.200004
 31
0.0
 12
287.052221
 22
34.225004
 32
0.0
 13
287.052221
 23
34.225004
 33
0.0
  0
TEXT
  8
0
  6
BYBLOCK
 62
     0
 10
286.221863
 20
34.262504
 30
0.0
 40
0.075
  1
1.40
  7
ROMANC
 72
     1
 11
286.352221
 21
34.300004
 31
0.0
 73
     2
  0
POINT
  8
DEFPOINTS
  6
BYBLOCK
 62
     0
 10
285.652221
 20
34.973082
 30
0.0
  0
POINT
  8
DEFPOINTS
  6
BYBLOCK
 62
     0
 10
287.052221
 20
34.973082
 30
0.0
  0
POINT
  8
DEFPOINTS
  6
BYBLOCK
 62
     0
 10
287.052221
 20
34.225004
 30
0.0
  0
ENDBLK
  8
0
  0
BLOCK
  8
0
  2
*D6
 70
    65
 10
0.0
 20
0.0
 30
0.0
  3
*D
  0
LINE
  8
0
  6
BYBLOCK
 62
     0
 10
287.117221
 20
35.573082
 30
0.0
 11
287.487983
 21
35.573082
 31
0.0
  0
LINE
  8
0
  6
BYBLOCK
 62
     0
 10
287.067221
 20
34.973082
 30
0.0
 11
287.487983
 21
34.973082
 31
0.0
  0
LINE
  8
0
  6
BYBLOCK
 62
     0
 10
287.472983
 20
35.723082
 30
0.0
 11
287.472983
 21
35.873082
 31
0.0
  0
LINE
  8
0
  6
BYBLOCK
 62
     0
 10
287.472983
 20
34.823082
 30
0.0
 11
287.472983
 21
34.673082
 31
0.0
  0
SOLID
  8
0
  6
BYBLOCK
 62
     0
 10
287.447983
 20
35.723082
 30
0.0
 11
287.497983
 21
35.723082
 31
0.0
 12
287.472983
 22
35.573082
 32
0.0
 13
287.472983
 23
35.573082
 33
0.0
  0
SOLID
  8
0
  6
BYBLOCK
 62
     0
 10
287.447983
 20
34.823082
 30
0.0
 11
287.497983
 21
34.823082
 31
0.0
 12
287.472983
 22
34.973082
 32
0.0
 13
287.472983
 23
34.973082
 33
0.0
  0
LINE
  8
0
  6
BYBLOCK
 62
     0
 10
287.472983
 20
35.573082
 30
0.0
 11
287.472983
 21
34.973082
 31
0.0
  0
TEXT
  8
0
  6
BYBLOCK
 62
     0
 10
287.435483
 20
35.148082
 30
0.0
 40
0.075
  1
0.60
 50
90.0
  7
ROMANC
 72
     1
 11
287.397983
 21
35.273082
 31
0.0
 73
     2
  0
POINT
  8
DEFPOINTS
  6
BYBLOCK
 62
     0
 10
287.102221
 20
35.573082
 30
0.0
  0
POINT
  8
DEFPOINTS
  6
BYBLOCK
 62
     0
 10
287.052221
 20
34.973082
 30
0.0
  0
POINT
  8
DEFPOINTS
  6
BYBLOCK
 62
     0
 10
287.472983
 20
34.973082
 30
0.0
  0
ENDBLK
  8
0
  0
BLOCK
  8
0
  2
*D9
 70
    65
 10
0.0
 20
0.0
 30
0.0
  3
*D
  0
LINE
  8
0
  6
BYBLOCK
 62
     0
 10
286.567221
 20
34.973082
 30
0.0
 11
287.487983
 21
34.973082
 31
0.0
  0
LINE
  8
0
  6
BYBLOCK
 62
     0
 10
286.367221
 20
34.823082
 30
0.0
 11
287.487983
 21
34.823082
 31
0.0
  0
LINE
  8
0
  6
BYBLOCK
 62
     0
 10
287.472983
 20
35.123082
 30
0.0
 11
287.472983
 21
35.273082
 31
0.0
  0
LINE
  8
0
  6
BYBLOCK
 62
     0
 10
287.472983
 20
34.673082
 30
0.0
 11
287.472983
 21
34.523082
 31
0.0
  0
SOLID
  8
0
  6
BYBLOCK
 62
     0
 10
287.447983
 20
35.123082
 30
0.0
 11
287.497983
 21
35.123082
 31
0.0
 12
287.472983
 22
34.973082
 32
0.0
 13
287.472983
 23
34.973082
 33
0.0
  0
SOLID
  8
0
  6
BYBLOCK
 62
     0
 10
287.447983
 20
34.673082
 30
0.0
 11
287.497983
 21
34.673082
 31
0.0
 12
287.472983
 22
34.823082
 32
0.0
 13
287.472983
 23
34.823082
 33
0.0
  0
LINE
  8
0
  6
BYBLOCK
 62
     0
 10
287.472983
 20
34.973082
 30
0.0
 11
287.472983
 21
34.823082
 31
0.0
  0
TEXT
  8
0
  6
BYBLOCK
 62
     0
 10
287.435483
 20
34.551015
 30
0.0
 40
0.075
  1
0.15
 50
90.0
  7
ROMANC
 72
     1
 11
287.397983
 21
34.676015
 31
0.0
 73
     2
  0
POINT
  8
DEFPOINTS
  6
BYBLOCK
 62
     0
 10
286.552221
 20
34.973082
 30
0.0
  0
POINT
  8
DEFPOINTS
  6
BYBLOCK
 62
     0
 10
286.352221
 20
34.823082
 30
0.0
  0
POINT
  8
DEFPOINTS
  6
BYBLOCK
 62
     0
 10
287.472983
 20
34.823082
 30
0.0
  0
ENDBLK
  8
0
  0
BLOCK
  8
0
  2
*D11
 70
    65
 10
0.0
 20
0.0
 30
0.0
  3
*D
  0
LINE
  8
0
  6
BYBLOCK
 62
     0
 10
285.602221
 20
35.588082
 30
0.0
 11
285.602221
 21
36.381436
 31
0.0
  0
LINE
  8
0
  6
BYBLOCK
 62
     0
 10
287.102221
 20
35.588082
 30
0.0
 11
287.102221
 21
36.381436
 31
0.0
  0
LINE
  8
0
  6
BYBLOCK
 62
     0
 10
285.752221
 20
36.366436
 30
0.0
 11
286.952221
 21
36.366436
 31
0.0
  0
SOLID
  8
0
  6
BYBLOCK
 62
     0
 10
285.752221
 20
36.391436
 30
0.0
 11
285.752221
 21
36.341436
 31
0.0
 12
285.602221
 22
36.366436
 32
0.0
 13
285.602221
 23
36.366436
 33
0.0
  0
SOLID
  8
0
  6
BYBLOCK
 62
     0
 10
286.952221
 20
36.391436
 30
0.0
 11
286.952221
 21
36.341436
 31
0.0
 12
287.102221
 22
36.366436
 32
0.0
 13
287.102221
 23
36.366436
 33
0.0
  0
TEXT
  8
0
  6
BYBLOCK
 62
     0
 10
286.221863
 20
36.403936
 30
0.0
 40
0.075
  1
1.50
  7
ROMANC
 72
     1
 11
286.352221
 21
36.441436
 31
0.0
 73
     2
  0
POINT
  8
DEFPOINTS
  6
BYBLOCK
 62
     0
 10
285.602221
 20
35.573082
 30
0.0
  0
POINT
  8
DEFPOINTS
  6
BYBLOCK
 62
     0
 10
287.102221
 20
35.573082
 30
0.0
  0
POINT
  8
DEFPOINTS
  6
BYBLOCK
 62
     0
 10
287.102221
 20
36.366436
 30
0.0
  0
ENDBLK
  8
0
  0
BLOCK
  8
0
  2
*D12
 70
    65
 10
0.0
 20
0.0
 30
0.0
  3
*D
  0
LINE
  8
0
  6
BYBLOCK
 62
     0
 10
286.367221
 20
36.173082
 30
0.0
 11
287.858448
 21
36.173082
 31
0.0
  0
LINE
  8
0
  6
BYBLOCK
 62
     0
 10
286.367221
 20
34.823082
 30
0.0
 11
287.858448
 21
34.823082
 31
0.0
  0
LINE
  8
0
  6
BYBLOCK
 62
     0
 10
287.843448
 20
36.023082
 30
0.0
 11
287.843448
 21
34.973082
 31
0.0
  0
SOLID
  8
0
  6
BYBLOCK
 62
     0
 10
287.818448
 20
36.023082
 30
0.0
 11
287.868448
 21
36.023082
 31
0.0
 12
287.843448
 22
36.173082
 32
0.0
 13
287.843448
 23
36.173082
 33
0.0
  0
SOLID
  8
0
  6
BYBLOCK
 62
     0
 10
287.818448
 20
34.973082
 30
0.0
 11
287.868448
 21
34.973082
 31
0.0
 12
287.843448
 22
34.823082
 32
0.0
 13
287.843448
 23
34.823082
 33
0.0
  0
TEXT
  8
0
  6
BYBLOCK
 62
     0
 10
287.805948
 20
35.367724
 30
0.0
 40
0.075
  1
1.35
 50
90.0
  7
ROMANC
 72
     1
 11
287.768448
 21
35.498082
 31
0.0
 73
     2
  0
POINT
  8
DEFPOINTS
  6
BYBLOCK
 62
     0
 10
286.352221
 20
36.173082
 30
0.0
  0
POINT
  8
DEFPOINTS
  6
BYBLOCK
 62
     0
 10
286.352221
 20
34.823082
 30
0.0
  0
POINT
  8
DEFPOINTS
  6
BYBLOCK
 62
     0
 10
287.843448
 20
34.823082
 30
0.0
  0
ENDBLK
  8
0
  0
BLOCK
  8
0
  2
*D13
 70
    65
 10
0.0
 20
0.0
 30
0.0
  3
*D
  0
LINE
  8
0
  6
BYBLOCK
 62
     0
 10
287.371161
 20
34.760868
 30
0.0
 11
287.371161
 21
34.413427
 31
0.0
  0
LINE
  8
0
  6
BYBLOCK
 62
     0
 10
286.371161
 20
34.760868
 30
0.0
 11
286.371161
 21
34.413427
 31
0.0
  0
LINE
  8
0
  6
BYBLOCK
 62
     0
 10
287.221161
 20
34.428427
 30
0.0
 11
286.521161
 21
34.428427
 31
0.0
  0
SOLID
  8
0
  6
BYBLOCK
 62
     0
 10
287.221161
 20
34.453427
 30
0.0
 11
287.221161
 21
34.403427
 31
0.0
 12
287.371161
 22
34.428427
 32
0.0
 13
287.371161
 23
34.428427
 33
0.0
  0
SOLID
  8
0
  6
BYBLOCK
 62
     0
 10
286.521161
 20
34.453427
 30
0.0
 11
286.521161
 21
34.403427
 31
0.0
 12
286.371161
 22
34.428427
 32
0.0
 13
286.371161
 23
34.428427
 33
0.0
  0
TEXT
  8
0
  6
BYBLOCK
 62
     0
 10
286.740804
 20
34.465927
 30
0.0
 40
0.075
  1
1.00
  7
ROMANC
 72
     1
 11
286.871161
 21
34.503427
 31
0.0
 73
     2
  0
POINT
  8
DEFPOINTS
  6
BYBLOCK
 62
     0
 10
287.371161
 20
34.775868
 30
0.0
  0
POINT
  8
DEFPOINTS
  6
BYBLOCK
 62
     0
 10
286.371161
 20
34.775868
 30
0.0
  0
POINT
  8
DEFPOINTS
  6
BYBLOCK
 62
     0
 10
286.371161
 20
34.428427
 30
0.0
  0
ENDBLK
  8
0
  0
BLOCK
  8
0
  2
*D14
 70
    65
 10
0.0
 20
0.0
 30
0.0
  3
*D
  0
LINE
  8
0
  6
BYBLOCK
 62
     0
 10
286.271161
 20
35.740868
 30
0.0
 11
286.271161
 21
35.740868
 31
0.0
  0
LINE
  8
0
  6
BYBLOCK
 62
     0
 10
287.471161
 20
35.740868
 30
0.0
 11
287.471161
 21
35.740868
 31
0.0
  0
LINE
  8
0
  6
BYBLOCK
 62
     0
 10
286.421161
 20
35.725868
 30
0.0
 11
287.321161
 21
35.725868
 31
0.0
  0
SOLID
  8
0
  6
BYBLOCK
 62
     0
 10
286.421161
 20
35.750868
 30
0.0
 11
286.421161
 21
35.700868
 31
0.0
 12
286.271161
 22
35.725868
 32
0.0
 13
286.271161
 23
35.725868
 33
0.0
  0
SOLID
  8
0
  6
BYBLOCK
 62
     0
 10
287.321161
 20
35.750868
 30
0.0
 11
287.321161
 21
35.700868
 31
0.0
 12
287.471161
 22
35.725868
 32
0.0
 13
287.471161
 23
35.725868
 33
0.0
  0
TEXT
  8
0
  6
BYBLOCK
 62
     0
 10
286.740804
 20
35.763368
 30
0.0
 40
0.075
  1
1.20
  7
ROMANC
 72
     1
 11
286.871161
 21
35.800868
 31
0.0
 73
     2
  0
POINT
  8
DEFPOINTS
  6
BYBLOCK
 62
     0
 10
286.271161
 20
35.725868
 30
0.0
  0
POINT
  8
DEFPOINTS
  6
BYBLOCK
 62
     0
 10
287.471161
 20
35.725868
 30
0.0
  0
POINT
  8
DEFPOINTS
  6
BYBLOCK
 62
     0
 10
287.471161
 20
35.725868
 30
0.0
  0
ENDBLK
  8
0
  0
BLOCK
  8
0
  2
*D15
 70
    65
 10
0.0
 20
0.0
 30
0.0
  3
*D
  0
LINE
  8
0
  6
BYBLOCK
 62
     0
 10
286.886161
 20
36.325868
 30
0.0
 11
288.147542
 21
36.325868
 31
0.0
  0
LINE
  8
0
  6
BYBLOCK
 62
     0
 10
286.886161
 20
34.775868
 30
0.0
 11
288.147542
 21
34.775868
 31
0.0
  0
LINE
  8
0
  6
BYBLOCK
 62
     0
 10
288.132542
 20
36.175868
 30
0.0
 11
288.132542
 21
34.925868
 31
0.0
  0
SOLID
  8
0
  6
BYBLOCK
 62
     0
 10
288.107542
 20
36.175868
 30
0.0
 11
288.157542
 21
36.175868
 31
0.0
 12
288.132542
 22
36.325868
 32
0.0
 13
288.132542
 23
36.325868
 33
0.0
  0
SOLID
  8
0
  6
BYBLOCK
 62
     0
 10
288.107542
 20
34.925868
 30
0.0
 11
288.157542
 21
34.925868
 31
0.0
 12
288.132542
 22
34.775868
 32
0.0
 13
288.132542
 23
34.775868
 33
0.0
  0
TEXT
  8
0
  6
BYBLOCK
 62
     0
 10
288.095042
 20
35.420511
 30
0.0
 40
0.075
  1
1.55
 50
90.0
  7
ROMANC
 72
     1
 11
288.057542
 21
35.550868
 31
0.0
 73
     2
  0
POINT
  8
DEFPOINTS
  6
BYBLOCK
 62
     0
 10
286.871161
 20
36.325868
 30
0.0
  0
POINT
  8
DEFPOINTS
  6
BYBLOCK
 62
     0
 10
286.871161
 20
34.775868
 30
0.0
  0
POINT
  8
DEFPOINTS
  6
BYBLOCK
 62
     0
 10
288.132542
 20
34.775868
 30
0.0
  0
ENDBLK
  8
0
  0
BLOCK
  8
0
  2
*D16
 70
    65
 10
0.0
 20
0.0
 30
0.0
  3
*D
  0
LINE
  8
0
  6
BYBLOCK
 62
     0
 10
287.486161
 20
35.725868
 30
0.0
 11
287.783432
 21
35.725868
 31
0.0
  0
LINE
  8
0
  6
BYBLOCK
 62
     0
 10
287.386161
 20
34.775868
 30
0.0
 11
287.783432
 21
34.775868
 31
0.0
  0
LINE
  8
0
  6
BYBLOCK
 62
     0
 10
287.768432
 20
35.575868
 30
0.0
 11
287.768432
 21
34.925868
 31
0.0
  0
SOLID
  8
0
  6
BYBLOCK
 62
     0
 10
287.743432
 20
35.575868
 30
0.0
 11
287.793432
 21
35.575868
 31
0.0
 12
287.768432
 22
35.725868
 32
0.0
 13
287.768432
 23
35.725868
 33
0.0
  0
SOLID
  8
0
  6
BYBLOCK
 62
     0
 10
287.743432
 20
34.925868
 30
0.0
 11
287.793432
 21
34.925868
 31
0.0
 12
287.768432
 22
34.775868
 32
0.0
 13
287.768432
 23
34.775868
 33
0.0
  0
TEXT
  8
0
  6
BYBLOCK
 62
     0
 10
287.730932
 20
35.125868
 30
0.0
 40
0.075
  1
0.95
 50
90.0
  7
ROMANC
 72
     1
 11
287.693432
 21
35.250868
 31
0.0
 73
     2
  0
POINT
  8
DEFPOINTS
  6
BYBLOCK
 62
     0
 10
287.471161
 20
35.725868
 30
0.0
  0
POINT
  8
DEFPOINTS
  6
BYBLOCK
 62
     0
 10
287.371161
 20
34.775868
 30
0.0
  0
POINT
  8
DEFPOINTS
  6
BYBLOCK
 62
     0
 10
287.768432
 20
34.775868
 30
0.0
  0
ENDBLK
  8
0
  0
BLOCK
  8
0
  2
*D17
 70
    65
 10
0.0
 20
0.0
 30
0.0
  3
*D
  0
LINE
  8
0
  6
BYBLOCK
 62
     0
 10
286.886161
 20
36.325868
 30
0.0
 11
288.06085
 21
36.325868
 31
0.0
  0
LINE
  8
0
  6
BYBLOCK
 62
     0
 10
286.886161
 20
34.775868
 30
0.0
 11
288.06085
 21
34.775868
 31
0.0
  0
LINE
  8
0
  6
BYBLOCK
 62
     0
 10
288.04585
 20
36.175868
 30
0.0
 11
288.04585
 21
34.925868
 31
0.0
  0
SOLID
  8
0
  6
BYBLOCK
 62
     0
 10
288.02085
 20
36.175868
 30
0.0
 11
288.07085
 21
36.175868
 31
0.0
 12
288.04585
 22
36.325868
 32
0.0
 13
288.04585
 23
36.325868
 33
0.0
  0
SOLID
  8
0
  6
BYBLOCK
 62
     0
 10
288.02085
 20
34.925868
 30
0.0
 11
288.07085
 21
34.925868
 31
0.0
 12
288.04585
 22
34.775868
 32
0.0
 13
288.04585
 23
34.775868
 33
0.0
  0
TEXT
  8
0
  6
BYBLOCK
 62
     0
 10
288.00835
 20
35.420511
 30
0.0
 40
0.075
  1
1.55
 50
90.0
  7
ROMANC
 72
     1
 11
287.97085
 21
35.550868
 31
0.0
 73
     2
  0
POINT
  8
DEFPOINTS
  6
BYBLOCK
 62
     0
 10
286.871161
 20
36.325868
 30
0.0
  0
POINT
  8
DEFPOINTS
  6
BYBLOCK
 62
     0
 10
286.871161
 20
34.775868
 30
0.0
  0
POINT
  8
DEFPOINTS
  6
BYBLOCK
 62
     0
 10
288.04585
 20
34.775868
 30
0.0
  0
ENDBLK
  8
0
  0
ENDSEC
  0
SECTION
  2
ENTITIES
  0
TEXT
  8
0
 10
283.887846
 20
40.56142
 30
0.0
 40
0.3
  1
P = 48 dm
  7
ROMANC
  0
TEXT
  8
0
 10
286.935368
 20
41.564915
 30
0.0
 40
0.1
  1
2
  7
ROMANC
  0
TEXT
  8
0
 10
283.925768
 20
41.857589
 30
0.0
 40
0.3
  1
ESCALA  1:50
  7
ROMANC
  0
TEXT
  8
0
 10
283.925768
 20
42.343303
 30
0.0
 40
0.3
  1
TIPUS   NT161A
  7
ROMANC
  0
TEXT
  8
0
 10
283.938862
 20
41.258999
 30
0.0
 40
0.3
  1
S= 161 dm
  7
ROMANC
  0
LINE
  8
0
 10
285.618144
 20
34.769868
 30
0.0
 11
286.628947
 21
34.769868
 31
0.0
  0
LINE
  8
0
 10
286.628947
 20
34.769868
 30
0.0
 11
286.729546
 21
35.725553
 31
0.0
  0
ARC
  8
0
 10
286.123546
 20
35.725868
 30
0.0
 40
0.606
 50
359.970149
 51
180.029851
  0
LINE
  8
0
 10
285.517546
 20
35.725553
 30
0.0
 11
285.618144
 21
34.769868
 31
0.0
  0
LINE
  8
0
 10
285.620845
 20
34.772868
 30
0.0
 11
286.626246
 21
34.772868
 31
0.0
  0
LINE
  8
0
 10
286.626246
 20
34.772868
 30
0.0
 11
286.726546
 21
35.725711
 31
0.0
  0
ARC
  8
0
 10
286.123546
 20
35.725868
 30
0.0
 40
0.603
 50
359.985019
 51
180.014981
  0
LINE
  8
0
 10
285.520546
 20
35.725711
 30
0.0
 11
285.620845
 21
34.772868
 31
0.0
  0
LINE
  8
0
 10
285.623546
 20
34.775868
 30
0.0
 11
286.623546
 21
34.775868
 31
0.0
  0
LINE
  8
0
 10
286.623546
 20
34.775868
 30
0.0
 11
286.723546
 21
35.725868
 31
0.0
  0
ARC
  8
0
 10
286.123546
 20
35.725868
 30
0.0
 40
0.6
 50
0.0
 51
180.0
  0
LINE
  8
0
 10
285.523546
 20
35.725868
 30
0.0
 11
285.623546
 21
34.775868
 31
0.0
  0
LINE
  8
0
  6
BYBLOCK
 62
     0
 10
286.738546
 20
35.725868
 30
0.0
 11
287.035817
 21
35.725868
 31
0.0
  0
LINE
  8
0
  6
BYBLOCK
 62
     0
 10
286.638546
 20
34.775868
 30
0.0
 11
287.035817
 21
34.775868
 31
0.0
  0
LINE
  8
0
  6
BYBLOCK
 62
     0
 10
287.020817
 20
35.575868
 30
0.0
 11
287.020817
 21
34.925868
 31
0.0
  0
SOLID
  8
0
  6
BYBLOCK
 62
     0
 10
286.995817
 20
35.575868
 30
0.0
 11
287.045817
 21
35.575868
 31
0.0
 12
287.020817
 22
35.725868
 32
0.0
 13
287.020817
 23
35.725868
 33
0.0
  0
SOLID
  8
0
  6
BYBLOCK
 62
     0
 10
286.995817
 20
34.925868
 30
0.0
 11
287.045817
 21
34.925868
 31
0.0
 12
287.020817
 22
34.775868
 32
0.0
 13
287.020817
 23
34.775868
 33
0.0
  0
TEXT
  8
0
  6
BYBLOCK
 62
     0
 10
286.983317
 20
35.125868
 30
0.0
 40
0.075
  1
0.95
 50
90.0
  7
ROMANC
 72
     1
 11
286.945817
 21
35.250868
 31
0.0
 73
     2
  0
POINT
  8
DEFPOINTS
  6
BYBLOCK
 62
     0
 10
286.723546
 20
35.725868
 30
0.0
  0
POINT
  8
DEFPOINTS
  6
BYBLOCK
 62
     0
 10
286.623546
 20
34.775868
 30
0.0
  0
POINT
  8
DEFPOINTS
  6
BYBLOCK
 62
     0
 10
287.020817
 20
34.775868
 30
0.0
  0
LINE
  8
0
  6
BYBLOCK
 62
     0
 10
286.138546
 20
36.325868
 30
0.0
 11
287.313234
 21
36.325868
 31
0.0
  0
LINE
  8
0
  6
BYBLOCK
 62
     0
 10
286.138546
 20
34.775868
 30
0.0
 11
287.313234
 21
34.775868
 31
0.0
  0
LINE
  8
0
  6
BYBLOCK
 62
     0
 10
287.298234
 20
36.175868
 30
0.0
 11
287.298234
 21
34.925868
 31
0.0
  0
SOLID
  8
0
  6
BYBLOCK
 62
     0
 10
287.273234
 20
36.175868
 30
0.0
 11
287.323234
 21
36.175868
 31
0.0
 12
287.298234
 22
36.325868
 32
0.0
 13
287.298234
 23
36.325868
 33
0.0
  0
SOLID
  8
0
  6
BYBLOCK
 62
     0
 10
287.273234
 20
34.925868
 30
0.0
 11
287.323234
 21
34.925868
 31
0.0
 12
287.298234
 22
34.775868
 32
0.0
 13
287.298234
 23
34.775868
 33
0.0
  0
TEXT
  8
0
  6
BYBLOCK
 62
     0
 10
287.260734
 20
35.420511
 30
0.0
 40
0.075
  1
1.55
 50
90.0
  7
ROMANC
 72
     1
 11
287.223234
 21
35.550868
 31
0.0
 73
     2
  0
POINT
  8
DEFPOINTS
  6
BYBLOCK
 62
     0
 10
286.123546
 20
36.325868
 30
0.0
  0
POINT
  8
DEFPOINTS
  6
BYBLOCK
 62
     0
 10
286.123546
 20
34.775868
 30
0.0
  0
POINT
  8
DEFPOINTS
  6
BYBLOCK
 62
     0
 10
287.298234
 20
34.775868
 30
0.0
  0
LINE
  8
0
  6
BYBLOCK
 62
     0
 10
285.523546
 20
35.740868
 30
0.0
 11
285.523546
 21
35.740868
 31
0.0
  0
LINE
  8
0
  6
BYBLOCK
 62
     0
 10
286.723546
 20
35.740868
 30
0.0
 11
286.723546
 21
35.740868
 31
0.0
  0
LINE
  8
0
  6
BYBLOCK
 62
     0
 10
285.673546
 20
35.725868
 30
0.0
 11
286.573546
 21
35.725868
 31
0.0
  0
SOLID
  8
0
  6
BYBLOCK
 62
     0
 10
285.673546
 20
35.750868
 30
0.0
 11
285.673546
 21
35.700868
 31
0.0
 12
285.523546
 22
35.725868
 32
0.0
 13
285.523546
 23
35.725868
 33
0.0
  0
SOLID
  8
0
  6
BYBLOCK
 62
     0
 10
286.573546
 20
35.750868
 30
0.0
 11
286.573546
 21
35.700868
 31
0.0
 12
286.723546
 22
35.725868
 32
0.0
 13
286.723546
 23
35.725868
 33
0.0
  0
TEXT
  8
0
  6
BYBLOCK
 62
     0
 10
285.993189
 20
35.763368
 30
0.0
 40
0.075
  1
1.20
  7
ROMANC
 72
     1
 11
286.123546
 21
35.800868
 31
0.0
 73
     2
  0
POINT
  8
DEFPOINTS
  6
BYBLOCK
 62
     0
 10
285.523546
 20
35.725868
 30
0.0
  0
POINT
  8
DEFPOINTS
  6
BYBLOCK
 62
     0
 10
286.723546
 20
35.725868
 30
0.0
  0
POINT
  8
DEFPOINTS
  6
BYBLOCK
 62
     0
 10
286.723546
 20
35.725868
 30
0.0
  0
LINE
  8
0
  6
BYBLOCK
 62
     0
 10
286.623546
 20
34.760868
 30
0.0
 11
286.623546
 21
34.413427
 31
0.0
  0
LINE
  8
0
  6
BYBLOCK
 62
     0
 10
285.623546
 20
34.760868
 30
0.0
 11
285.623546
 21
34.413427
 31
0.0
  0
LINE
  8
0
  6
BYBLOCK
 62
     0
 10
286.473546
 20
34.428427
 30
0.0
 11
285.773546
 21
34.428427
 31
0.0
  0
SOLID
  8
0
  6
BYBLOCK
 62
     0
 10
286.473546
 20
34.453427
 30
0.0
 11
286.473546
 21
34.403427
 31
0.0
 12
286.623546
 22
34.428427
 32
0.0
 13
286.623546
 23
34.428427
 33
0.0
  0
SOLID
  8
0
  6
BYBLOCK
 62
     0
 10
285.773546
 20
34.453427
 30
0.0
 11
285.773546
 21
34.403427
 31
0.0
 12
285.623546
 22
34.428427
 32
0.0
 13
285.623546
 23
34.428427
 33
0.0
  0
TEXT
  8
0
  6
BYBLOCK
 62
     0
 10
285.993189
 20
34.465927
 30
0.0
 40
0.075
  1
1.00
  7
ROMANC
 72
     1
 11
286.123546
 21
34.503427
 31
0.0
 73
     2
  0
POINT
  8
DEFPOINTS
  6
BYBLOCK
 62
     0
 10
286.623546
 20
34.775868
 30
0.0
  0
POINT
  8
DEFPOINTS
  6
BYBLOCK
 62
     0
 10
285.623546
 20
34.775868
 30
0.0
  0
POINT
  8
DEFPOINTS
  6
BYBLOCK
 62
     0
 10
285.623546
 20
34.428427
 30
0.0
  0
LINE
  8
0
 10
280.96095
 20
29.423763
 30
0.0
 11
280.96095
 21
44.273763
 31
0.0
  0
LINE
  8
0
 10
280.96095
 20
44.273763
 30
0.0
 11
291.46095
 21
44.273763
 31
0.0
  0
LINE
  8
0
 10
291.46095
 20
44.273763
 30
0.0
 11
291.46095
 21
29.423763
 31
0.0
  0
LINE
  8
0
 10
291.46095
 20
29.423763
 30
0.0
 11
280.96095
 21
29.423763
 31
0.0
  0
ENDSEC
  0
EOF
