  0
SECTION
  2
HEADER
  9
$ACADVER
  1
AC1009
  9
$INSBASE
 10
231.356939
 20
216.131084
 30
0.0
  9
$EXTMIN
 10
231.356939
 20
216.131084
 30
0.0
  9
$EXTMAX
 10
241.856939
 20
230.981084
 30
0.0
  9
$LIMMIN
 10
0.0
 20
0.0
  9
$LIMMAX
 10
410.0
 20
287.0
  9
$ORTHOMODE
 70
     0
  9
$REGENMODE
 70
     1
  9
$FILLMODE
 70
     1
  9
$QTEXTMODE
 70
     0
  9
$MIRRTEXT
 70
     1
  9
$DRAGMODE
 70
     2
  9
$LTSCALE
 40
25.0
  9
$OSMODE
 70
    32
  9
$ATTMODE
 70
     1
  9
$TEXTSIZE
 40
0.1
  9
$TRACEWID
 40
0.3
  9
$TEXTSTYLE
  7
STANDARD
  9
$CLAYER
  8
0
  9
$CELTYPE
  6
BYLAYER
  9
$CECOLOR
 62
   256
  9
$DIMSCALE
 40
1.0
  9
$DIMASZ
 40
3.5
  9
$DIMEXO
 40
0.1
  9
$DIMDLI
 40
7.0
  9
$DIMRND
 40
0.0
  9
$DIMDLE
 40
0.0
  9
$DIMEXE
 40
1.8
  9
$DIMTP
 40
0.0
  9
$DIMTM
 40
0.0
  9
$DIMTXT
 40
3.5
  9
$DIMCEN
 40
1.5
  9
$DIMTSZ
 40
0.0
  9
$DIMTOL
 70
     0
  9
$DIMLIM
 70
     0
  9
$DIMTIH
 70
     0
  9
$DIMTOH
 70
     0
  9
$DIMSE1
 70
     0
  9
$DIMSE2
 70
     0
  9
$DIMTAD
 70
     0
  9
$DIMZIN
 70
     0
  9
$DIMBLK
  1

  9
$DIMASO
 70
     1
  9
$DIMSHO
 70
     0
  9
$DIMPOST
  1

  9
$DIMAPOST
  1

  9
$DIMALT
 70
     0
  9
$DIMALTD
 70
     2
  9
$DIMALTF
 40
25.4
  9
$DIMLFAC
 40
1.0
  9
$DIMTOFL
 70
     0
  9
$DIMTVP
 40
0.0
  9
$DIMTIX
 70
     0
  9
$DIMSOXD
 70
     0
  9
$DIMSAH
 70
     0
  9
$DIMBLK1
  1

  9
$DIMBLK2
  1

  9
$DIMSTYLE
  2
*UNNAMED
  9
$DIMCLRD
 70
     0
  9
$DIMCLRE
 70
     0
  9
$DIMCLRT
 70
     0
  9
$DIMTFAC
 40
1.0
  9
$DIMGAP
 40
0.09
  9
$LUNITS
 70
     2
  9
$LUPREC
 70
     2
  9
$SKETCHINC
 40
1.0
  9
$FILLETRAD
 40
0.0
  9
$AUNITS
 70
     0
  9
$AUPREC
 70
     0
  9
$MENU
  1
acad
  9
$ELEVATION
 40
0.0
  9
$PELEVATION
 40
0.0
  9
$THICKNESS
 40
0.0
  9
$LIMCHECK
 70
     0
  9
$BLIPMODE
 70
     0
  9
$CHAMFERA
 40
0.0
  9
$CHAMFERB
 40
0.0
  9
$SKPOLY
 70
     0
  9
$TDCREATE
 40
2449961.519098611
  9
$TDUPDATE
 40
2450399.355753703
  9
$TDINDWG
 40
0.0021442130
  9
$TDUSRTIMER
 40
0.0021442130
  9
$USRTIMER
 70
     1
  9
$ANGBASE
 50
0.0
  9
$ANGDIR
 70
     0
  9
$PDMODE
 70
     0
  9
$PDSIZE
 40
0.0
  9
$PLINEWID
 40
0.0
  9
$COORDS
 70
     2
  9
$SPLFRAME
 70
     0
  9
$SPLINETYPE
 70
     6
  9
$SPLINESEGS
 70
     8
  9
$ATTDIA
 70
     0
  9
$ATTREQ
 70
     1
  9
$HANDLING
 70
     0
  9
$HANDSEED
  5
0
  9
$SURFTAB1
 70
     6
  9
$SURFTAB2
 70
     6
  9
$SURFTYPE
 70
     6
  9
$SURFU
 70
     6
  9
$SURFV
 70
     6
  9
$UCSNAME
  2

  9
$UCSORG
 10
0.0
 20
0.0
 30
0.0
  9
$UCSXDIR
 10
1.0
 20
0.0
 30
0.0
  9
$UCSYDIR
 10
0.0
 20
1.0
 30
0.0
  9
$PUCSNAME
  2

  9
$PUCSORG
 10
0.0
 20
0.0
 30
0.0
  9
$PUCSXDIR
 10
1.0
 20
0.0
 30
0.0
  9
$PUCSYDIR
 10
0.0
 20
1.0
 30
0.0
  9
$USERI1
 70
     0
  9
$USERI2
 70
     0
  9
$USERI3
 70
     0
  9
$USERI4
 70
     0
  9
$USERI5
 70
     0
  9
$USERR1
 40
0.0
  9
$USERR2
 40
0.0
  9
$USERR3
 40
0.0
  9
$USERR4
 40
0.0
  9
$USERR5
 40
0.0
  9
$WORLDVIEW
 70
     1
  9
$SHADEDGE
 70
     3
  9
$SHADEDIF
 70
    70
  9
$TILEMODE
 70
     1
  9
$MAXACTVP
 70
    16
  9
$PINSBASE
 10
0.0
 20
0.0
 30
0.0
  9
$PLIMCHECK
 70
     0
  9
$PEXTMIN
 10
1.000000E+20
 20
1.000000E+20
 30
1.000000E+20
  9
$PEXTMAX
 10
-1.000000E+20
 20
-1.000000E+20
 30
-1.000000E+20
  9
$PLIMMIN
 10
0.0
 20
0.0
  9
$PLIMMAX
 10
12.0
 20
9.0
  9
$UNITMODE
 70
     0
  9
$VISRETAIN
 70
     0
  9
$PLINEGEN
 70
     0
  9
$PSLTSCALE
 70
     0
  9
$TREEDEPTH
 70
  3020
  9
$DWGCODEPAGE
  3
iso8859-1
  0
ENDSEC
  0
SECTION
  2
TABLES
  0
TABLE
  2
VPORT
 70
     1
  0
VPORT
  2
*ACTIVE
 70
     0
 10
0.0
 20
0.0
 11
1.0
 21
1.0
 12
243.671277
 22
223.556084
 13
0.0
 23
0.0
 14
1.0
 24
1.0
 15
10.0
 25
10.0
 16
0.0
 26
0.0
 36
1.0
 17
0.0
 27
0.0
 37
0.0
 40
14.85
 41
1.658497
 42
50.0
 43
0.0
 44
0.0
 50
0.0
 51
0.0
 71
     0
 72
   100
 73
     1
 74
     0
 75
     0
 76
     0
 77
     0
 78
     0
  0
ENDTAB
  0
TABLE
  2
LTYPE
 70
     1
  0
LTYPE
  2
CONTINUOUS
 70
    64
  3
Solid Line
 72
    65
 73
     0
 40
0.0
  0
ENDTAB
  0
TABLE
  2
LAYER
 70
     5
  0
LAYER
  2
0
 70
    64
 62
     7
  6
CONTINUOUS
  0
LAYER
  2
SECCIO
 70
    64
 62
     7
  6
CONTINUOUS
  0
LAYER
  2
MESURA
 70
    64
 62
     7
  6
CONTINUOUS
  0
LAYER
  2
TEXTEP
 70
    64
 62
     7
  6
CONTINUOUS
  0
LAYER
  2
TEXTEG
 70
    64
 62
     7
  6
CONTINUOUS
  0
ENDTAB
  0
TABLE
  2
STYLE
 70
     2
  0
STYLE
  2
STANDARD
 70
    64
 40
0.0
 41
1.0
 50
0.0
 71
     0
 42
0.1
  3
txt
  4

  0
STYLE
  2
ROMANC
 70
    64
 40
0.0
 41
1.0
 50
0.0
 71
     0
 42
0.1
  3
romanc
  4

  0
ENDTAB
  0
TABLE
  2
VIEW
 70
     0
  0
ENDTAB
  0
TABLE
  2
UCS
 70
     0
  0
ENDTAB
  0
TABLE
  2
APPID
 70
     1
  0
APPID
  2
ACAD
 70
    64
  0
ENDTAB
  0
TABLE
  2
DIMSTYLE
 70
     0
  0
ENDTAB
  0
ENDSEC
  0
SECTION
  2
BLOCKS
  0
ENDSEC
  0
SECTION
  2
ENTITIES
  0
TEXT
  8
0
 10
233.301191
 20
227.210164
 30
0.0
 40
0.3
  1
P = 52 dm
  7
ROMANC
  0
TEXT
  8
0
 10
233.304019
 20
227.883662
 30
0.0
 40
0.3
  1
S = 161  dm
  7
ROMANC
  0
LINE
  8
0
 10
231.356939
 20
230.981084
 30
0.0
 11
241.856939
 21
230.981084
 31
0.0
  0
LINE
  8
MESURA
 10
235.859982
 20
222.743287
 30
0.0
 11
235.276365
 21
222.743287
 31
0.0
  0
LINE
  8
MESURA
 10
236.359982
 20
223.043287
 30
0.0
 11
235.276365
 21
223.043287
 31
0.0
  0
LINE
  8
MESURA
 10
235.877844
 20
221.943287
 30
0.0
 11
235.258158
 21
221.943287
 31
0.0
  0
LINE
  8
0
 10
231.356939
 20
216.131084
 30
0.0
 11
241.856939
 21
216.131084
 31
0.0
  0
LINE
  8
0
 10
231.356939
 20
230.981084
 30
0.0
 11
231.356939
 21
216.131084
 31
0.0
  0
TEXT
  8
TEXTEP
 10
235.045765
 20
222.828235
 30
0.0
 40
0.1
  1
0.3
  0
TEXT
  8
TEXTEP
 10
235.060351
 20
222.234522
 30
0.0
 40
0.1
  1
1.9
  0
LINE
  8
MESURA
 10
237.477844
 20
222.043287
 30
0.0
 11
237.477844
 21
221.34534
 31
0.0
  0
LINE
  8
MESURA
 10
235.877844
 20
221.943287
 30
0.0
 11
235.877844
 21
221.362139
 31
0.0
  0
LINE
  8
MESURA
 10
236.707844
 20
221.943287
 30
0.0
 11
236.707844
 21
221.34504
 31
0.0
  0
LINE
  8
0
 10
241.856939
 20
230.981084
 30
0.0
 11
241.856939
 21
216.131084
 31
0.0
  0
LINE
  8
MESURA
 10
237.42802
 20
221.409843
 30
0.0
 11
237.51141
 21
221.470453
 31
0.0
  0
TEXT
  8
TEXTEP
 10
236.930772
 20
221.281442
 30
0.0
 40
0.1
  1
0.77
  0
TEXT
  8
TEXTEP
 10
236.095464
 20
221.27089
 30
0.0
 40
0.1
  1
0.83
  0
LINE
  8
MESURA
 10
236.669428
 20
221.409843
 30
0.0
 11
236.752818
 21
221.470453
 31
0.0
  0
LINE
  8
SECCIO
 10
235.806018
 20
221.443287
 30
0.0
 11
237.590119
 21
221.443287
 31
0.0
  0
LINE
  8
MESURA
 10
235.83148
 20
221.408259
 30
0.0
 11
235.914871
 21
221.468869
 31
0.0
  0
LINE
  8
MESURA
 10
236.405265
 20
223.214135
 30
0.0
 11
236.321875
 21
223.274745
 31
0.0
  0
LINE
  8
MESURA
 10
235.859982
 20
222.743287
 30
0.0
 11
235.859982
 21
223.3276
 31
0.0
  0
LINE
  8
MESURA
 10
236.359982
 20
223.043287
 30
0.0
 11
236.359982
 21
223.3276
 31
0.0
  0
TEXT
  8
TEXTEP
 10
236.036565
 20
223.345615
 30
0.0
 40
0.1
  1
0.5
  0
LINE
  8
MESURA
 10
237.942162
 20
221.915625
 30
0.0
 11
238.025553
 21
221.976235
 31
0.0
  0
LINE
  8
MESURA
 10
237.477844
 20
222.043287
 30
0.0
 11
238.061816
 21
222.043287
 31
0.0
  0
LINE
  8
MESURA
 10
237.942162
 20
222.012276
 30
0.0
 11
238.025553
 21
222.072886
 31
0.0
  0
TEXT
  8
TEXTEP
 10
238.083137
 20
221.934402
 30
0.0
 40
0.1
  1
0.1
  0
LINE
  8
MESURA
 10
237.982406
 20
222.148688
 30
0.0
 11
237.982406
 21
222.043287
 31
0.0
  0
LINE
  8
MESURA
 10
237.982406
 20
222.043287
 30
0.0
 11
237.982406
 21
221.943287
 31
0.0
  0
LINE
  8
MESURA
 10
237.982406
 20
221.943287
 30
0.0
 11
237.982406
 21
221.857692
 31
0.0
  0
LINE
  8
MESURA
 10
236.707844
 20
221.943287
 30
0.0
 11
238.101584
 21
221.943287
 31
0.0
  0
LINE
  8
MESURA
 10
235.400735
 20
223.011529
 30
0.0
 11
235.317345
 21
223.072139
 31
0.0
  0
LINE
  8
MESURA
 10
235.402725
 20
222.712479
 30
0.0
 11
235.319335
 21
222.773089
 31
0.0
  0
LINE
  8
SECCIO
 10
235.359982
 20
223.118027
 30
0.0
 11
235.359982
 21
221.943287
 31
0.0
  0
LINE
  8
SECCIO
 10
236.457298
 20
223.245468
 30
0.0
 11
235.783566
 21
223.245468
 31
0.0
  0
LINE
  8
MESURA
 10
235.903524
 20
223.210592
 30
0.0
 11
235.820134
 21
223.271202
 31
0.0
  0
TEXT
  8
0
 10
236.81185
 20
228.189578
 30
0.0
 40
0.1
  1
2
  7
ROMANC
  0
TEXT
  8
0
 10
233.304019
 20
228.610416
 30
0.0
 40
0.3
  1
ESCALA   1:50
  7
ROMANC
  0
TEXT
  8
0
 10
233.304019
 20
229.264495
 30
0.0
 40
0.3
  1
TIPUS   NT161
  7
ROMANC
  0
LINE
  8
SECCIO
 10
237.467844
 20
222.053287
 30
0.0
 11
236.697844
 21
222.053287
 31
0.0
  0
LINE
  8
SECCIO
 10
236.697844
 20
222.053287
 30
0.0
 11
236.697844
 21
221.953287
 31
0.0
  0
LINE
  8
SECCIO
 10
236.697844
 20
221.953287
 30
0.0
 11
235.887844
 21
221.953287
 31
0.0
  0
LINE
  8
SECCIO
 10
235.887844
 20
221.953287
 30
0.0
 11
235.887844
 21
222.737625
 31
0.0
  0
LINE
  8
SECCIO
 10
235.887844
 20
222.737625
 30
0.0
 11
236.380614
 21
223.033287
 31
0.0
  0
LINE
  8
SECCIO
 10
236.380614
 20
223.033287
 30
0.0
 11
236.77787
 21
223.033287
 31
0.0
  0
LINE
  8
SECCIO
 10
236.77787
 20
223.033287
 30
0.0
 11
237.462861
 21
223.035084
 31
0.0
  0
LINE
  8
SECCIO
 10
237.462861
 20
223.035084
 30
0.0
 11
237.467844
 21
222.743202
 31
0.0
  0
LINE
  8
SECCIO
 10
237.467844
 20
222.743202
 30
0.0
 11
237.467844
 21
222.053287
 31
0.0
  0
LINE
  8
SECCIO
 10
237.487844
 20
222.033287
 30
0.0
 11
236.717844
 21
222.033287
 31
0.0
  0
LINE
  8
SECCIO
 10
236.717844
 20
222.033287
 30
0.0
 11
236.717844
 21
221.933287
 31
0.0
  0
LINE
  8
SECCIO
 10
236.717844
 20
221.933287
 30
0.0
 11
235.867844
 21
221.933287
 31
0.0
  0
LINE
  8
SECCIO
 10
235.867844
 20
221.933287
 30
0.0
 11
235.867844
 21
222.748949
 31
0.0
  0
LINE
  8
SECCIO
 10
235.867844
 20
222.748949
 30
0.0
 11
236.375074
 21
223.053287
 31
0.0
  0
LINE
  8
SECCIO
 10
236.375074
 20
223.053287
 30
0.0
 11
236.777831
 21
223.053287
 31
0.0
  0
LINE
  8
SECCIO
 10
236.777831
 20
223.053287
 30
0.0
 11
237.482522
 21
223.055136
 31
0.0
  0
LINE
  8
SECCIO
 10
237.482522
 20
223.055136
 30
0.0
 11
237.487844
 21
222.743287
 31
0.0
  0
LINE
  8
SECCIO
 10
237.487844
 20
222.743287
 30
0.0
 11
237.487844
 21
222.033287
 31
0.0
  0
LINE
  8
SECCIO
 10
237.477844
 20
222.043287
 30
0.0
 11
236.707844
 21
222.043287
 31
0.0
  0
LINE
  8
SECCIO
 10
236.707844
 20
222.043287
 30
0.0
 11
236.707844
 21
221.943287
 31
0.0
  0
LINE
  8
SECCIO
 10
236.707844
 20
221.943287
 30
0.0
 11
235.877844
 21
221.943287
 31
0.0
  0
LINE
  8
SECCIO
 10
235.877844
 20
221.943287
 30
0.0
 11
235.877844
 21
222.743287
 31
0.0
  0
LINE
  8
SECCIO
 10
235.877844
 20
222.743287
 30
0.0
 11
236.377844
 21
223.043287
 31
0.0
  0
LINE
  8
SECCIO
 10
236.377844
 20
223.043287
 30
0.0
 11
236.777844
 21
223.043287
 31
0.0
  0
LINE
  8
SECCIO
 10
236.777844
 20
223.043287
 30
0.0
 11
237.472691
 21
223.04511
 31
0.0
  0
LINE
  8
SECCIO
 10
237.472691
 20
223.04511
 30
0.0
 11
237.477844
 21
222.743287
 31
0.0
  0
LINE
  8
SECCIO
 10
237.477844
 20
222.743287
 30
0.0
 11
237.477844
 21
222.035198
 31
0.0
  0
LINE
  8
SECCIO
 10
237.477844
 20
222.035198
 30
0.0
 11
237.477844
 21
222.043287
 31
0.0
  0
ENDSEC
  0
EOF
