  0
SECTION
  2
HEADER
  9
$ACADVER
  1
AC1009
  9
$INSBASE
 10
0.0
 20
0.0
 30
0.0
  9
$EXTMIN
 10
281.396000
 20
29.897000
 30
-2147483.648000
  9
$EXTMAX
 10
291.896000
 20
44.747000
 30
0.000000
  9
$LIMMIN
 10
280.396000
 20
28.897000
  9
$LIMMAX
 10
292.896000
 20
43.747000
  9
$ORTHOMODE
 70
     0
  9
$REGENMODE
 70
     1
  9
$FILLMODE
 70
     1
  9
$QTEXTMODE
 70
     0
  9
$MIRRTEXT
 70
     1
  9
$DRAGMODE
 70
     2
  9
$LTSCALE
 40
1.0
  9
$OSMODE
 70
     0
  9
$ATTMODE
 70
     1
  9
$TEXTSIZE
 40
0.2
  9
$TRACEWID
 40
0.05
  9
$TEXTSTYLE
  7
STANDARD
  9
$CLAYER
  8
0
  9
$CELTYPE
  6
BYLAYER
  9
$CECOLOR
 62
   256
  9
$DIMSCALE
 40
1.0
  9
$DIMASZ
 40
0.18
  9
$DIMEXO
 40
0.0625
  9
$DIMDLI
 40
0.38
  9
$DIMRND
 40
0.0
  9
$DIMDLE
 40
0.0
  9
$DIMEXE
 40
0.18
  9
$DIMTP
 40
0.0
  9
$DIMTM
 40
0.0
  9
$DIMTXT
 40
0.18
  9
$DIMCEN
 40
0.09
  9
$DIMTSZ
 40
0.0
  9
$DIMTOL
 70
     0
  9
$DIMLIM
 70
     0
  9
$DIMTIH
 70
     1
  9
$DIMTOH
 70
     1
  9
$DIMSE1
 70
     0
  9
$DIMSE2
 70
     0
  9
$DIMTAD
 70
     0
  9
$DIMZIN
 70
     0
  9
$DIMBLK
  1

  9
$DIMASO
 70
     1
  9
$DIMSHO
 70
     1
  9
$DIMPOST
  1

  9
$DIMAPOST
  1

  9
$DIMALT
 70
     0
  9
$DIMALTD
 70
     2
  9
$DIMALTF
 40
25.4
  9
$DIMLFAC
 40
1.0
  9
$DIMTOFL
 70
     0
  9
$DIMTVP
 40
0.0
  9
$DIMTIX
 70
     0
  9
$DIMSOXD
 70
     0
  9
$DIMSAH
 70
     0
  9
$DIMBLK1
  1

  9
$DIMBLK2
  1

  9
$DIMSTYLE
  2
*UNNAMED
  9
$DIMCLRD
 70
     0
  9
$DIMCLRE
 70
     0
  9
$DIMCLRT
 70
     0
  9
$DIMTFAC
 40
1.0
  9
$DIMGAP
 40
0.09
  9
$LUNITS
 70
     2
  9
$LUPREC
 70
     4
  9
$AXISMODE
 70
     0
  9
$AXISUNIT
 10
0.0
 20
0.0
  9
$SKETCHINC
 40
0.1
  9
$FILLETRAD
 40
0.0
  9
$AUNITS
 70
     0
  9
$AUPREC
 70
     0
  9
$MENU
  1
acad
  9
$ELEVATION
 40
0.0
  9
$PELEVATION
 40
0.0
  9
$THICKNESS
 40
0.0
  9
$LIMCHECK
 70
     0
  9
$BLIPMODE
 70
     1
  9
$CHAMFERA
 40
0.0
  9
$CHAMFERB
 40
0.0
  9
$SKPOLY
 70
     0
  9
$TDCREATE
 40
2448315.373408102
  9
$TDUPDATE
 40
2448315.373408102
  9
$TDINDWG
 40
0.0000000000
  9
$TDUSRTIMER
 40
0.0000000000
  9
$USRTIMER
 70
     1
  9
$ANGBASE
 50
0.0
  9
$ANGDIR
 70
     0
  9
$PDMODE
 70
     0
  9
$PDSIZE
 40
0.0
  9
$PLINEWID
 40
0.0
  9
$COORDS
 70
     0
  9
$SPLFRAME
 70
     0
  9
$SPLINETYPE
 70
     6
  9
$SPLINESEGS
 70
     8
  9
$ATTDIA
 70
     0
  9
$ATTREQ
 70
     1
  9
$HANDLING
 70
     0
  9
$HANDSEED
  5
0
  9
$SURFTAB1
 70
     6
  9
$SURFTAB2
 70
     6
  9
$SURFTYPE
 70
     6
  9
$SURFU
 70
     6
  9
$SURFV
 70
     6
  9
$UCSNAME
  2

  9
$UCSORG
 10
0.0
 20
0.0
 30
0.0
  9
$UCSXDIR
 10
1.0
 20
0.0
 30
0.0
  9
$UCSYDIR
 10
0.0
 20
1.0
 30
0.0
  9
$PUCSNAME
  2

  9
$PUCSORG
 10
0.0
 20
0.0
 30
0.0
  9
$PUCSXDIR
 10
1.0
 20
0.0
 30
0.0
  9
$PUCSYDIR
 10
0.0
 20
1.0
 30
0.0
  9
$USERI1
 70
     0
  9
$USERI2
 70
     0
  9
$USERI3
 70
     0
  9
$USERI4
 70
     0
  9
$USERI5
 70
     0
  9
$USERR1
 40
0.0
  9
$USERR2
 40
0.0
  9
$USERR3
 40
0.0
  9
$USERR4
 40
0.0
  9
$USERR5
 40
0.0
  9
$WORLDVIEW
 70
     1
  9
$SHADEDGE
 70
     3
  9
$SHADEDIF
 70
    70
  9
$TILEMODE
 70
     1
  9
$MAXACTVP
 70
    16
  9
$PINSBASE
 10
0.0
 20
0.0
 30
0.0
  9
$PLIMCHECK
 70
     0
  9
$PEXTMIN
 10
1.000000E+20
 20
1.000000E+20
 30
1.000000E+20
  9
$PEXTMAX
 10
-1.000000E+20
 20
-1.000000E+20
 30
-1.000000E+20
  9
$PLIMMIN
 10
0.0
 20
0.0
  9
$PLIMMAX
 10
12.0
 20
9.0
  9
$UNITMODE
 70
     0
  9
$VISRETAIN
 70
     0
  0
ENDSEC
  0
SECTION
  2
TABLES
  0
TABLE
  2
LTYPE
 70
    1
  0
LTYPE
  2
CONTINUOUS
 70
    64
3
Solid line
 72
    65
 73
0
 40
0.000000
  0
ENDTAB
  0
TABLE
  2
LAYER
 70
    8
  0
LAYER
  2
0
 70
    64
 62
7
  6
CONTINUOUS
  0
LAYER
  2
1
 70
    64
 62
7
  6
CONTINUOUS
  0
LAYER
  2
7
 70
    64
 62
7
  6
CONTINUOUS
  0
LAYER
  2
8
 70
    64
 62
7
  6
CONTINUOUS
  0
LAYER
  2
9
 70
    64
 62
7
  6
CONTINUOUS
  0
LAYER
  2
22
 70
    64
 62
7
  6
CONTINUOUS
  0
LAYER
  2
25
 70
    64
 62
7
  6
CONTINUOUS
  0
LAYER
  2
0
 70
    64
 62
7
  6
CONTINUOUS
  0
ENDTAB
  0
TABLE
  2
STYLE
 70
    1
  0
STYLE
  2
ROMANC
70
     0
 40
0.0
 41
1.0
 50
0.0
 71
     0
 42
0.2
  3
ROMANC
  4

  0
ENDTAB
  0
ENDSEC
  0
SECTION
  2
BLOCKS
  0
ENDSEC
  0
SECTION
  2
ENTITIES
  0
TEXT
  8
0
  6
CONTINUOUS
 40
0.100000
 10
286.909000
 20
41.324000
  1
2
  7
ROMANC
  0
TEXT
  8
0
  6
CONTINUOUS
 40
0.300000
 10
283.926000
 20
41.768000
  1
ESCALA  1:50
  7
ROMANC
  0
POLYLINE
  8
0
  6
CONTINUOUS
 66
     1
 70
     1
  0
VERTEX
  8
0
  6
CONTINUOUS
 10
281.396000
 20
44.747000
  0
VERTEX
  8
0
  6
CONTINUOUS
 10
291.896000
 20
44.747000
  0
VERTEX
  8
0
  6
CONTINUOUS
 10
291.896000
 20
29.897000
  0
VERTEX
  8
0
  6
CONTINUOUS
 10
281.396000
 20
29.897000
  0
SEQEND
  8
0
  0
TEXT
  8
0
  6
CONTINUOUS
 40
0.300000
 10
283.926000
 20
42.381000
  1
TIPUS   NT159
  7
ROMANC
  0
TEXT
  8
0
  6
CONTINUOUS
 40
0.300000
 10
283.945000
 20
41.099000
  1
S = 159 dm
  7
ROMANC
  0
TEXT
  8
0
  6
CONTINUOUS
 40
0.300000
 10
283.922000
 20
40.529000
  1
P = 50.2 dm
  7
ROMANC
  0
POLYLINE
  8
1
  6
CONTINUOUS
 66
     1
 70
     0
  0
VERTEX
  8
1
  6
CONTINUOUS
 10
286.704000
 20
34.055000
 42
0.024503
  0
VERTEX
  8
1
  6
CONTINUOUS
 10
286.699539
 20
34.146033
 42
0.025057
  0
VERTEX
  8
1
  6
CONTINUOUS
 10
286.686111
 20
34.236173
 42
0.025427
  0
VERTEX
  8
1
  6
CONTINUOUS
 10
286.664314
 20
34.321973
 42
0.027129
  0
VERTEX
  8
1
  6
CONTINUOUS
 10
286.633663
 20
34.405000
 42
0.027894
  0
VERTEX
  8
1
  6
CONTINUOUS
 10
286.596184
 20
34.479948
 42
0.030788
  0
VERTEX
  8
1
  6
CONTINUOUS
 10
286.550231
 20
34.549975
 42
0.031954
  0
VERTEX
  8
1
  6
CONTINUOUS
 10
286.499607
 20
34.609291
 42
0.035805
  0
VERTEX
  8
1
  6
CONTINUOUS
 10
286.441500
 20
34.661218
 42
0.037204
  0
VERTEX
  8
1
  6
CONTINUOUS
 10
286.380889
 20
34.701129
 42
0.040948
  0
VERTEX
  8
1
  6
CONTINUOUS
 10
286.314880
 20
34.731148
 42
0.042016
  0
VERTEX
  8
1
  6
CONTINUOUS
 10
286.247945
 20
34.748876
 42
0.043662
  0
VERTEX
  8
1
  6
CONTINUOUS
 10
286.179000
 20
34.755000
 42
0.043662
  0
VERTEX
  8
1
  6
CONTINUOUS
 10
286.110055
 20
34.748876
 42
0.042016
  0
VERTEX
  8
1
  6
CONTINUOUS
 10
286.043120
 20
34.731148
 42
0.040948
  0
VERTEX
  8
1
  6
CONTINUOUS
 10
285.977111
 20
34.701129
 42
0.037204
  0
VERTEX
  8
1
  6
CONTINUOUS
 10
285.916500
 20
34.661218
 42
0.035805
  0
VERTEX
  8
1
  6
CONTINUOUS
 10
285.858393
 20
34.609291
 42
0.031954
  0
VERTEX
  8
1
  6
CONTINUOUS
 10
285.807769
 20
34.549975
 42
0.030788
  0
VERTEX
  8
1
  6
CONTINUOUS
 10
285.761816
 20
34.479948
 42
0.027894
  0
VERTEX
  8
1
  6
CONTINUOUS
 10
285.724337
 20
34.405000
 42
0.027129
  0
VERTEX
  8
1
  6
CONTINUOUS
 10
285.693686
 20
34.321973
 42
0.025427
  0
VERTEX
  8
1
  6
CONTINUOUS
 10
285.671889
 20
34.236173
 42
0.025057
  0
VERTEX
  8
1
  6
CONTINUOUS
 10
285.658461
 20
34.146033
 42
0.024503
  0
VERTEX
  8
1
  6
CONTINUOUS
 10
285.654000
 20
34.055000
  0
SEQEND
  8
0
  0
LINE
  8
1
  6
CONTINUOUS
 10
285.654000
 20
33.155000
 11
285.654000
 21
34.055000
  0
LINE
  8
1
  6
CONTINUOUS
 10
285.654000
 20
33.155000
 11
285.979000
 21
33.155000
  0
ARC
  8
1
  6
CONTINUOUS
 10
286.179000
 20
33.155000
 40
0.200000
 50
180.000000
 51
360.000000
  0
LINE
  8
1
  6
CONTINUOUS
 10
286.379000
 20
33.155000
 11
286.704000
 21
33.155000
  0
TEXT
  8
1
  6
CONTINUOUS
 40
0.075000
 10
286.057000
 20
32.748000
  1
0.40
  7
ROMANC
  0
LINE
  8
1
  6
CONTINUOUS
 10
285.829000
 20
32.786000
 11
285.979000
 21
32.786000
  0
LINE
  8
1
  6
CONTINUOUS
 10
286.529000
 20
32.786000
 11
286.379000
 21
32.786000
  0
LINE
  8
1
  6
CONTINUOUS
 10
286.016000
 20
32.805000
 11
285.942000
 21
32.767000
  0
LINE
  8
1
  6
CONTINUOUS
 10
286.342000
 20
32.767000
 11
286.416000
 21
32.805000
  0
LINE
  8
1
  6
CONTINUOUS
 10
285.979000
 20
33.117000
 11
285.979000
 21
32.748000
  0
LINE
  8
1
  6
CONTINUOUS
 10
286.379000
 20
33.117000
 11
286.379000
 21
32.748000
  0
LINE
  8
1
  6
CONTINUOUS
 10
286.704000
 20
33.155000
 11
286.704000
 21
34.055000
  0
TEXT
  8
1
  6
CONTINUOUS
 40
0.075000
 10
286.069000
 20
32.576000
  1
1.05
  7
ROMANC
  0
LINE
  8
1
  6
CONTINUOUS
 10
286.031000
 20
32.613000
 11
285.654000
 21
32.613000
  0
LINE
  8
1
  6
CONTINUOUS
 10
286.326000
 20
32.613000
 11
286.704000
 21
32.613000
  0
LINE
  8
1
  6
CONTINUOUS
 10
285.616000
 20
32.594000
 11
285.692000
 21
32.632000
  0
LINE
  8
1
  6
CONTINUOUS
 10
286.742000
 20
32.632000
 11
286.666000
 21
32.594000
  0
LINE
  8
1
  6
CONTINUOUS
 10
285.654000
 20
33.117000
 11
285.654000
 21
32.575000
  0
LINE
  8
1
  6
CONTINUOUS
 10
286.704000
 20
33.117000
 11
286.704000
 21
32.575000
  0
TEXT
  8
1
  6
CONTINUOUS
 40
0.075000
 10
286.932000
 20
32.531000
  1
0.20
 50
90.000000
  7
ROMANC
  0
LINE
  8
1
  6
CONTINUOUS
 10
286.894000
 20
32.881000
 11
286.894000
 21
32.955000
  0
LINE
  8
1
  6
CONTINUOUS
 10
286.894000
 20
33.305000
 11
286.894000
 21
33.155000
  0
LINE
  8
1
  6
CONTINUOUS
 10
286.875000
 20
32.992000
 11
286.913000
 21
32.918000
  0
LINE
  8
1
  6
CONTINUOUS
 10
286.913000
 20
33.118000
 11
286.875000
 21
33.192000
  0
LINE
  8
1
  6
CONTINUOUS
 10
286.217000
 20
32.955000
 11
286.932000
 21
32.955000
  0
LINE
  8
1
  6
CONTINUOUS
 10
286.742000
 20
33.155000
 11
286.932000
 21
33.155000
  0
TEXT
  8
1
  6
CONTINUOUS
 40
0.075000
 10
287.140000
 20
33.486000
  1
0.90
 50
90.000000
  7
ROMANC
  0
LINE
  8
1
  6
CONTINUOUS
 10
287.102000
 20
33.448000
 11
287.102000
 21
33.155000
  0
LINE
  8
1
  6
CONTINUOUS
 10
287.102000
 20
33.760000
 11
287.102000
 21
34.055000
  0
LINE
  8
1
  6
CONTINUOUS
 10
287.121000
 20
33.118000
 11
287.083000
 21
33.192000
  0
LINE
  8
1
  6
CONTINUOUS
 10
287.083000
 20
34.092000
 11
287.121000
 21
34.018000
  0
LINE
  8
1
  6
CONTINUOUS
 10
286.742000
 20
33.155000
 11
287.140000
 21
33.155000
  0
LINE
  8
1
  6
CONTINUOUS
 10
286.742000
 20
34.055000
 11
287.140000
 21
34.055000
  0
TEXT
  8
1
  6
CONTINUOUS
 40
0.075000
 10
287.140000
 20
34.286000
  1
0.70
 50
90.000000
  7
ROMANC
  0
LINE
  8
1
  6
CONTINUOUS
 10
287.102000
 20
34.248000
 11
287.102000
 21
34.055000
  0
LINE
  8
1
  6
CONTINUOUS
 10
287.102000
 20
34.560000
 11
287.102000
 21
34.755000
  0
LINE
  8
1
  6
CONTINUOUS
 10
287.121000
 20
34.018000
 11
287.083000
 21
34.092000
  0
LINE
  8
1
  6
CONTINUOUS
 10
287.083000
 20
34.792000
 11
287.121000
 21
34.718000
  0
LINE
  8
1
  6
CONTINUOUS
 10
286.217000
 20
34.755000
 11
287.140000
 21
34.755000
  0
TEXT
  8
1
  6
CONTINUOUS
 40
0.075000
 10
287.330000
 20
33.745000
  1
1.80
 50
90.000000
  7
ROMANC
  0
LINE
  8
1
  6
CONTINUOUS
 10
287.293000
 20
33.707000
 11
287.293000
 21
32.955000
  0
LINE
  8
1
  6
CONTINUOUS
 10
287.293000
 20
34.002000
 11
287.293000
 21
34.755000
  0
LINE
  8
1
  6
CONTINUOUS
 10
287.312000
 20
32.918000
 11
287.274000
 21
32.992000
  0
LINE
  8
1
  6
CONTINUOUS
 10
287.274000
 20
34.792000
 11
287.312000
 21
34.718000
  0
LINE
  8
1
  6
CONTINUOUS
 10
286.217000
 20
32.955000
 11
287.331000
 21
32.955000
  0
LINE
  8
1
  6
CONTINUOUS
 10
286.217000
 20
34.755000
 11
287.331000
 21
34.755000
  0
POLYLINE
  8
1
  6
CONTINUOUS
 66
     1
 70
     0
  0
VERTEX
  8
1
  6
CONTINUOUS
 10
286.714000
 20
34.055000
 42
0.024618
  0
VERTEX
  8
1
  6
CONTINUOUS
 10
286.709454
 20
34.147337
 42
0.025168
  0
VERTEX
  8
1
  6
CONTINUOUS
 10
286.695770
 20
34.238762
 42
0.025535
  0
VERTEX
  8
1
  6
CONTINUOUS
 10
286.673554
 20
34.325799
 42
0.027221
  0
VERTEX
  8
1
  6
CONTINUOUS
 10
286.642324
 20
34.410000
 42
0.027979
  0
VERTEX
  8
1
  6
CONTINUOUS
 10
286.604120
 20
34.486035
 42
0.030838
  0
VERTEX
  8
1
  6
CONTINUOUS
 10
286.557302
 20
34.557046
 42
0.031988
  0
VERTEX
  8
1
  6
CONTINUOUS
 10
286.505696
 20
34.617227
 42
0.035775
  0
VERTEX
  8
1
  6
CONTINUOUS
 10
286.446500
 20
34.669878
 42
0.037147
  0
VERTEX
  8
1
  6
CONTINUOUS
 10
286.384716
 20
34.710370
 42
0.040810
  0
VERTEX
  8
1
  6
CONTINUOUS
 10
286.317468
 20
34.740807
 42
0.041853
  0
VERTEX
  8
1
  6
CONTINUOUS
 10
286.249250
 20
34.758791
 42
0.043457
  0
VERTEX
  8
1
  6
CONTINUOUS
 10
286.179000
 20
34.765000
 42
0.043457
  0
VERTEX
  8
1
  6
CONTINUOUS
 10
286.108750
 20
34.758791
 42
0.041853
  0
VERTEX
  8
1
  6
CONTINUOUS
 10
286.040532
 20
34.740807
 42
0.040810
  0
VERTEX
  8
1
  6
CONTINUOUS
 10
285.973284
 20
34.710370
 42
0.037147
  0
VERTEX
  8
1
  6
CONTINUOUS
 10
285.911500
 20
34.669878
 42
0.035775
  0
VERTEX
  8
1
  6
CONTINUOUS
 10
285.852304
 20
34.617227
 42
0.031988
  0
VERTEX
  8
1
  6
CONTINUOUS
 10
285.800698
 20
34.557046
 42
0.030838
  0
VERTEX
  8
1
  6
CONTINUOUS
 10
285.753880
 20
34.486035
 42
0.027979
  0
VERTEX
  8
1
  6
CONTINUOUS
 10
285.715676
 20
34.410000
 42
0.027221
  0
VERTEX
  8
1
  6
CONTINUOUS
 10
285.684446
 20
34.325799
 42
0.025535
  0
VERTEX
  8
1
  6
CONTINUOUS
 10
285.662230
 20
34.238762
 42
0.025168
  0
VERTEX
  8
1
  6
CONTINUOUS
 10
285.648546
 20
34.147337
 42
0.024618
  0
VERTEX
  8
1
  6
CONTINUOUS
 10
285.644000
 20
34.055000
  0
SEQEND
  8
0
  0
POLYLINE
  8
1
  6
CONTINUOUS
 66
     1
 70
     0
  0
VERTEX
  8
1
  6
CONTINUOUS
 10
286.724000
 20
34.055000
 42
0.024730
  0
VERTEX
  8
1
  6
CONTINUOUS
 10
286.719368
 20
34.148642
 42
0.025276
  0
VERTEX
  8
1
  6
CONTINUOUS
 10
286.705430
 20
34.241350
 42
0.025640
  0
VERTEX
  8
1
  6
CONTINUOUS
 10
286.682794
 20
34.329625
 42
0.027311
  0
VERTEX
  8
1
  6
CONTINUOUS
 10
286.650984
 20
34.415000
 42
0.028061
  0
VERTEX
  8
1
  6
CONTINUOUS
 10
286.612056
 20
34.492123
 42
0.030885
  0
VERTEX
  8
1
  6
CONTINUOUS
 10
286.564373
 20
34.564117
 42
0.032020
  0
VERTEX
  8
1
  6
CONTINUOUS
 10
286.511785
 20
34.625162
 42
0.035745
  0
VERTEX
  8
1
  6
CONTINUOUS
 10
286.451500
 20
34.678538
 42
0.037091
  0
VERTEX
  8
1
  6
CONTINUOUS
 10
286.388542
 20
34.719611
 42
0.040677
  0
VERTEX
  8
1
  6
CONTINUOUS
 10
286.320056
 20
34.750467
 42
0.041694
  0
VERTEX
  8
1
  6
CONTINUOUS
 10
286.250554
 20
34.768705
 42
0.043260
  0
VERTEX
  8
1
  6
CONTINUOUS
 10
286.179000
 20
34.775000
 42
0.043260
  0
VERTEX
  8
1
  6
CONTINUOUS
 10
286.107446
 20
34.768705
 42
0.041694
  0
VERTEX
  8
1
  6
CONTINUOUS
 10
286.037944
 20
34.750467
 42
0.040677
  0
VERTEX
  8
1
  6
CONTINUOUS
 10
285.969458
 20
34.719611
 42
0.037091
  0
VERTEX
  8
1
  6
CONTINUOUS
 10
285.906500
 20
34.678538
 42
0.035745
  0
VERTEX
  8
1
  6
CONTINUOUS
 10
285.846215
 20
34.625162
 42
0.032020
  0
VERTEX
  8
1
  6
CONTINUOUS
 10
285.793627
 20
34.564117
 42
0.030885
  0
VERTEX
  8
1
  6
CONTINUOUS
 10
285.745944
 20
34.492123
 42
0.028061
  0
VERTEX
  8
1
  6
CONTINUOUS
 10
285.707016
 20
34.415000
 42
0.027311
  0
VERTEX
  8
1
  6
CONTINUOUS
 10
285.675206
 20
34.329625
 42
0.025640
  0
VERTEX
  8
1
  6
CONTINUOUS
 10
285.652570
 20
34.241350
 42
0.025276
  0
VERTEX
  8
1
  6
CONTINUOUS
 10
285.638632
 20
34.148642
 42
0.024730
  0
VERTEX
  8
1
  6
CONTINUOUS
 10
285.634000
 20
34.055000
  0
SEQEND
  8
0
  0
LINE
  8
1
  6
CONTINUOUS
 10
286.714000
 20
33.145000
 11
286.714000
 21
34.055000
  0
LINE
  8
1
  6
CONTINUOUS
 10
286.724000
 20
33.135000
 11
286.724000
 21
34.055000
  0
LINE
  8
1
  6
CONTINUOUS
 10
286.389000
 20
33.145000
 11
286.714000
 21
33.145000
  0
LINE
  8
1
  6
CONTINUOUS
 10
286.398000
 20
33.135000
 11
286.724000
 21
33.135000
  0
ARC
  8
1
  6
CONTINUOUS
 10
286.179000
 20
33.155000
 40
0.210000
 50
182.729403
 51
357.270597
  0
ARC
  8
1
  6
CONTINUOUS
 10
286.179000
 20
33.155000
 40
0.220000
 50
185.215908
 51
354.784092
  0
LINE
  8
1
  6
CONTINUOUS
 10
285.644000
 20
33.145000
 11
285.969000
 21
33.145000
  0
LINE
  8
1
  6
CONTINUOUS
 10
285.634000
 20
33.135000
 11
285.960000
 21
33.135000
  0
LINE
  8
1
  6
CONTINUOUS
 10
285.644000
 20
33.145000
 11
285.644000
 21
34.055000
  0
LINE
  8
1
  6
CONTINUOUS
 10
285.634000
 20
33.135000
 11
285.634000
 21
34.055000
  0
ENDSEC
  0
EOF
