  0
SECTION
  2
HEADER
  9
$ACADVER
  1
AC1009
  9
$INSBASE
 10
105.464027
 20
-4.528761
 30
0.0
  9
$EXTMIN
 10
281.395795
 20
29.897444
 30
0.0
  9
$EXTMAX
 10
291.895795
 20
44.747444
 30
0.0
  9
$LIMMIN
 10
0.0
 20
0.0
  9
$LIMMAX
 10
410.0
 20
287.0
  9
$ORTHOMODE
 70
     1
  9
$REGENMODE
 70
     1
  9
$FILLMODE
 70
     1
  9
$QTEXTMODE
 70
     0
  9
$MIRRTEXT
 70
     1
  9
$DRAGMODE
 70
     2
  9
$LTSCALE
 40
25.0
  9
$OSMODE
 70
     0
  9
$ATTMODE
 70
     1
  9
$TEXTSIZE
 40
0.1
  9
$TRACEWID
 40
1.0
  9
$TEXTSTYLE
  7
ROMANC
  9
$CLAYER
  8
0
  9
$CELTYPE
  6
BYLAYER
  9
$CECOLOR
 62
   256
  9
$DIMSCALE
 40
1.5
  9
$DIMASZ
 40
0.1
  9
$DIMEXO
 40
0.01
  9
$DIMDLI
 40
7.0
  9
$DIMRND
 40
0.0
  9
$DIMDLE
 40
0.0
  9
$DIMEXE
 40
0.01
  9
$DIMTP
 40
0.0
  9
$DIMTM
 40
0.0
  9
$DIMTXT
 40
0.05
  9
$DIMCEN
 40
0.1
  9
$DIMTSZ
 40
0.0
  9
$DIMTOL
 70
     0
  9
$DIMLIM
 70
     0
  9
$DIMTIH
 70
     0
  9
$DIMTOH
 70
     0
  9
$DIMSE1
 70
     0
  9
$DIMSE2
 70
     0
  9
$DIMTAD
 70
     1
  9
$DIMZIN
 70
     0
  9
$DIMBLK
  1

  9
$DIMASO
 70
     1
  9
$DIMSHO
 70
     0
  9
$DIMPOST
  1

  9
$DIMAPOST
  1

  9
$DIMALT
 70
     0
  9
$DIMALTD
 70
     2
  9
$DIMALTF
 40
25.4
  9
$DIMLFAC
 40
1.0
  9
$DIMTOFL
 70
     1
  9
$DIMTVP
 40
0.0
  9
$DIMTIX
 70
     1
  9
$DIMSOXD
 70
     0
  9
$DIMSAH
 70
     0
  9
$DIMBLK1
  1

  9
$DIMBLK2
  1

  9
$DIMSTYLE
  2
*UNNAMED
  9
$DIMCLRD
 70
     0
  9
$DIMCLRE
 70
     0
  9
$DIMCLRT
 70
     0
  9
$DIMTFAC
 40
70.0
  9
$DIMGAP
 40
0.09
  9
$LUNITS
 70
     2
  9
$LUPREC
 70
     2
  9
$SKETCHINC
 40
1.0
  9
$FILLETRAD
 40
0.0
  9
$AUNITS
 70
     0
  9
$AUPREC
 70
     0
  9
$MENU
  1
acad
  9
$ELEVATION
 40
0.0
  9
$PELEVATION
 40
0.0
  9
$THICKNESS
 40
0.0
  9
$LIMCHECK
 70
     0
  9
$BLIPMODE
 70
     0
  9
$CHAMFERA
 40
0.0
  9
$CHAMFERB
 40
0.0
  9
$SKPOLY
 70
     0
  9
$TDCREATE
 40
2450305.554557986
  9
$TDUPDATE
 40
2450828.420448842
  9
$TDINDWG
 40
0.0756751157
  9
$TDUSRTIMER
 40
0.0756751157
  9
$USRTIMER
 70
     1
  9
$ANGBASE
 50
0.0
  9
$ANGDIR
 70
     0
  9
$PDMODE
 70
     0
  9
$PDSIZE
 40
0.0
  9
$PLINEWID
 40
0.0
  9
$COORDS
 70
     2
  9
$SPLFRAME
 70
     0
  9
$SPLINETYPE
 70
     6
  9
$SPLINESEGS
 70
     8
  9
$ATTDIA
 70
     0
  9
$ATTREQ
 70
     1
  9
$HANDLING
 70
     0
  9
$HANDSEED
  5
0
  9
$SURFTAB1
 70
     6
  9
$SURFTAB2
 70
     6
  9
$SURFTYPE
 70
     6
  9
$SURFU
 70
     6
  9
$SURFV
 70
     6
  9
$UCSNAME
  2

  9
$UCSORG
 10
0.0
 20
0.0
 30
0.0
  9
$UCSXDIR
 10
1.0
 20
0.0
 30
0.0
  9
$UCSYDIR
 10
0.0
 20
1.0
 30
0.0
  9
$PUCSNAME
  2

  9
$PUCSORG
 10
0.0
 20
0.0
 30
0.0
  9
$PUCSXDIR
 10
1.0
 20
0.0
 30
0.0
  9
$PUCSYDIR
 10
0.0
 20
1.0
 30
0.0
  9
$USERI1
 70
     0
  9
$USERI2
 70
     0
  9
$USERI3
 70
     0
  9
$USERI4
 70
     0
  9
$USERI5
 70
     0
  9
$USERR1
 40
0.0
  9
$USERR2
 40
0.0
  9
$USERR3
 40
0.0
  9
$USERR4
 40
0.0
  9
$USERR5
 40
0.0
  9
$WORLDVIEW
 70
     1
  9
$SHADEDGE
 70
     3
  9
$SHADEDIF
 70
    70
  9
$TILEMODE
 70
     1
  9
$MAXACTVP
 70
    16
  9
$PINSBASE
 10
0.0
 20
0.0
 30
0.0
  9
$PLIMCHECK
 70
     0
  9
$PEXTMIN
 10
1.000000E+20
 20
1.000000E+20
 30
1.000000E+20
  9
$PEXTMAX
 10
-1.000000E+20
 20
-1.000000E+20
 30
-1.000000E+20
  9
$PLIMMIN
 10
0.0
 20
0.0
  9
$PLIMMAX
 10
12.0
 20
9.0
  9
$UNITMODE
 70
     0
  9
$VISRETAIN
 70
     0
  9
$PLINEGEN
 70
     0
  9
$PSLTSCALE
 70
     0
  9
$TREEDEPTH
 70
  3020
  9
$DWGCODEPAGE
  3
iso8859-1
  0
ENDSEC
  0
SECTION
  2
TABLES
  0
TABLE
  2
VPORT
 70
     2
  0
VPORT
  2
*ACTIVE
 70
     0
 10
0.0
 20
0.0
 11
1.0
 21
1.0
 12
293.357646
 22
37.322444
 13
0.0
 23
0.0
 14
1.0
 24
1.0
 15
10.0
 25
10.0
 16
0.0
 26
0.0
 36
1.0
 17
0.0
 27
0.0
 37
0.0
 40
14.85
 41
1.611024
 42
50.0
 43
0.0
 44
0.0
 50
0.0
 51
0.0
 71
     0
 72
   100
 73
     1
 74
     0
 75
     0
 76
     0
 77
     0
 78
     1
  0
ENDTAB
  0
TABLE
  2
LTYPE
 70
     1
  0
LTYPE
  2
CONTINUOUS
 70
    64
  3
Solid line
 72
    65
 73
     0
 40
0.0
  0
ENDTAB
  0
TABLE
  2
LAYER
 70
     3
  0
LAYER
  2
0
 70
    64
 62
     7
  6
CONTINUOUS
  0
LAYER
  2
MESURA
 70
     0
 62
     7
  6
CONTINUOUS
  0
LAYER
  2
DEFPOINTS
 70
     0
 62
     7
  6
CONTINUOUS
  0
ENDTAB
  0
TABLE
  2
STYLE
 70
     2
  0
STYLE
  2
STANDARD
 70
     0
 40
0.0
 41
1.0
 50
0.0
 71
     0
 42
0.1
  3
txt
  4

  0
STYLE
  2
ROMANC
 70
    64
 40
0.0
 41
1.0
 50
0.0
 71
     0
 42
0.1
  3
romanc
  4

  0
ENDTAB
  0
TABLE
  2
VIEW
 70
     0
  0
ENDTAB
  0
TABLE
  2
UCS
 70
     0
  0
ENDTAB
  0
TABLE
  2
APPID
 70
     1
  0
APPID
  2
ACAD
 70
    64
  0
ENDTAB
  0
TABLE
  2
DIMSTYLE
 70
     1
  0
DIMSTYLE
  2
SILVIA
 70
     0
  3

  4

  5

  6

  7

 40
1.5
 41
0.1
 42
0.01
 43
7.0
 44
0.01
 45
0.0
 46
0.0
 47
0.0
 48
0.0
140
0.05
141
0.1
142
0.0
143
25.4
144
1.0
145
0.0
146
70.0
147
0.09
 71
     0
 72
     0
 73
     0
 74
     0
 75
     0
 76
     0
 77
     1
 78
     0
170
     0
171
     2
172
     1
173
     0
174
     1
175
     0
176
     0
177
     0
178
     0
  0
ENDTAB
  0
ENDSEC
  0
SECTION
  2
BLOCKS
  0
BLOCK
  8
0
  2
*D0
 70
    65
 10
0.0
 20
0.0
 30
0.0
  3
*D
  0
LINE
  8
0
  6
BYBLOCK
 62
     0
 10
285.842605
 20
35.980466
 30
0.0
 11
285.842605
 21
35.980466
 31
0.0
  0
LINE
  8
0
  6
BYBLOCK
 62
     0
 10
286.942605
 20
35.980466
 30
0.0
 11
286.942605
 21
35.980466
 31
0.0
  0
LINE
  8
0
  6
BYBLOCK
 62
     0
 10
285.992605
 20
35.965466
 30
0.0
 11
286.792605
 21
35.965466
 31
0.0
  0
SOLID
  8
0
  6
BYBLOCK
 62
     0
 10
285.992605
 20
35.990466
 30
0.0
 11
285.992605
 21
35.940466
 31
0.0
 12
285.842605
 22
35.965466
 32
0.0
 13
285.842605
 23
35.965466
 33
0.0
  0
SOLID
  8
0
  6
BYBLOCK
 62
     0
 10
286.792605
 20
35.990466
 30
0.0
 11
286.792605
 21
35.940466
 31
0.0
 12
286.942605
 22
35.965466
 32
0.0
 13
286.942605
 23
35.965466
 33
0.0
  0
TEXT
  8
0
  6
BYBLOCK
 62
     0
 10
286.262248
 20
36.002966
 30
0.0
 40
0.075
  1
1.10
  7
ROMANC
 72
     1
 11
286.392605
 21
36.040466
 31
0.0
 73
     2
  0
POINT
  8
DEFPOINTS
  6
BYBLOCK
 62
     0
 10
285.842605
 20
35.965466
 30
0.0
  0
POINT
  8
DEFPOINTS
  6
BYBLOCK
 62
     0
 10
286.942605
 20
35.965466
 30
0.0
  0
POINT
  8
DEFPOINTS
  6
BYBLOCK
 62
     0
 10
286.942605
 20
35.965466
 30
0.0
  0
ENDBLK
  8
0
  0
BLOCK
  8
0
  2
*D1
 70
    65
 10
0.0
 20
0.0
 30
0.0
  3
*D
  0
LINE
  8
0
  6
BYBLOCK
 62
     0
 10
286.242605
 20
35.000466
 30
0.0
 11
286.242605
 21
34.574172
 31
0.0
  0
LINE
  8
0
  6
BYBLOCK
 62
     0
 10
286.542605
 20
35.000466
 30
0.0
 11
286.542605
 21
34.574172
 31
0.0
  0
LINE
  8
0
  6
BYBLOCK
 62
     0
 10
286.092605
 20
34.589172
 30
0.0
 11
285.942605
 21
34.589172
 31
0.0
  0
LINE
  8
0
  6
BYBLOCK
 62
     0
 10
286.692605
 20
34.589172
 30
0.0
 11
286.842605
 21
34.589172
 31
0.0
  0
SOLID
  8
0
  6
BYBLOCK
 62
     0
 10
286.092605
 20
34.614172
 30
0.0
 11
286.092605
 21
34.564172
 31
0.0
 12
286.242605
 22
34.589172
 32
0.0
 13
286.242605
 23
34.589172
 33
0.0
  0
SOLID
  8
0
  6
BYBLOCK
 62
     0
 10
286.692605
 20
34.614172
 30
0.0
 11
286.692605
 21
34.564172
 31
0.0
 12
286.542605
 22
34.589172
 32
0.0
 13
286.542605
 23
34.589172
 33
0.0
  0
LINE
  8
0
  6
BYBLOCK
 62
     0
 10
286.242605
 20
34.589172
 30
0.0
 11
286.542605
 21
34.589172
 31
0.0
  0
TEXT
  8
0
  6
BYBLOCK
 62
     0
 10
286.267605
 20
34.626672
 30
0.0
 40
0.075
  1
0.30
  7
ROMANC
 72
     1
 11
286.392605
 21
34.664172
 31
0.0
 73
     2
  0
POINT
  8
DEFPOINTS
  6
BYBLOCK
 62
     0
 10
286.242605
 20
35.015466
 30
0.0
  0
POINT
  8
DEFPOINTS
  6
BYBLOCK
 62
     0
 10
286.542605
 20
35.015466
 30
0.0
  0
POINT
  8
DEFPOINTS
  6
BYBLOCK
 62
     0
 10
286.542605
 20
34.589172
 30
0.0
  0
ENDBLK
  8
0
  0
BLOCK
  8
0
  2
*D2
 70
    65
 10
0.0
 20
0.0
 30
0.0
  3
*D
  0
LINE
  8
0
  6
BYBLOCK
 62
     0
 10
285.842605
 20
35.000466
 30
0.0
 11
285.842605
 21
34.574172
 31
0.0
  0
LINE
  8
0
  6
BYBLOCK
 62
     0
 10
286.242605
 20
35.000466
 30
0.0
 11
286.242605
 21
34.574172
 31
0.0
  0
LINE
  8
0
  6
BYBLOCK
 62
     0
 10
285.692605
 20
34.589172
 30
0.0
 11
285.542605
 21
34.589172
 31
0.0
  0
LINE
  8
0
  6
BYBLOCK
 62
     0
 10
286.392605
 20
34.589172
 30
0.0
 11
286.542605
 21
34.589172
 31
0.0
  0
SOLID
  8
0
  6
BYBLOCK
 62
     0
 10
285.692605
 20
34.614172
 30
0.0
 11
285.692605
 21
34.564172
 31
0.0
 12
285.842605
 22
34.589172
 32
0.0
 13
285.842605
 23
34.589172
 33
0.0
  0
SOLID
  8
0
  6
BYBLOCK
 62
     0
 10
286.392605
 20
34.614172
 30
0.0
 11
286.392605
 21
34.564172
 31
0.0
 12
286.242605
 22
34.589172
 32
0.0
 13
286.242605
 23
34.589172
 33
0.0
  0
LINE
  8
0
  6
BYBLOCK
 62
     0
 10
285.842605
 20
34.589172
 30
0.0
 11
286.242605
 21
34.589172
 31
0.0
  0
TEXT
  8
0
  6
BYBLOCK
 62
     0
 10
285.917605
 20
34.626672
 30
0.0
 40
0.075
  1
0.40
  7
ROMANC
 72
     1
 11
286.042605
 21
34.664172
 31
0.0
 73
     2
  0
POINT
  8
DEFPOINTS
  6
BYBLOCK
 62
     0
 10
285.842605
 20
35.015466
 30
0.0
  0
POINT
  8
DEFPOINTS
  6
BYBLOCK
 62
     0
 10
286.242605
 20
35.015466
 30
0.0
  0
POINT
  8
DEFPOINTS
  6
BYBLOCK
 62
     0
 10
286.242605
 20
34.589172
 30
0.0
  0
ENDBLK
  8
0
  0
BLOCK
  8
0
  2
*D3
 70
    65
 10
0.0
 20
0.0
 30
0.0
  3
*D
  0
LINE
  8
0
  6
BYBLOCK
 62
     0
 10
286.542605
 20
35.000466
 30
0.0
 11
286.542605
 21
34.574172
 31
0.0
  0
LINE
  8
0
  6
BYBLOCK
 62
     0
 10
286.942605
 20
35.000466
 30
0.0
 11
286.942605
 21
34.574172
 31
0.0
  0
LINE
  8
0
  6
BYBLOCK
 62
     0
 10
286.392605
 20
34.589172
 30
0.0
 11
286.242605
 21
34.589172
 31
0.0
  0
LINE
  8
0
  6
BYBLOCK
 62
     0
 10
287.092605
 20
34.589172
 30
0.0
 11
287.242605
 21
34.589172
 31
0.0
  0
SOLID
  8
0
  6
BYBLOCK
 62
     0
 10
286.392605
 20
34.614172
 30
0.0
 11
286.392605
 21
34.564172
 31
0.0
 12
286.542605
 22
34.589172
 32
0.0
 13
286.542605
 23
34.589172
 33
0.0
  0
SOLID
  8
0
  6
BYBLOCK
 62
     0
 10
287.092605
 20
34.614172
 30
0.0
 11
287.092605
 21
34.564172
 31
0.0
 12
286.942605
 22
34.589172
 32
0.0
 13
286.942605
 23
34.589172
 33
0.0
  0
LINE
  8
0
  6
BYBLOCK
 62
     0
 10
286.542605
 20
34.589172
 30
0.0
 11
286.942605
 21
34.589172
 31
0.0
  0
TEXT
  8
0
  6
BYBLOCK
 62
     0
 10
286.617605
 20
34.626672
 30
0.0
 40
0.075
  1
0.40
  7
ROMANC
 72
     1
 11
286.742605
 21
34.664172
 31
0.0
 73
     2
  0
POINT
  8
DEFPOINTS
  6
BYBLOCK
 62
     0
 10
286.542605
 20
35.015466
 30
0.0
  0
POINT
  8
DEFPOINTS
  6
BYBLOCK
 62
     0
 10
286.942605
 20
35.015466
 30
0.0
  0
POINT
  8
DEFPOINTS
  6
BYBLOCK
 62
     0
 10
286.942605
 20
34.589172
 30
0.0
  0
ENDBLK
  8
0
  0
BLOCK
  8
0
  2
*D4
 70
    65
 10
0.0
 20
0.0
 30
0.0
  3
*D
  0
LINE
  8
0
  6
BYBLOCK
 62
     0
 10
285.842605
 20
35.000466
 30
0.0
 11
285.842605
 21
34.259621
 31
0.0
  0
LINE
  8
0
  6
BYBLOCK
 62
     0
 10
286.942605
 20
35.000466
 30
0.0
 11
286.942605
 21
34.259621
 31
0.0
  0
LINE
  8
0
  6
BYBLOCK
 62
     0
 10
285.992605
 20
34.274621
 30
0.0
 11
286.792605
 21
34.274621
 31
0.0
  0
SOLID
  8
0
  6
BYBLOCK
 62
     0
 10
285.992605
 20
34.299621
 30
0.0
 11
285.992605
 21
34.249621
 31
0.0
 12
285.842605
 22
34.274621
 32
0.0
 13
285.842605
 23
34.274621
 33
0.0
  0
SOLID
  8
0
  6
BYBLOCK
 62
     0
 10
286.792605
 20
34.299621
 30
0.0
 11
286.792605
 21
34.249621
 31
0.0
 12
286.942605
 22
34.274621
 32
0.0
 13
286.942605
 23
34.274621
 33
0.0
  0
TEXT
  8
0
  6
BYBLOCK
 62
     0
 10
286.262248
 20
34.312121
 30
0.0
 40
0.075
  1
1.10
  7
ROMANC
 72
     1
 11
286.392605
 21
34.349621
 31
0.0
 73
     2
  0
POINT
  8
DEFPOINTS
  6
BYBLOCK
 62
     0
 10
285.842605
 20
35.015466
 30
0.0
  0
POINT
  8
DEFPOINTS
  6
BYBLOCK
 62
     0
 10
286.942605
 20
35.015466
 30
0.0
  0
POINT
  8
DEFPOINTS
  6
BYBLOCK
 62
     0
 10
286.942605
 20
34.274621
 30
0.0
  0
ENDBLK
  8
0
  0
BLOCK
  8
0
  2
*D5
 70
    65
 10
0.0
 20
0.0
 30
0.0
  3
*D
  0
LINE
  8
0
  6
BYBLOCK
 62
     0
 10
285.842605
 20
35.000466
 30
0.0
 11
285.842605
 21
34.334514
 31
0.0
  0
LINE
  8
0
  6
BYBLOCK
 62
     0
 10
286.942605
 20
35.000466
 30
0.0
 11
286.942605
 21
34.334514
 31
0.0
  0
LINE
  8
0
  6
BYBLOCK
 62
     0
 10
285.992605
 20
34.349514
 30
0.0
 11
286.792605
 21
34.349514
 31
0.0
  0
SOLID
  8
0
  6
BYBLOCK
 62
     0
 10
285.992605
 20
34.374514
 30
0.0
 11
285.992605
 21
34.324514
 31
0.0
 12
285.842605
 22
34.349514
 32
0.0
 13
285.842605
 23
34.349514
 33
0.0
  0
SOLID
  8
0
  6
BYBLOCK
 62
     0
 10
286.792605
 20
34.374514
 30
0.0
 11
286.792605
 21
34.324514
 31
0.0
 12
286.942605
 22
34.349514
 32
0.0
 13
286.942605
 23
34.349514
 33
0.0
  0
TEXT
  8
0
  6
BYBLOCK
 62
     0
 10
286.262248
 20
34.387014
 30
0.0
 40
0.075
  1
1.10
  7
ROMANC
 72
     1
 11
286.392605
 21
34.424514
 31
0.0
 73
     2
  0
POINT
  8
DEFPOINTS
  6
BYBLOCK
 62
     0
 10
285.842605
 20
35.015466
 30
0.0
  0
POINT
  8
DEFPOINTS
  6
BYBLOCK
 62
     0
 10
286.942605
 20
35.015466
 30
0.0
  0
POINT
  8
DEFPOINTS
  6
BYBLOCK
 62
     0
 10
286.942605
 20
34.349514
 30
0.0
  0
ENDBLK
  8
0
  0
BLOCK
  8
0
  2
*D6
 70
    65
 10
0.0
 20
0.0
 30
0.0
  3
*D
  0
LINE
  8
0
  6
BYBLOCK
 62
     0
 10
286.407605
 20
34.815466
 30
0.0
 11
287.216829
 21
34.815466
 31
0.0
  0
LINE
  8
0
  6
BYBLOCK
 62
     0
 10
286.557605
 20
35.015466
 30
0.0
 11
287.216829
 21
35.015466
 31
0.0
  0
LINE
  8
0
  6
BYBLOCK
 62
     0
 10
287.201829
 20
34.665466
 30
0.0
 11
287.201829
 21
34.515466
 31
0.0
  0
LINE
  8
0
  6
BYBLOCK
 62
     0
 10
287.201829
 20
35.165466
 30
0.0
 11
287.201829
 21
35.315466
 31
0.0
  0
SOLID
  8
0
  6
BYBLOCK
 62
     0
 10
287.176829
 20
34.665466
 30
0.0
 11
287.226829
 21
34.665466
 31
0.0
 12
287.201829
 22
34.815466
 32
0.0
 13
287.201829
 23
34.815466
 33
0.0
  0
SOLID
  8
0
  6
BYBLOCK
 62
     0
 10
287.176829
 20
35.165466
 30
0.0
 11
287.226829
 21
35.165466
 31
0.0
 12
287.201829
 22
35.015466
 32
0.0
 13
287.201829
 23
35.015466
 33
0.0
  0
LINE
  8
0
  6
BYBLOCK
 62
     0
 10
287.201829
 20
34.815466
 30
0.0
 11
287.201829
 21
35.015466
 31
0.0
  0
TEXT
  8
0
  6
BYBLOCK
 62
     0
 10
287.164329
 20
34.790466
 30
0.0
 40
0.075
  1
0.20
 50
90.0
  7
ROMANC
 72
     1
 11
287.126829
 21
34.915466
 31
0.0
 73
     2
  0
POINT
  8
DEFPOINTS
  6
BYBLOCK
 62
     0
 10
286.392605
 20
34.815466
 30
0.0
  0
POINT
  8
DEFPOINTS
  6
BYBLOCK
 62
     0
 10
286.542605
 20
35.015466
 30
0.0
  0
POINT
  8
DEFPOINTS
  6
BYBLOCK
 62
     0
 10
287.201829
 20
35.015466
 30
0.0
  0
ENDBLK
  8
0
  0
BLOCK
  8
0
  2
*D7
 70
    65
 10
0.0
 20
0.0
 30
0.0
  3
*D
  0
LINE
  8
0
  6
BYBLOCK
 62
     0
 10
286.957605
 20
35.015466
 30
0.0
 11
287.216829
 21
35.015466
 31
0.0
  0
LINE
  8
0
  6
BYBLOCK
 62
     0
 10
286.957605
 20
35.965466
 30
0.0
 11
287.216829
 21
35.965466
 31
0.0
  0
LINE
  8
0
  6
BYBLOCK
 62
     0
 10
287.201829
 20
35.165466
 30
0.0
 11
287.201829
 21
35.815466
 31
0.0
  0
SOLID
  8
0
  6
BYBLOCK
 62
     0
 10
287.176829
 20
35.165466
 30
0.0
 11
287.226829
 21
35.165466
 31
0.0
 12
287.201829
 22
35.015466
 32
0.0
 13
287.201829
 23
35.015466
 33
0.0
  0
SOLID
  8
0
  6
BYBLOCK
 62
     0
 10
287.176829
 20
35.815466
 30
0.0
 11
287.226829
 21
35.815466
 31
0.0
 12
287.201829
 22
35.965466
 32
0.0
 13
287.201829
 23
35.965466
 33
0.0
  0
TEXT
  8
0
  6
BYBLOCK
 62
     0
 10
287.164329
 20
35.365466
 30
0.0
 40
0.075
  1
0.95
 50
90.0
  7
ROMANC
 72
     1
 11
287.126829
 21
35.490466
 31
0.0
 73
     2
  0
POINT
  8
DEFPOINTS
  6
BYBLOCK
 62
     0
 10
286.942605
 20
35.015466
 30
0.0
  0
POINT
  8
DEFPOINTS
  6
BYBLOCK
 62
     0
 10
286.942605
 20
35.965466
 30
0.0
  0
POINT
  8
DEFPOINTS
  6
BYBLOCK
 62
     0
 10
287.201829
 20
35.965466
 30
0.0
  0
ENDBLK
  8
0
  0
BLOCK
  8
0
  2
*D8
 70
    65
 10
0.0
 20
0.0
 30
0.0
  3
*D
  0
LINE
  8
0
  6
BYBLOCK
 62
     0
 10
286.407605
 20
34.815466
 30
0.0
 11
287.512834
 21
34.815466
 31
0.0
  0
LINE
  8
0
  6
BYBLOCK
 62
     0
 10
286.407605
 20
36.515466
 30
0.0
 11
287.512834
 21
36.515466
 31
0.0
  0
LINE
  8
0
  6
BYBLOCK
 62
     0
 10
287.497834
 20
34.965466
 30
0.0
 11
287.497834
 21
36.365466
 31
0.0
  0
SOLID
  8
0
  6
BYBLOCK
 62
     0
 10
287.472834
 20
34.965466
 30
0.0
 11
287.522834
 21
34.965466
 31
0.0
 12
287.497834
 22
34.815466
 32
0.0
 13
287.497834
 23
34.815466
 33
0.0
  0
SOLID
  8
0
  6
BYBLOCK
 62
     0
 10
287.472834
 20
36.365466
 30
0.0
 11
287.522834
 21
36.365466
 31
0.0
 12
287.497834
 22
36.515466
 32
0.0
 13
287.497834
 23
36.515466
 33
0.0
  0
TEXT
  8
0
  6
BYBLOCK
 62
     0
 10
287.460334
 20
35.535109
 30
0.0
 40
0.075
  1
1.70
 50
90.0
  7
ROMANC
 72
     1
 11
287.422834
 21
35.665466
 31
0.0
 73
     2
  0
POINT
  8
DEFPOINTS
  6
BYBLOCK
 62
     0
 10
286.392605
 20
34.815466
 30
0.0
  0
POINT
  8
DEFPOINTS
  6
BYBLOCK
 62
     0
 10
286.392605
 20
36.515466
 30
0.0
  0
POINT
  8
DEFPOINTS
  6
BYBLOCK
 62
     0
 10
287.497834
 20
36.515466
 30
0.0
  0
ENDBLK
  8
0
  0
ENDSEC
  0
SECTION
  2
ENTITIES
  0
TEXT
  8
0
 10
283.887846
 20
40.56142
 30
0.0
 40
0.3
  1
P = 49.8 dm
  7
ROMANC
  0
TEXT
  8
0
 10
287.196056
 20
41.564915
 30
0.0
 40
0.1
  1
2
  7
ROMANC
  0
TEXT
  8
0
 10
283.925768
 20
41.857589
 30
0.0
 40
0.3
  1
ESCALA  1:50
  7
ROMANC
  0
TEXT
  8
0
 10
283.925768
 20
42.343303
 30
0.0
 40
0.3
  1
TIPUS   NT157A
  7
ROMANC
  0
TEXT
  8
0
 10
283.938862
 20
41.258999
 30
0.0
 40
0.3
  1
S = 157 dm
  7
ROMANC
  0
LINE
  8
0
 10
285.836605
 20
35.009466
 30
0.0
 11
286.236671
 21
35.009466
 31
0.0
  0
ARC
  8
0
 10
286.508398
 20
35.015466
 30
0.0
 40
0.271793
 50
181.264941
 51
197.257939
  0
ARC
  8
0
 10
286.451556
 20
34.997807
 30
0.0
 40
0.212271
 50
197.257939
 51
216.869898
  0
ARC
  8
0
 10
286.415501
 20
34.970766
 30
0.0
 40
0.167203
 50
216.869898
 51
241.088799
  0
ARC
  8
0
 10
286.392605
 20
34.929309
 30
0.0
 40
0.119843
 50
241.088799
 51
270.0
  0
ARC
  8
0
 10
286.392605
 20
34.929309
 30
0.0
 40
0.119843
 50
270.0
 51
298.911201
  0
ARC
  8
0
 10
286.369709
 20
34.970766
 30
0.0
 40
0.167203
 50
298.911201
 51
323.130102
  0
ARC
  8
0
 10
286.333654
 20
34.997807
 30
0.0
 40
0.212271
 50
323.130102
 51
342.742062
  0
ARC
  8
0
 10
286.276811
 20
35.015466
 30
0.0
 40
0.271793
 50
342.742062
 51
358.735059
  0
LINE
  8
0
 10
286.548539
 20
35.009466
 30
0.0
 11
286.948605
 21
35.009466
 31
0.0
  0
LINE
  8
0
 10
286.948605
 20
35.009466
 30
0.0
 11
286.948605
 21
35.965466
 31
0.0
  0
ARC
  8
0
 10
286.392605
 20
35.965466
 30
0.0
 40
0.556
 50
0.000022
 51
179.999978
  0
LINE
  8
0
 10
285.836605
 20
35.965466
 30
0.0
 11
285.836605
 21
35.009466
 31
0.0
  0
LINE
  8
0
 10
285.839605
 20
35.012466
 30
0.0
 11
286.239622
 21
35.012466
 31
0.0
  0
ARC
  8
0
 10
286.508398
 20
35.015466
 30
0.0
 40
0.268793
 50
180.639491
 51
197.257939
  0
ARC
  8
0
 10
286.451556
 20
34.997807
 30
0.0
 40
0.209271
 50
197.257939
 51
216.869898
  0
ARC
  8
0
 10
286.415501
 20
34.970766
 30
0.0
 40
0.164203
 50
216.869898
 51
241.088799
  0
ARC
  8
0
 10
286.392605
 20
34.929309
 30
0.0
 40
0.116843
 50
241.088799
 51
270.0
  0
ARC
  8
0
 10
286.392605
 20
34.929309
 30
0.0
 40
0.116843
 50
270.0
 51
298.911201
  0
ARC
  8
0
 10
286.369709
 20
34.970766
 30
0.0
 40
0.164203
 50
298.911201
 51
323.130102
  0
ARC
  8
0
 10
286.333654
 20
34.997807
 30
0.0
 40
0.209271
 50
323.130102
 51
342.742061
  0
ARC
  8
0
 10
286.276811
 20
35.015466
 30
0.0
 40
0.268793
 50
342.742061
 51
359.360509
  0
LINE
  8
0
 10
286.545588
 20
35.012466
 30
0.0
 11
286.945605
 21
35.012466
 31
0.0
  0
LINE
  8
0
 10
286.945605
 20
35.012466
 30
0.0
 11
286.945605
 21
35.965466
 31
0.0
  0
ARC
  8
0
 10
286.392605
 20
35.965466
 30
0.0
 40
0.553
 50
0.0
 51
180.0
  0
LINE
  8
0
 10
285.839605
 20
35.965466
 30
0.0
 11
285.839605
 21
35.012466
 31
0.0
  0
LINE
  8
0
 10
285.842605
 20
35.015466
 30
0.0
 11
286.242605
 21
35.015466
 31
0.0
  0
ARC
  8
0
 10
286.508398
 20
35.015466
 30
0.0
 40
0.265793
 50
180.0
 51
197.257939
  0
ARC
  8
0
 10
286.451556
 20
34.997807
 30
0.0
 40
0.206271
 50
197.257939
 51
216.869898
  0
ARC
  8
0
 10
286.415501
 20
34.970766
 30
0.0
 40
0.161203
 50
216.869898
 51
241.088799
  0
ARC
  8
0
 10
286.392605
 20
34.929309
 30
0.0
 40
0.113843
 50
241.088799
 51
270.0
  0
ARC
  8
0
 10
286.392605
 20
34.929309
 30
0.0
 40
0.113843
 50
270.0
 51
298.911201
  0
ARC
  8
0
 10
286.369709
 20
34.970766
 30
0.0
 40
0.161203
 50
298.911201
 51
323.130102
  0
ARC
  8
0
 10
286.333654
 20
34.997807
 30
0.0
 40
0.206271
 50
323.130102
 51
342.742061
  0
ARC
  8
0
 10
286.276811
 20
35.015466
 30
0.0
 40
0.265793
 50
342.742061
 51
0.0
  0
LINE
  8
0
 10
286.542605
 20
35.015466
 30
0.0
 11
286.942605
 21
35.015466
 31
0.0
  0
LINE
  8
0
 10
286.942605
 20
35.015466
 30
0.0
 11
286.942605
 21
35.965466
 31
0.0
  0
ARC
  8
0
 10
286.392605
 20
35.965466
 30
0.0
 40
0.55
 50
0.0
 51
180.0
  0
LINE
  8
0
 10
285.842605
 20
35.965466
 30
0.0
 11
285.842605
 21
35.015466
 31
0.0
  0
LINE
  8
0
  6
BYBLOCK
 62
     0
 10
286.407605
 20
34.815466
 30
0.0
 11
287.512834
 21
34.815466
 31
0.0
  0
LINE
  8
0
  6
BYBLOCK
 62
     0
 10
286.407605
 20
36.515466
 30
0.0
 11
287.512834
 21
36.515466
 31
0.0
  0
LINE
  8
0
  6
BYBLOCK
 62
     0
 10
287.497834
 20
34.965466
 30
0.0
 11
287.497834
 21
36.365466
 31
0.0
  0
SOLID
  8
0
  6
BYBLOCK
 62
     0
 10
287.472834
 20
34.965466
 30
0.0
 11
287.522834
 21
34.965466
 31
0.0
 12
287.497834
 22
34.815466
 32
0.0
 13
287.497834
 23
34.815466
 33
0.0
  0
SOLID
  8
0
  6
BYBLOCK
 62
     0
 10
287.472834
 20
36.365466
 30
0.0
 11
287.522834
 21
36.365466
 31
0.0
 12
287.497834
 22
36.515466
 32
0.0
 13
287.497834
 23
36.515466
 33
0.0
  0
TEXT
  8
0
  6
BYBLOCK
 62
     0
 10
287.460334
 20
35.535109
 30
0.0
 40
0.075
  1
1.70
 50
90.0
  7
ROMANC
 72
     1
 11
287.422834
 21
35.665466
 31
0.0
 73
     2
  0
POINT
  8
DEFPOINTS
  6
BYBLOCK
 62
     0
 10
286.392605
 20
34.815466
 30
0.0
  0
POINT
  8
DEFPOINTS
  6
BYBLOCK
 62
     0
 10
286.392605
 20
36.515466
 30
0.0
  0
POINT
  8
DEFPOINTS
  6
BYBLOCK
 62
     0
 10
287.497834
 20
36.515466
 30
0.0
  0
LINE
  8
0
  6
BYBLOCK
 62
     0
 10
286.957605
 20
35.015466
 30
0.0
 11
287.216829
 21
35.015466
 31
0.0
  0
LINE
  8
0
  6
BYBLOCK
 62
     0
 10
286.957605
 20
35.965466
 30
0.0
 11
287.216829
 21
35.965466
 31
0.0
  0
LINE
  8
0
  6
BYBLOCK
 62
     0
 10
287.201829
 20
35.165466
 30
0.0
 11
287.201829
 21
35.815466
 31
0.0
  0
SOLID
  8
0
  6
BYBLOCK
 62
     0
 10
287.176829
 20
35.165466
 30
0.0
 11
287.226829
 21
35.165466
 31
0.0
 12
287.201829
 22
35.015466
 32
0.0
 13
287.201829
 23
35.015466
 33
0.0
  0
SOLID
  8
0
  6
BYBLOCK
 62
     0
 10
287.176829
 20
35.815466
 30
0.0
 11
287.226829
 21
35.815466
 31
0.0
 12
287.201829
 22
35.965466
 32
0.0
 13
287.201829
 23
35.965466
 33
0.0
  0
TEXT
  8
0
  6
BYBLOCK
 62
     0
 10
287.164329
 20
35.365466
 30
0.0
 40
0.075
  1
0.95
 50
90.0
  7
ROMANC
 72
     1
 11
287.126829
 21
35.490466
 31
0.0
 73
     2
  0
POINT
  8
DEFPOINTS
  6
BYBLOCK
 62
     0
 10
286.942605
 20
35.015466
 30
0.0
  0
POINT
  8
DEFPOINTS
  6
BYBLOCK
 62
     0
 10
286.942605
 20
35.965466
 30
0.0
  0
POINT
  8
DEFPOINTS
  6
BYBLOCK
 62
     0
 10
287.201829
 20
35.965466
 30
0.0
  0
LINE
  8
0
  6
BYBLOCK
 62
     0
 10
286.407605
 20
34.815466
 30
0.0
 11
287.216829
 21
34.815466
 31
0.0
  0
LINE
  8
0
  6
BYBLOCK
 62
     0
 10
286.557605
 20
35.015466
 30
0.0
 11
287.216829
 21
35.015466
 31
0.0
  0
LINE
  8
0
  6
BYBLOCK
 62
     0
 10
287.201829
 20
34.665466
 30
0.0
 11
287.201829
 21
34.515466
 31
0.0
  0
LINE
  8
0
  6
BYBLOCK
 62
     0
 10
287.201829
 20
35.165466
 30
0.0
 11
287.201829
 21
35.315466
 31
0.0
  0
SOLID
  8
0
  6
BYBLOCK
 62
     0
 10
287.176829
 20
34.665466
 30
0.0
 11
287.226829
 21
34.665466
 31
0.0
 12
287.201829
 22
34.815466
 32
0.0
 13
287.201829
 23
34.815466
 33
0.0
  0
SOLID
  8
0
  6
BYBLOCK
 62
     0
 10
287.176829
 20
35.165466
 30
0.0
 11
287.226829
 21
35.165466
 31
0.0
 12
287.201829
 22
35.015466
 32
0.0
 13
287.201829
 23
35.015466
 33
0.0
  0
LINE
  8
0
  6
BYBLOCK
 62
     0
 10
287.201829
 20
34.815466
 30
0.0
 11
287.201829
 21
35.015466
 31
0.0
  0
TEXT
  8
0
  6
BYBLOCK
 62
     0
 10
287.164329
 20
34.790466
 30
0.0
 40
0.075
  1
0.20
 50
90.0
  7
ROMANC
 72
     1
 11
287.126829
 21
34.915466
 31
0.0
 73
     2
  0
POINT
  8
DEFPOINTS
  6
BYBLOCK
 62
     0
 10
286.392605
 20
34.815466
 30
0.0
  0
POINT
  8
DEFPOINTS
  6
BYBLOCK
 62
     0
 10
286.542605
 20
35.015466
 30
0.0
  0
POINT
  8
DEFPOINTS
  6
BYBLOCK
 62
     0
 10
287.201829
 20
35.015466
 30
0.0
  0
LINE
  8
0
  6
BYBLOCK
 62
     0
 10
285.842605
 20
35.000466
 30
0.0
 11
285.842605
 21
34.334514
 31
0.0
  0
LINE
  8
0
  6
BYBLOCK
 62
     0
 10
286.942605
 20
35.000466
 30
0.0
 11
286.942605
 21
34.334514
 31
0.0
  0
LINE
  8
0
  6
BYBLOCK
 62
     0
 10
285.992605
 20
34.349514
 30
0.0
 11
286.792605
 21
34.349514
 31
0.0
  0
SOLID
  8
0
  6
BYBLOCK
 62
     0
 10
285.992605
 20
34.374514
 30
0.0
 11
285.992605
 21
34.324514
 31
0.0
 12
285.842605
 22
34.349514
 32
0.0
 13
285.842605
 23
34.349514
 33
0.0
  0
SOLID
  8
0
  6
BYBLOCK
 62
     0
 10
286.792605
 20
34.374514
 30
0.0
 11
286.792605
 21
34.324514
 31
0.0
 12
286.942605
 22
34.349514
 32
0.0
 13
286.942605
 23
34.349514
 33
0.0
  0
TEXT
  8
0
  6
BYBLOCK
 62
     0
 10
286.262248
 20
34.387014
 30
0.0
 40
0.075
  1
1.10
  7
ROMANC
 72
     1
 11
286.392605
 21
34.424514
 31
0.0
 73
     2
  0
POINT
  8
DEFPOINTS
  6
BYBLOCK
 62
     0
 10
285.842605
 20
35.015466
 30
0.0
  0
POINT
  8
DEFPOINTS
  6
BYBLOCK
 62
     0
 10
286.942605
 20
35.015466
 30
0.0
  0
POINT
  8
DEFPOINTS
  6
BYBLOCK
 62
     0
 10
286.942605
 20
34.349514
 30
0.0
  0
LINE
  8
0
  6
BYBLOCK
 62
     0
 10
286.542605
 20
35.000466
 30
0.0
 11
286.542605
 21
34.574172
 31
0.0
  0
LINE
  8
0
  6
BYBLOCK
 62
     0
 10
286.942605
 20
35.000466
 30
0.0
 11
286.942605
 21
34.574172
 31
0.0
  0
LINE
  8
0
  6
BYBLOCK
 62
     0
 10
286.392605
 20
34.589172
 30
0.0
 11
286.242605
 21
34.589172
 31
0.0
  0
LINE
  8
0
  6
BYBLOCK
 62
     0
 10
287.092605
 20
34.589172
 30
0.0
 11
287.242605
 21
34.589172
 31
0.0
  0
SOLID
  8
0
  6
BYBLOCK
 62
     0
 10
286.392605
 20
34.614172
 30
0.0
 11
286.392605
 21
34.564172
 31
0.0
 12
286.542605
 22
34.589172
 32
0.0
 13
286.542605
 23
34.589172
 33
0.0
  0
SOLID
  8
0
  6
BYBLOCK
 62
     0
 10
287.092605
 20
34.614172
 30
0.0
 11
287.092605
 21
34.564172
 31
0.0
 12
286.942605
 22
34.589172
 32
0.0
 13
286.942605
 23
34.589172
 33
0.0
  0
LINE
  8
0
  6
BYBLOCK
 62
     0
 10
286.542605
 20
34.589172
 30
0.0
 11
286.942605
 21
34.589172
 31
0.0
  0
TEXT
  8
0
  6
BYBLOCK
 62
     0
 10
286.617605
 20
34.626672
 30
0.0
 40
0.075
  1
0.40
  7
ROMANC
 72
     1
 11
286.742605
 21
34.664172
 31
0.0
 73
     2
  0
POINT
  8
DEFPOINTS
  6
BYBLOCK
 62
     0
 10
286.542605
 20
35.015466
 30
0.0
  0
POINT
  8
DEFPOINTS
  6
BYBLOCK
 62
     0
 10
286.942605
 20
35.015466
 30
0.0
  0
POINT
  8
DEFPOINTS
  6
BYBLOCK
 62
     0
 10
286.942605
 20
34.589172
 30
0.0
  0
LINE
  8
0
  6
BYBLOCK
 62
     0
 10
285.842605
 20
35.000466
 30
0.0
 11
285.842605
 21
34.574172
 31
0.0
  0
LINE
  8
0
  6
BYBLOCK
 62
     0
 10
286.242605
 20
35.000466
 30
0.0
 11
286.242605
 21
34.574172
 31
0.0
  0
LINE
  8
0
  6
BYBLOCK
 62
     0
 10
285.692605
 20
34.589172
 30
0.0
 11
285.542605
 21
34.589172
 31
0.0
  0
LINE
  8
0
  6
BYBLOCK
 62
     0
 10
286.392605
 20
34.589172
 30
0.0
 11
286.542605
 21
34.589172
 31
0.0
  0
SOLID
  8
0
  6
BYBLOCK
 62
     0
 10
285.692605
 20
34.614172
 30
0.0
 11
285.692605
 21
34.564172
 31
0.0
 12
285.842605
 22
34.589172
 32
0.0
 13
285.842605
 23
34.589172
 33
0.0
  0
SOLID
  8
0
  6
BYBLOCK
 62
     0
 10
286.392605
 20
34.614172
 30
0.0
 11
286.392605
 21
34.564172
 31
0.0
 12
286.242605
 22
34.589172
 32
0.0
 13
286.242605
 23
34.589172
 33
0.0
  0
LINE
  8
0
  6
BYBLOCK
 62
     0
 10
285.842605
 20
34.589172
 30
0.0
 11
286.242605
 21
34.589172
 31
0.0
  0
TEXT
  8
0
  6
BYBLOCK
 62
     0
 10
285.917605
 20
34.626672
 30
0.0
 40
0.075
  1
0.40
  7
ROMANC
 72
     1
 11
286.042605
 21
34.664172
 31
0.0
 73
     2
  0
POINT
  8
DEFPOINTS
  6
BYBLOCK
 62
     0
 10
285.842605
 20
35.015466
 30
0.0
  0
POINT
  8
DEFPOINTS
  6
BYBLOCK
 62
     0
 10
286.242605
 20
35.015466
 30
0.0
  0
POINT
  8
DEFPOINTS
  6
BYBLOCK
 62
     0
 10
286.242605
 20
34.589172
 30
0.0
  0
LINE
  8
0
  6
BYBLOCK
 62
     0
 10
286.242605
 20
35.000466
 30
0.0
 11
286.242605
 21
34.574172
 31
0.0
  0
LINE
  8
0
  6
BYBLOCK
 62
     0
 10
286.542605
 20
35.000466
 30
0.0
 11
286.542605
 21
34.574172
 31
0.0
  0
LINE
  8
0
  6
BYBLOCK
 62
     0
 10
286.092605
 20
34.589172
 30
0.0
 11
285.942605
 21
34.589172
 31
0.0
  0
LINE
  8
0
  6
BYBLOCK
 62
     0
 10
286.692605
 20
34.589172
 30
0.0
 11
286.842605
 21
34.589172
 31
0.0
  0
SOLID
  8
0
  6
BYBLOCK
 62
     0
 10
286.092605
 20
34.614172
 30
0.0
 11
286.092605
 21
34.564172
 31
0.0
 12
286.242605
 22
34.589172
 32
0.0
 13
286.242605
 23
34.589172
 33
0.0
  0
SOLID
  8
0
  6
BYBLOCK
 62
     0
 10
286.692605
 20
34.614172
 30
0.0
 11
286.692605
 21
34.564172
 31
0.0
 12
286.542605
 22
34.589172
 32
0.0
 13
286.542605
 23
34.589172
 33
0.0
  0
LINE
  8
0
  6
BYBLOCK
 62
     0
 10
286.242605
 20
34.589172
 30
0.0
 11
286.542605
 21
34.589172
 31
0.0
  0
TEXT
  8
0
  6
BYBLOCK
 62
     0
 10
286.267605
 20
34.626672
 30
0.0
 40
0.075
  1
0.30
  7
ROMANC
 72
     1
 11
286.392605
 21
34.664172
 31
0.0
 73
     2
  0
POINT
  8
DEFPOINTS
  6
BYBLOCK
 62
     0
 10
286.242605
 20
35.015466
 30
0.0
  0
POINT
  8
DEFPOINTS
  6
BYBLOCK
 62
     0
 10
286.542605
 20
35.015466
 30
0.0
  0
POINT
  8
DEFPOINTS
  6
BYBLOCK
 62
     0
 10
286.542605
 20
34.589172
 30
0.0
  0
LINE
  8
0
  6
BYBLOCK
 62
     0
 10
285.842605
 20
35.980466
 30
0.0
 11
285.842605
 21
35.980466
 31
0.0
  0
LINE
  8
0
  6
BYBLOCK
 62
     0
 10
286.942605
 20
35.980466
 30
0.0
 11
286.942605
 21
35.980466
 31
0.0
  0
LINE
  8
0
  6
BYBLOCK
 62
     0
 10
285.992605
 20
35.965466
 30
0.0
 11
286.792605
 21
35.965466
 31
0.0
  0
SOLID
  8
0
  6
BYBLOCK
 62
     0
 10
285.992605
 20
35.990466
 30
0.0
 11
285.992605
 21
35.940466
 31
0.0
 12
285.842605
 22
35.965466
 32
0.0
 13
285.842605
 23
35.965466
 33
0.0
  0
SOLID
  8
0
  6
BYBLOCK
 62
     0
 10
286.792605
 20
35.990466
 30
0.0
 11
286.792605
 21
35.940466
 31
0.0
 12
286.942605
 22
35.965466
 32
0.0
 13
286.942605
 23
35.965466
 33
0.0
  0
TEXT
  8
0
  6
BYBLOCK
 62
     0
 10
286.262248
 20
36.002966
 30
0.0
 40
0.075
  1
1.10
  7
ROMANC
 72
     1
 11
286.392605
 21
36.040466
 31
0.0
 73
     2
  0
POINT
  8
DEFPOINTS
  6
BYBLOCK
 62
     0
 10
285.842605
 20
35.965466
 30
0.0
  0
POINT
  8
DEFPOINTS
  6
BYBLOCK
 62
     0
 10
286.942605
 20
35.965466
 30
0.0
  0
POINT
  8
DEFPOINTS
  6
BYBLOCK
 62
     0
 10
286.942605
 20
35.965466
 30
0.0
  0
LINE
  8
0
 10
281.395795
 20
29.897444
 30
0.0
 11
281.395795
 21
44.747444
 31
0.0
  0
LINE
  8
0
 10
281.395795
 20
44.747444
 30
0.0
 11
291.895795
 21
44.747444
 31
0.0
  0
LINE
  8
0
 10
291.895795
 20
44.747444
 30
0.0
 11
291.895795
 21
29.897444
 31
0.0
  0
LINE
  8
0
 10
291.895795
 20
29.897444
 30
0.0
 11
281.395795
 21
29.897444
 31
0.0
  0
ENDSEC
  0
EOF
