  0
SECTION
  2
HEADER
  9
$ACADVER
  1
AC1009
  9
$INSBASE
 10
105.464027
 20
-4.528761
 30
0.0
  9
$EXTMIN
 10
281.395795
 20
29.897444
 30
0.0
  9
$EXTMAX
 10
291.895795
 20
44.747444
 30
0.0
  9
$LIMMIN
 10
0.0
 20
0.0
  9
$LIMMAX
 10
410.0
 20
287.0
  9
$ORTHOMODE
 70
     1
  9
$REGENMODE
 70
     1
  9
$FILLMODE
 70
     1
  9
$QTEXTMODE
 70
     0
  9
$MIRRTEXT
 70
     1
  9
$DRAGMODE
 70
     2
  9
$LTSCALE
 40
25.0
  9
$OSMODE
 70
     0
  9
$ATTMODE
 70
     1
  9
$TEXTSIZE
 40
0.1
  9
$TRACEWID
 40
1.0
  9
$TEXTSTYLE
  7
ROMANC
  9
$CLAYER
  8
0
  9
$CELTYPE
  6
BYLAYER
  9
$CECOLOR
 62
   256
  9
$DIMSCALE
 40
1.5
  9
$DIMASZ
 40
0.1
  9
$DIMEXO
 40
0.01
  9
$DIMDLI
 40
7.0
  9
$DIMRND
 40
0.0
  9
$DIMDLE
 40
0.0
  9
$DIMEXE
 40
0.01
  9
$DIMTP
 40
0.0
  9
$DIMTM
 40
0.0
  9
$DIMTXT
 40
0.05
  9
$DIMCEN
 40
0.1
  9
$DIMTSZ
 40
0.0
  9
$DIMTOL
 70
     0
  9
$DIMLIM
 70
     0
  9
$DIMTIH
 70
     0
  9
$DIMTOH
 70
     0
  9
$DIMSE1
 70
     0
  9
$DIMSE2
 70
     0
  9
$DIMTAD
 70
     1
  9
$DIMZIN
 70
     0
  9
$DIMBLK
  1

  9
$DIMASO
 70
     1
  9
$DIMSHO
 70
     0
  9
$DIMPOST
  1

  9
$DIMAPOST
  1

  9
$DIMALT
 70
     0
  9
$DIMALTD
 70
     2
  9
$DIMALTF
 40
25.4
  9
$DIMLFAC
 40
1.0
  9
$DIMTOFL
 70
     1
  9
$DIMTVP
 40
0.0
  9
$DIMTIX
 70
     1
  9
$DIMSOXD
 70
     0
  9
$DIMSAH
 70
     0
  9
$DIMBLK1
  1

  9
$DIMBLK2
  1

  9
$DIMSTYLE
  2
*UNNAMED
  9
$DIMCLRD
 70
     0
  9
$DIMCLRE
 70
     0
  9
$DIMCLRT
 70
     0
  9
$DIMTFAC
 40
70.0
  9
$DIMGAP
 40
0.09
  9
$LUNITS
 70
     2
  9
$LUPREC
 70
     2
  9
$SKETCHINC
 40
1.0
  9
$FILLETRAD
 40
0.0
  9
$AUNITS
 70
     0
  9
$AUPREC
 70
     0
  9
$MENU
  1
acad
  9
$ELEVATION
 40
0.0
  9
$PELEVATION
 40
0.0
  9
$THICKNESS
 40
0.0
  9
$LIMCHECK
 70
     0
  9
$BLIPMODE
 70
     0
  9
$CHAMFERA
 40
0.0
  9
$CHAMFERB
 40
0.0
  9
$SKPOLY
 70
     0
  9
$TDCREATE
 40
2450305.554557986
  9
$TDUPDATE
 40
2450871.513557060
  9
$TDINDWG
 40
0.1537487269
  9
$TDUSRTIMER
 40
0.1537487269
  9
$USRTIMER
 70
     1
  9
$ANGBASE
 50
0.0
  9
$ANGDIR
 70
     0
  9
$PDMODE
 70
     0
  9
$PDSIZE
 40
0.0
  9
$PLINEWID
 40
0.0
  9
$COORDS
 70
     2
  9
$SPLFRAME
 70
     0
  9
$SPLINETYPE
 70
     6
  9
$SPLINESEGS
 70
     8
  9
$ATTDIA
 70
     0
  9
$ATTREQ
 70
     1
  9
$HANDLING
 70
     0
  9
$HANDSEED
  5
0
  9
$SURFTAB1
 70
     6
  9
$SURFTAB2
 70
     6
  9
$SURFTYPE
 70
     6
  9
$SURFU
 70
     6
  9
$SURFV
 70
     6
  9
$UCSNAME
  2

  9
$UCSORG
 10
0.0
 20
0.0
 30
0.0
  9
$UCSXDIR
 10
1.0
 20
0.0
 30
0.0
  9
$UCSYDIR
 10
0.0
 20
1.0
 30
0.0
  9
$PUCSNAME
  2

  9
$PUCSORG
 10
0.0
 20
0.0
 30
0.0
  9
$PUCSXDIR
 10
1.0
 20
0.0
 30
0.0
  9
$PUCSYDIR
 10
0.0
 20
1.0
 30
0.0
  9
$USERI1
 70
     0
  9
$USERI2
 70
     0
  9
$USERI3
 70
     0
  9
$USERI4
 70
     0
  9
$USERI5
 70
     0
  9
$USERR1
 40
0.0
  9
$USERR2
 40
0.0
  9
$USERR3
 40
0.0
  9
$USERR4
 40
0.0
  9
$USERR5
 40
0.0
  9
$WORLDVIEW
 70
     1
  9
$SHADEDGE
 70
     3
  9
$SHADEDIF
 70
    70
  9
$TILEMODE
 70
     1
  9
$MAXACTVP
 70
    16
  9
$PINSBASE
 10
0.0
 20
0.0
 30
0.0
  9
$PLIMCHECK
 70
     0
  9
$PEXTMIN
 10
1.000000E+20
 20
1.000000E+20
 30
1.000000E+20
  9
$PEXTMAX
 10
-1.000000E+20
 20
-1.000000E+20
 30
-1.000000E+20
  9
$PLIMMIN
 10
0.0
 20
0.0
  9
$PLIMMAX
 10
12.0
 20
9.0
  9
$UNITMODE
 70
     0
  9
$VISRETAIN
 70
     0
  9
$PLINEGEN
 70
     0
  9
$PSLTSCALE
 70
     0
  9
$TREEDEPTH
 70
  3020
  9
$DWGCODEPAGE
  3
iso8859-1
  0
ENDSEC
  0
SECTION
  2
TABLES
  0
TABLE
  2
VPORT
 70
     2
  0
VPORT
  2
*ACTIVE
 70
     0
 10
0.0
 20
0.0
 11
1.0
 21
1.0
 12
292.922009
 22
37.322444
 13
0.0
 23
0.0
 14
1.0
 24
1.0
 15
10.0
 25
10.0
 16
0.0
 26
0.0
 36
1.0
 17
0.0
 27
0.0
 37
0.0
 40
14.85
 41
1.552352
 42
50.0
 43
0.0
 44
0.0
 50
0.0
 51
0.0
 71
     0
 72
   100
 73
     1
 74
     0
 75
     0
 76
     0
 77
     0
 78
     1
  0
ENDTAB
  0
TABLE
  2
LTYPE
 70
     1
  0
LTYPE
  2
CONTINUOUS
 70
    64
  3
Solid line
 72
    65
 73
     0
 40
0.0
  0
ENDTAB
  0
TABLE
  2
LAYER
 70
     2
  0
LAYER
  2
0
 70
    64
 62
     7
  6
CONTINUOUS
  0
LAYER
  2
DEFPOINTS
 70
    64
 62
     7
  6
CONTINUOUS
  0
ENDTAB
  0
TABLE
  2
STYLE
 70
     2
  0
STYLE
  2
STANDARD
 70
     0
 40
0.0
 41
1.0
 50
0.0
 71
     0
 42
0.1
  3
txt
  4

  0
STYLE
  2
ROMANC
 70
    64
 40
0.0
 41
1.0
 50
0.0
 71
     0
 42
0.1
  3
romanc
  4

  0
ENDTAB
  0
TABLE
  2
VIEW
 70
     0
  0
ENDTAB
  0
TABLE
  2
UCS
 70
     0
  0
ENDTAB
  0
TABLE
  2
APPID
 70
     1
  0
APPID
  2
ACAD
 70
    64
  0
ENDTAB
  0
TABLE
  2
DIMSTYLE
 70
     0
  0
ENDTAB
  0
ENDSEC
  0
SECTION
  2
BLOCKS
  0
BLOCK
  8
0
  2
*D0
 70
    65
 10
0.0
 20
0.0
 30
0.0
  3
*D
  0
LINE
  8
0
  6
BYBLOCK
 62
     0
 10
285.106608
 20
35.889381
 30
0.0
 11
285.106608
 21
35.889381
 31
0.0
  0
LINE
  8
0
  6
BYBLOCK
 62
     0
 10
286.156608
 20
35.889381
 30
0.0
 11
286.156608
 21
35.889381
 31
0.0
  0
LINE
  8
0
  6
BYBLOCK
 62
     0
 10
285.256608
 20
35.874381
 30
0.0
 11
286.006608
 21
35.874381
 31
0.0
  0
SOLID
  8
0
  6
BYBLOCK
 62
     0
 10
285.256608
 20
35.899381
 30
0.0
 11
285.256608
 21
35.849381
 31
0.0
 12
285.106608
 22
35.874381
 32
0.0
 13
285.106608
 23
35.874381
 33
0.0
  0
SOLID
  8
0
  6
BYBLOCK
 62
     0
 10
286.006608
 20
35.899381
 30
0.0
 11
286.006608
 21
35.849381
 31
0.0
 12
286.156608
 22
35.874381
 32
0.0
 13
286.156608
 23
35.874381
 33
0.0
  0
TEXT
  8
0
  6
BYBLOCK
 62
     0
 10
285.50125
 20
35.911881
 30
0.0
 40
0.075
  1
1.05
  7
ROMANC
 72
     1
 11
285.631608
 21
35.949381
 31
0.0
 73
     2
  0
POINT
  8
DEFPOINTS
  6
BYBLOCK
 62
     0
 10
285.106608
 20
35.874381
 30
0.0
  0
POINT
  8
DEFPOINTS
  6
BYBLOCK
 62
     0
 10
286.156608
 20
35.874381
 30
0.0
  0
POINT
  8
DEFPOINTS
  6
BYBLOCK
 62
     0
 10
286.156608
 20
35.874381
 30
0.0
  0
ENDBLK
  8
0
  0
BLOCK
  8
0
  2
*D1
 70
    65
 10
0.0
 20
0.0
 30
0.0
  3
*D
  0
LINE
  8
0
  6
BYBLOCK
 62
     0
 10
285.431608
 20
34.859381
 30
0.0
 11
285.431608
 21
34.310597
 31
0.0
  0
LINE
  8
0
  6
BYBLOCK
 62
     0
 10
285.831608
 20
34.859381
 30
0.0
 11
285.831608
 21
34.310597
 31
0.0
  0
LINE
  8
0
  6
BYBLOCK
 62
     0
 10
285.281608
 20
34.325597
 30
0.0
 11
285.131608
 21
34.325597
 31
0.0
  0
LINE
  8
0
  6
BYBLOCK
 62
     0
 10
285.981608
 20
34.325597
 30
0.0
 11
286.131608
 21
34.325597
 31
0.0
  0
SOLID
  8
0
  6
BYBLOCK
 62
     0
 10
285.281608
 20
34.350597
 30
0.0
 11
285.281608
 21
34.300597
 31
0.0
 12
285.431608
 22
34.325597
 32
0.0
 13
285.431608
 23
34.325597
 33
0.0
  0
SOLID
  8
0
  6
BYBLOCK
 62
     0
 10
285.981608
 20
34.350597
 30
0.0
 11
285.981608
 21
34.300597
 31
0.0
 12
285.831608
 22
34.325597
 32
0.0
 13
285.831608
 23
34.325597
 33
0.0
  0
LINE
  8
0
  6
BYBLOCK
 62
     0
 10
285.431608
 20
34.325597
 30
0.0
 11
285.831608
 21
34.325597
 31
0.0
  0
TEXT
  8
0
  6
BYBLOCK
 62
     0
 10
285.506608
 20
34.363097
 30
0.0
 40
0.075
  1
0.40
  7
ROMANC
 72
     1
 11
285.631608
 21
34.400597
 31
0.0
 73
     2
  0
POINT
  8
DEFPOINTS
  6
BYBLOCK
 62
     0
 10
285.431608
 20
34.874381
 30
0.0
  0
POINT
  8
DEFPOINTS
  6
BYBLOCK
 62
     0
 10
285.831608
 20
34.874381
 30
0.0
  0
POINT
  8
DEFPOINTS
  6
BYBLOCK
 62
     0
 10
285.831608
 20
34.325597
 30
0.0
  0
ENDBLK
  8
0
  0
BLOCK
  8
0
  2
*D2
 70
    65
 10
0.0
 20
0.0
 30
0.0
  3
*D
  0
LINE
  8
0
  6
BYBLOCK
 62
     0
 10
285.131608
 20
34.859381
 30
0.0
 11
285.131608
 21
33.999517
 31
0.0
  0
LINE
  8
0
  6
BYBLOCK
 62
     0
 10
286.131608
 20
34.859381
 30
0.0
 11
286.131608
 21
33.999517
 31
0.0
  0
LINE
  8
0
  6
BYBLOCK
 62
     0
 10
285.281608
 20
34.014517
 30
0.0
 11
285.981608
 21
34.014517
 31
0.0
  0
SOLID
  8
0
  6
BYBLOCK
 62
     0
 10
285.281608
 20
34.039517
 30
0.0
 11
285.281608
 21
33.989517
 31
0.0
 12
285.131608
 22
34.014517
 32
0.0
 13
285.131608
 23
34.014517
 33
0.0
  0
SOLID
  8
0
  6
BYBLOCK
 62
     0
 10
285.981608
 20
34.039517
 30
0.0
 11
285.981608
 21
33.989517
 31
0.0
 12
286.131608
 22
34.014517
 32
0.0
 13
286.131608
 23
34.014517
 33
0.0
  0
TEXT
  8
0
  6
BYBLOCK
 62
     0
 10
285.50125
 20
34.052017
 30
0.0
 40
0.075
  1
1.00
  7
ROMANC
 72
     1
 11
285.631608
 21
34.089517
 31
0.0
 73
     2
  0
POINT
  8
DEFPOINTS
  6
BYBLOCK
 62
     0
 10
285.131608
 20
34.874381
 30
0.0
  0
POINT
  8
DEFPOINTS
  6
BYBLOCK
 62
     0
 10
286.131608
 20
34.874381
 30
0.0
  0
POINT
  8
DEFPOINTS
  6
BYBLOCK
 62
     0
 10
286.131608
 20
34.014517
 30
0.0
  0
ENDBLK
  8
0
  0
BLOCK
  8
0
  2
*D3
 70
    65
 10
0.0
 20
0.0
 30
0.0
  3
*D
  0
LINE
  8
0
  6
BYBLOCK
 62
     0
 10
285.646608
 20
34.574381
 30
0.0
 11
286.472189
 21
34.574381
 31
0.0
  0
LINE
  8
0
  6
BYBLOCK
 62
     0
 10
285.846608
 20
34.874381
 30
0.0
 11
286.472189
 21
34.874381
 31
0.0
  0
LINE
  8
0
  6
BYBLOCK
 62
     0
 10
286.457189
 20
34.424381
 30
0.0
 11
286.457189
 21
34.274381
 31
0.0
  0
LINE
  8
0
  6
BYBLOCK
 62
     0
 10
286.457189
 20
35.024381
 30
0.0
 11
286.457189
 21
35.174381
 31
0.0
  0
SOLID
  8
0
  6
BYBLOCK
 62
     0
 10
286.432189
 20
34.424381
 30
0.0
 11
286.482189
 21
34.424381
 31
0.0
 12
286.457189
 22
34.574381
 32
0.0
 13
286.457189
 23
34.574381
 33
0.0
  0
SOLID
  8
0
  6
BYBLOCK
 62
     0
 10
286.432189
 20
35.024381
 30
0.0
 11
286.482189
 21
35.024381
 31
0.0
 12
286.457189
 22
34.874381
 32
0.0
 13
286.457189
 23
34.874381
 33
0.0
  0
LINE
  8
0
  6
BYBLOCK
 62
     0
 10
286.457189
 20
34.574381
 30
0.0
 11
286.457189
 21
34.874381
 31
0.0
  0
TEXT
  8
0
  6
BYBLOCK
 62
     0
 10
286.419689
 20
34.599381
 30
0.0
 40
0.075
  1
0.30
 50
90.0
  7
ROMANC
 72
     1
 11
286.382189
 21
34.724381
 31
0.0
 73
     2
  0
POINT
  8
DEFPOINTS
  6
BYBLOCK
 62
     0
 10
285.631608
 20
34.574381
 30
0.0
  0
POINT
  8
DEFPOINTS
  6
BYBLOCK
 62
     0
 10
285.831608
 20
34.874381
 30
0.0
  0
POINT
  8
DEFPOINTS
  6
BYBLOCK
 62
     0
 10
286.457189
 20
34.874381
 30
0.0
  0
ENDBLK
  8
0
  0
BLOCK
  8
0
  2
*D4
 70
    65
 10
0.0
 20
0.0
 30
0.0
  3
*D
  0
LINE
  8
0
  6
BYBLOCK
 62
     0
 10
286.146608
 20
34.874381
 30
0.0
 11
286.472189
 21
34.874381
 31
0.0
  0
LINE
  8
0
  6
BYBLOCK
 62
     0
 10
286.171608
 20
35.874381
 30
0.0
 11
286.472189
 21
35.874381
 31
0.0
  0
LINE
  8
0
  6
BYBLOCK
 62
     0
 10
286.457189
 20
35.024381
 30
0.0
 11
286.457189
 21
35.724381
 31
0.0
  0
SOLID
  8
0
  6
BYBLOCK
 62
     0
 10
286.432189
 20
35.024381
 30
0.0
 11
286.482189
 21
35.024381
 31
0.0
 12
286.457189
 22
34.874381
 32
0.0
 13
286.457189
 23
34.874381
 33
0.0
  0
SOLID
  8
0
  6
BYBLOCK
 62
     0
 10
286.432189
 20
35.724381
 30
0.0
 11
286.482189
 21
35.724381
 31
0.0
 12
286.457189
 22
35.874381
 32
0.0
 13
286.457189
 23
35.874381
 33
0.0
  0
TEXT
  8
0
  6
BYBLOCK
 62
     0
 10
286.419689
 20
35.244024
 30
0.0
 40
0.075
  1
1.00
 50
90.0
  7
ROMANC
 72
     1
 11
286.382189
 21
35.374381
 31
0.0
 73
     2
  0
POINT
  8
DEFPOINTS
  6
BYBLOCK
 62
     0
 10
286.131608
 20
34.874381
 30
0.0
  0
POINT
  8
DEFPOINTS
  6
BYBLOCK
 62
     0
 10
286.156608
 20
35.874381
 30
0.0
  0
POINT
  8
DEFPOINTS
  6
BYBLOCK
 62
     0
 10
286.457189
 20
35.874381
 30
0.0
  0
ENDBLK
  8
0
  0
BLOCK
  8
0
  2
*D5
 70
    65
 10
0.0
 20
0.0
 30
0.0
  3
*D
  0
LINE
  8
0
  6
BYBLOCK
 62
     0
 10
285.646608
 20
34.574381
 30
0.0
 11
286.770645
 21
34.574381
 31
0.0
  0
LINE
  8
0
  6
BYBLOCK
 62
     0
 10
285.646608
 20
36.324381
 30
0.0
 11
286.770645
 21
36.324381
 31
0.0
  0
LINE
  8
0
  6
BYBLOCK
 62
     0
 10
286.755645
 20
34.724381
 30
0.0
 11
286.755645
 21
36.174381
 31
0.0
  0
SOLID
  8
0
  6
BYBLOCK
 62
     0
 10
286.730645
 20
34.724381
 30
0.0
 11
286.780645
 21
34.724381
 31
0.0
 12
286.755645
 22
34.574381
 32
0.0
 13
286.755645
 23
34.574381
 33
0.0
  0
SOLID
  8
0
  6
BYBLOCK
 62
     0
 10
286.730645
 20
36.174381
 30
0.0
 11
286.780645
 21
36.174381
 31
0.0
 12
286.755645
 22
36.324381
 32
0.0
 13
286.755645
 23
36.324381
 33
0.0
  0
TEXT
  8
0
  6
BYBLOCK
 62
     0
 10
286.718145
 20
35.319024
 30
0.0
 40
0.075
  1
1.75
 50
90.0
  7
ROMANC
 72
     1
 11
286.680645
 21
35.449381
 31
0.0
 73
     2
  0
POINT
  8
DEFPOINTS
  6
BYBLOCK
 62
     0
 10
285.631608
 20
34.574381
 30
0.0
  0
POINT
  8
DEFPOINTS
  6
BYBLOCK
 62
     0
 10
285.631608
 20
36.324381
 30
0.0
  0
POINT
  8
DEFPOINTS
  6
BYBLOCK
 62
     0
 10
286.755645
 20
36.324381
 30
0.0
  0
ENDBLK
  8
0
  0
BLOCK
  8
0
  2
*D6
 70
    65
 10
0.0
 20
0.0
 30
0.0
  3
*D
  0
LINE
  8
0
  6
BYBLOCK
 62
     0
 10
284.677703
 20
34.957424
 30
0.0
 11
284.677703
 21
34.509885
 31
0.0
  0
LINE
  8
0
  6
BYBLOCK
 62
     0
 10
285.127703
 20
34.957424
 30
0.0
 11
285.127703
 21
34.509885
 31
0.0
  0
LINE
  8
0
  6
BYBLOCK
 62
     0
 10
284.527703
 20
34.524885
 30
0.0
 11
284.377703
 21
34.524885
 31
0.0
  0
LINE
  8
0
  6
BYBLOCK
 62
     0
 10
285.277703
 20
34.524885
 30
0.0
 11
285.427703
 21
34.524885
 31
0.0
  0
SOLID
  8
0
  6
BYBLOCK
 62
     0
 10
284.527703
 20
34.549885
 30
0.0
 11
284.527703
 21
34.499885
 31
0.0
 12
284.677703
 22
34.524885
 32
0.0
 13
284.677703
 23
34.524885
 33
0.0
  0
SOLID
  8
0
  6
BYBLOCK
 62
     0
 10
285.277703
 20
34.549885
 30
0.0
 11
285.277703
 21
34.499885
 31
0.0
 12
285.127703
 22
34.524885
 32
0.0
 13
285.127703
 23
34.524885
 33
0.0
  0
LINE
  8
0
  6
BYBLOCK
 62
     0
 10
284.677703
 20
34.524885
 30
0.0
 11
285.127703
 21
34.524885
 31
0.0
  0
TEXT
  8
0
  6
BYBLOCK
 62
     0
 10
284.777703
 20
34.562385
 30
0.0
 40
0.075
  1
0.45
  7
ROMANC
 72
     1
 11
284.902703
 21
34.599885
 31
0.0
 73
     2
  0
POINT
  8
DEFPOINTS
  6
BYBLOCK
 62
     0
 10
284.677703
 20
34.972424
 30
0.0
  0
POINT
  8
DEFPOINTS
  6
BYBLOCK
 62
     0
 10
285.127703
 20
34.972424
 30
0.0
  0
POINT
  8
DEFPOINTS
  6
BYBLOCK
 62
     0
 10
285.127703
 20
34.524885
 30
0.0
  0
ENDBLK
  8
0
  0
BLOCK
  8
0
  2
*D7
 70
    65
 10
0.0
 20
0.0
 30
0.0
  3
*D
  0
LINE
  8
0
  6
BYBLOCK
 62
     0
 10
284.172703
 20
34.957424
 30
0.0
 11
284.172703
 21
34.229338
 31
0.0
  0
LINE
  8
0
  6
BYBLOCK
 62
     0
 10
285.632703
 20
34.957424
 30
0.0
 11
285.632703
 21
34.229338
 31
0.0
  0
LINE
  8
0
  6
BYBLOCK
 62
     0
 10
284.322703
 20
34.244338
 30
0.0
 11
285.482703
 21
34.244338
 31
0.0
  0
SOLID
  8
0
  6
BYBLOCK
 62
     0
 10
284.322703
 20
34.269338
 30
0.0
 11
284.322703
 21
34.219338
 31
0.0
 12
284.172703
 22
34.244338
 32
0.0
 13
284.172703
 23
34.244338
 33
0.0
  0
SOLID
  8
0
  6
BYBLOCK
 62
     0
 10
285.482703
 20
34.269338
 30
0.0
 11
285.482703
 21
34.219338
 31
0.0
 12
285.632703
 22
34.244338
 32
0.0
 13
285.632703
 23
34.244338
 33
0.0
  0
TEXT
  8
0
  6
BYBLOCK
 62
     0
 10
284.772346
 20
34.281838
 30
0.0
 40
0.075
  1
1.46
  7
ROMANC
 72
     1
 11
284.902703
 21
34.319338
 31
0.0
 73
     2
  0
POINT
  8
DEFPOINTS
  6
BYBLOCK
 62
     0
 10
284.172703
 20
34.972424
 30
0.0
  0
POINT
  8
DEFPOINTS
  6
BYBLOCK
 62
     0
 10
285.632703
 20
34.972424
 30
0.0
  0
POINT
  8
DEFPOINTS
  6
BYBLOCK
 62
     0
 10
285.632703
 20
34.244338
 30
0.0
  0
ENDBLK
  8
0
  0
BLOCK
  8
0
  2
*D8
 70
    65
 10
0.0
 20
0.0
 30
0.0
  3
*D
  0
LINE
  8
0
  6
BYBLOCK
 62
     0
 10
284.917703
 20
34.772424
 30
0.0
 11
286.018924
 21
34.772424
 31
0.0
  0
LINE
  8
0
  6
BYBLOCK
 62
     0
 10
285.142703
 20
34.972424
 30
0.0
 11
286.018924
 21
34.972424
 31
0.0
  0
LINE
  8
0
  6
BYBLOCK
 62
     0
 10
286.003924
 20
34.622424
 30
0.0
 11
286.003924
 21
34.472424
 31
0.0
  0
LINE
  8
0
  6
BYBLOCK
 62
     0
 10
286.003924
 20
35.122424
 30
0.0
 11
286.003924
 21
35.272424
 31
0.0
  0
SOLID
  8
0
  6
BYBLOCK
 62
     0
 10
285.978924
 20
34.622424
 30
0.0
 11
286.028924
 21
34.622424
 31
0.0
 12
286.003924
 22
34.772424
 32
0.0
 13
286.003924
 23
34.772424
 33
0.0
  0
SOLID
  8
0
  6
BYBLOCK
 62
     0
 10
285.978924
 20
35.122424
 30
0.0
 11
286.028924
 21
35.122424
 31
0.0
 12
286.003924
 22
34.972424
 32
0.0
 13
286.003924
 23
34.972424
 33
0.0
  0
LINE
  8
0
  6
BYBLOCK
 62
     0
 10
286.003924
 20
34.772424
 30
0.0
 11
286.003924
 21
34.972424
 31
0.0
  0
TEXT
  8
0
  6
BYBLOCK
 62
     0
 10
285.966424
 20
34.747424
 30
0.0
 40
0.075
  1
0.20
 50
90.0
  7
ROMANC
 72
     1
 11
285.928924
 21
34.872424
 31
0.0
 73
     2
  0
POINT
  8
DEFPOINTS
  6
BYBLOCK
 62
     0
 10
284.902703
 20
34.772424
 30
0.0
  0
POINT
  8
DEFPOINTS
  6
BYBLOCK
 62
     0
 10
285.127703
 20
34.972424
 30
0.0
  0
POINT
  8
DEFPOINTS
  6
BYBLOCK
 62
     0
 10
286.003924
 20
34.972424
 30
0.0
  0
ENDBLK
  8
0
  0
BLOCK
  8
0
  2
*D9
 70
    65
 10
0.0
 20
0.0
 30
0.0
  3
*D
  0
LINE
  8
0
  6
BYBLOCK
 62
     0
 10
284.917703
 20
34.772424
 30
0.0
 11
286.018924
 21
34.772424
 31
0.0
  0
LINE
  8
0
  6
BYBLOCK
 62
     0
 10
285.142703
 20
34.972424
 30
0.0
 11
286.018924
 21
34.972424
 31
0.0
  0
LINE
  8
0
  6
BYBLOCK
 62
     0
 10
286.003924
 20
34.622424
 30
0.0
 11
286.003924
 21
34.472424
 31
0.0
  0
LINE
  8
0
  6
BYBLOCK
 62
     0
 10
286.003924
 20
35.122424
 30
0.0
 11
286.003924
 21
35.272424
 31
0.0
  0
SOLID
  8
0
  6
BYBLOCK
 62
     0
 10
285.978924
 20
34.622424
 30
0.0
 11
286.028924
 21
34.622424
 31
0.0
 12
286.003924
 22
34.772424
 32
0.0
 13
286.003924
 23
34.772424
 33
0.0
  0
SOLID
  8
0
  6
BYBLOCK
 62
     0
 10
285.978924
 20
35.122424
 30
0.0
 11
286.028924
 21
35.122424
 31
0.0
 12
286.003924
 22
34.972424
 32
0.0
 13
286.003924
 23
34.972424
 33
0.0
  0
LINE
  8
0
  6
BYBLOCK
 62
     0
 10
286.003924
 20
34.772424
 30
0.0
 11
286.003924
 21
34.972424
 31
0.0
  0
TEXT
  8
0
  6
BYBLOCK
 62
     0
 10
285.966424
 20
34.439963
 30
0.0
 40
0.075
  1
0.20
 50
90.0
  7
ROMANC
 72
     1
 11
285.928924
 21
34.564963
 31
0.0
 73
     2
  0
POINT
  8
DEFPOINTS
  6
BYBLOCK
 62
     0
 10
284.902703
 20
34.772424
 30
0.0
  0
POINT
  8
DEFPOINTS
  6
BYBLOCK
 62
     0
 10
285.127703
 20
34.972424
 30
0.0
  0
POINT
  8
DEFPOINTS
  6
BYBLOCK
 62
     0
 10
286.003924
 20
34.972424
 30
0.0
  0
ENDBLK
  8
0
  0
BLOCK
  8
0
  2
*D10
 70
    65
 10
0.0
 20
0.0
 30
0.0
  3
*D
  0
LINE
  8
0
  6
BYBLOCK
 62
     0
 10
284.917703
 20
34.772424
 30
0.0
 11
286.018924
 21
34.772424
 31
0.0
  0
LINE
  8
0
  6
BYBLOCK
 62
     0
 10
285.142703
 20
34.972424
 30
0.0
 11
286.018924
 21
34.972424
 31
0.0
  0
LINE
  8
0
  6
BYBLOCK
 62
     0
 10
286.003924
 20
34.622424
 30
0.0
 11
286.003924
 21
34.472424
 31
0.0
  0
LINE
  8
0
  6
BYBLOCK
 62
     0
 10
286.003924
 20
35.122424
 30
0.0
 11
286.003924
 21
35.272424
 31
0.0
  0
SOLID
  8
0
  6
BYBLOCK
 62
     0
 10
285.978924
 20
34.622424
 30
0.0
 11
286.028924
 21
34.622424
 31
0.0
 12
286.003924
 22
34.772424
 32
0.0
 13
286.003924
 23
34.772424
 33
0.0
  0
SOLID
  8
0
  6
BYBLOCK
 62
     0
 10
285.978924
 20
35.122424
 30
0.0
 11
286.028924
 21
35.122424
 31
0.0
 12
286.003924
 22
34.972424
 32
0.0
 13
286.003924
 23
34.972424
 33
0.0
  0
LINE
  8
0
  6
BYBLOCK
 62
     0
 10
286.003924
 20
34.772424
 30
0.0
 11
286.003924
 21
34.972424
 31
0.0
  0
TEXT
  8
0
  6
BYBLOCK
 62
     0
 10
285.966424
 20
34.50008
 30
0.0
 40
0.075
  1
0.20
 50
90.0
  7
ROMANC
 72
     1
 11
285.928924
 21
34.62508
 31
0.0
 73
     2
  0
POINT
  8
DEFPOINTS
  6
BYBLOCK
 62
     0
 10
284.902703
 20
34.772424
 30
0.0
  0
POINT
  8
DEFPOINTS
  6
BYBLOCK
 62
     0
 10
285.127703
 20
34.972424
 30
0.0
  0
POINT
  8
DEFPOINTS
  6
BYBLOCK
 62
     0
 10
286.003924
 20
34.972424
 30
0.0
  0
ENDBLK
  8
0
  0
BLOCK
  8
0
  2
*D11
 70
    65
 10
0.0
 20
0.0
 30
0.0
  3
*D
  0
LINE
  8
0
  6
BYBLOCK
 62
     0
 10
284.917703
 20
34.772424
 30
0.0
 11
286.018924
 21
34.772424
 31
0.0
  0
LINE
  8
0
  6
BYBLOCK
 62
     0
 10
285.142703
 20
34.972424
 30
0.0
 11
286.018924
 21
34.972424
 31
0.0
  0
LINE
  8
0
  6
BYBLOCK
 62
     0
 10
286.003924
 20
34.622424
 30
0.0
 11
286.003924
 21
34.472424
 31
0.0
  0
LINE
  8
0
  6
BYBLOCK
 62
     0
 10
286.003924
 20
35.122424
 30
0.0
 11
286.003924
 21
35.272424
 31
0.0
  0
SOLID
  8
0
  6
BYBLOCK
 62
     0
 10
285.978924
 20
34.622424
 30
0.0
 11
286.028924
 21
34.622424
 31
0.0
 12
286.003924
 22
34.772424
 32
0.0
 13
286.003924
 23
34.772424
 33
0.0
  0
SOLID
  8
0
  6
BYBLOCK
 62
     0
 10
285.978924
 20
35.122424
 30
0.0
 11
286.028924
 21
35.122424
 31
0.0
 12
286.003924
 22
34.972424
 32
0.0
 13
286.003924
 23
34.972424
 33
0.0
  0
LINE
  8
0
  6
BYBLOCK
 62
     0
 10
286.003924
 20
34.772424
 30
0.0
 11
286.003924
 21
34.972424
 31
0.0
  0
TEXT
  8
0
  6
BYBLOCK
 62
     0
 10
285.966424
 20
34.466682
 30
0.0
 40
0.075
  1
0.20
 50
90.0
  7
ROMANC
 72
     1
 11
285.928924
 21
34.591682
 31
0.0
 73
     2
  0
POINT
  8
DEFPOINTS
  6
BYBLOCK
 62
     0
 10
284.902703
 20
34.772424
 30
0.0
  0
POINT
  8
DEFPOINTS
  6
BYBLOCK
 62
     0
 10
285.127703
 20
34.972424
 30
0.0
  0
POINT
  8
DEFPOINTS
  6
BYBLOCK
 62
     0
 10
286.003924
 20
34.972424
 30
0.0
  0
ENDBLK
  8
0
  0
BLOCK
  8
0
  2
*D12
 70
    65
 10
0.0
 20
0.0
 30
0.0
  3
*D
  0
LINE
  8
0
  6
BYBLOCK
 62
     0
 10
285.647703
 20
34.972424
 30
0.0
 11
286.018924
 21
34.972424
 31
0.0
  0
LINE
  8
0
  6
BYBLOCK
 62
     0
 10
285.647703
 20
36.192424
 30
0.0
 11
286.018924
 21
36.192424
 31
0.0
  0
LINE
  8
0
  6
BYBLOCK
 62
     0
 10
286.003924
 20
35.122424
 30
0.0
 11
286.003924
 21
36.042424
 31
0.0
  0
SOLID
  8
0
  6
BYBLOCK
 62
     0
 10
285.978924
 20
35.122424
 30
0.0
 11
286.028924
 21
35.122424
 31
0.0
 12
286.003924
 22
34.972424
 32
0.0
 13
286.003924
 23
34.972424
 33
0.0
  0
SOLID
  8
0
  6
BYBLOCK
 62
     0
 10
285.978924
 20
36.042424
 30
0.0
 11
286.028924
 21
36.042424
 31
0.0
 12
286.003924
 22
36.192424
 32
0.0
 13
286.003924
 23
36.192424
 33
0.0
  0
TEXT
  8
0
  6
BYBLOCK
 62
     0
 10
285.966424
 20
35.452067
 30
0.0
 40
0.075
  1
1.22
 50
90.0
  7
ROMANC
 72
     1
 11
285.928924
 21
35.582424
 31
0.0
 73
     2
  0
POINT
  8
DEFPOINTS
  6
BYBLOCK
 62
     0
 10
285.632703
 20
34.972424
 30
0.0
  0
POINT
  8
DEFPOINTS
  6
BYBLOCK
 62
     0
 10
285.632703
 20
36.192424
 30
0.0
  0
POINT
  8
DEFPOINTS
  6
BYBLOCK
 62
     0
 10
286.003924
 20
36.192424
 30
0.0
  0
ENDBLK
  8
0
  0
BLOCK
  8
0
  2
*D13
 70
    65
 10
0.0
 20
0.0
 30
0.0
  3
*D
  0
LINE
  8
0
  6
BYBLOCK
 62
     0
 10
285.647703
 20
34.972424
 30
0.0
 11
286.018924
 21
34.972424
 31
0.0
  0
LINE
  8
0
  6
BYBLOCK
 62
     0
 10
285.647703
 20
35.992424
 30
0.0
 11
286.018924
 21
35.992424
 31
0.0
  0
LINE
  8
0
  6
BYBLOCK
 62
     0
 10
286.003924
 20
35.122424
 30
0.0
 11
286.003924
 21
35.842424
 31
0.0
  0
SOLID
  8
0
  6
BYBLOCK
 62
     0
 10
285.978924
 20
35.122424
 30
0.0
 11
286.028924
 21
35.122424
 31
0.0
 12
286.003924
 22
34.972424
 32
0.0
 13
286.003924
 23
34.972424
 33
0.0
  0
SOLID
  8
0
  6
BYBLOCK
 62
     0
 10
285.978924
 20
35.842424
 30
0.0
 11
286.028924
 21
35.842424
 31
0.0
 12
286.003924
 22
35.992424
 32
0.0
 13
286.003924
 23
35.992424
 33
0.0
  0
TEXT
  8
0
  6
BYBLOCK
 62
     0
 10
285.966424
 20
35.352067
 30
0.0
 40
0.075
  1
1.02
 50
90.0
  7
ROMANC
 72
     1
 11
285.928924
 21
35.482424
 31
0.0
 73
     2
  0
POINT
  8
DEFPOINTS
  6
BYBLOCK
 62
     0
 10
285.632703
 20
34.972424
 30
0.0
  0
POINT
  8
DEFPOINTS
  6
BYBLOCK
 62
     0
 10
285.632703
 20
35.992424
 30
0.0
  0
POINT
  8
DEFPOINTS
  6
BYBLOCK
 62
     0
 10
286.003924
 20
35.992424
 30
0.0
  0
ENDBLK
  8
0
  0
BLOCK
  8
0
  2
*D14
 70
    65
 10
0.0
 20
0.0
 30
0.0
  3
*D
  0
LINE
  8
0
  6
BYBLOCK
 62
     0
 10
284.917703
 20
34.772424
 30
0.0
 11
286.359772
 21
34.772424
 31
0.0
  0
LINE
  8
0
  6
BYBLOCK
 62
     0
 10
284.917703
 20
35.992424
 30
0.0
 11
286.359772
 21
35.992424
 31
0.0
  0
LINE
  8
0
  6
BYBLOCK
 62
     0
 10
286.344772
 20
34.922424
 30
0.0
 11
286.344772
 21
35.842424
 31
0.0
  0
SOLID
  8
0
  6
BYBLOCK
 62
     0
 10
286.319772
 20
34.922424
 30
0.0
 11
286.369772
 21
34.922424
 31
0.0
 12
286.344772
 22
34.772424
 32
0.0
 13
286.344772
 23
34.772424
 33
0.0
  0
SOLID
  8
0
  6
BYBLOCK
 62
     0
 10
286.319772
 20
35.842424
 30
0.0
 11
286.369772
 21
35.842424
 31
0.0
 12
286.344772
 22
35.992424
 32
0.0
 13
286.344772
 23
35.992424
 33
0.0
  0
TEXT
  8
0
  6
BYBLOCK
 62
     0
 10
286.307272
 20
35.252067
 30
0.0
 40
0.075
  1
1.22
 50
90.0
  7
ROMANC
 72
     1
 11
286.269772
 21
35.382424
 31
0.0
 73
     2
  0
POINT
  8
DEFPOINTS
  6
BYBLOCK
 62
     0
 10
284.902703
 20
34.772424
 30
0.0
  0
POINT
  8
DEFPOINTS
  6
BYBLOCK
 62
     0
 10
284.902703
 20
35.992424
 30
0.0
  0
POINT
  8
DEFPOINTS
  6
BYBLOCK
 62
     0
 10
286.344772
 20
35.992424
 30
0.0
  0
ENDBLK
  8
0
  0
ENDSEC
  0
SECTION
  2
ENTITIES
  0
TEXT
  8
0
 10
283.887846
 20
40.56142
 30
0.0
 40
0.3
  1
P = 51.7 dm
  7
ROMANC
  0
TEXT
  8
0
 10
287.122271
 20
41.564915
 30
0.0
 40
0.1
  1
2
  7
ROMANC
  0
TEXT
  8
0
 10
283.925768
 20
41.857589
 30
0.0
 40
0.3
  1
ESCALA  1:50
  7
ROMANC
  0
TEXT
  8
0
 10
283.925768
 20
42.343303
 30
0.0
 40
0.3
  1
TIPUS   NT156B
  7
ROMANC
  0
TEXT
  8
0
 10
283.938862
 20
41.258999
 30
0.0
 40
0.3
  1
S = 156 dm
  7
ROMANC
  0
LINE
  8
0
 10
285.227546
 20
34.957424
 30
0.0
 11
284.720506
 21
34.957424
 31
0.0
  0
LINE
  8
0
 10
284.720506
 20
34.957424
 30
0.0
 11
284.720506
 21
36.007424
 31
0.0
  0
LINE
  8
0
 10
284.720506
 20
36.007424
 30
0.0
 11
286.210506
 21
36.007424
 31
0.0
  0
LINE
  8
0
 10
286.210506
 20
36.007424
 30
0.0
 11
286.210506
 21
34.957424
 31
0.0
  0
LINE
  8
0
 10
286.210506
 20
34.957424
 30
0.0
 11
285.703466
 21
34.957424
 31
0.0
  0
ARC
  8
0
 10
285.465506
 20
34.998987
 30
0.0
 40
0.241563
 50
189.907434
 51
350.092566
  0
LINE
  8
0
 10
285.233935
 20
34.964924
 30
0.0
 11
284.728006
 21
34.964924
 31
0.0
  0
LINE
  8
0
 10
284.728006
 20
34.964924
 30
0.0
 11
284.728006
 21
35.999924
 31
0.0
  0
LINE
  8
0
 10
284.728006
 20
35.999924
 30
0.0
 11
286.203006
 21
35.999924
 31
0.0
  0
LINE
  8
0
 10
286.203006
 20
35.999924
 30
0.0
 11
286.203006
 21
34.964924
 31
0.0
  0
LINE
  8
0
 10
286.203006
 20
34.964924
 30
0.0
 11
285.697077
 21
34.964924
 31
0.0
  0
ARC
  8
0
 10
285.465506
 20
34.998987
 30
0.0
 40
0.234063
 50
188.367819
 51
351.632181
  0
LINE
  8
0
  6
BYBLOCK
 62
     0
 10
285.480506
 20
34.772424
 30
0.0
 11
286.922576
 21
34.772424
 31
0.0
  0
LINE
  8
0
  6
BYBLOCK
 62
     0
 10
285.480506
 20
35.992424
 30
0.0
 11
286.922576
 21
35.992424
 31
0.0
  0
LINE
  8
0
  6
BYBLOCK
 62
     0
 10
286.907576
 20
34.922424
 30
0.0
 11
286.907576
 21
35.842424
 31
0.0
  0
SOLID
  8
0
  6
BYBLOCK
 62
     0
 10
286.882576
 20
34.922424
 30
0.0
 11
286.932576
 21
34.922424
 31
0.0
 12
286.907576
 22
34.772424
 32
0.0
 13
286.907576
 23
34.772424
 33
0.0
  0
SOLID
  8
0
  6
BYBLOCK
 62
     0
 10
286.882576
 20
35.842424
 30
0.0
 11
286.932576
 21
35.842424
 31
0.0
 12
286.907576
 22
35.992424
 32
0.0
 13
286.907576
 23
35.992424
 33
0.0
  0
TEXT
  8
0
  6
BYBLOCK
 62
     0
 10
286.870076
 20
35.252067
 30
0.0
 40
0.075
  1
1.22
 50
90.0
  7
ROMANC
 72
     1
 11
286.832576
 21
35.382424
 31
0.0
 73
     2
  0
POINT
  8
DEFPOINTS
  6
BYBLOCK
 62
     0
 10
285.465506
 20
34.772424
 30
0.0
  0
POINT
  8
DEFPOINTS
  6
BYBLOCK
 62
     0
 10
285.465506
 20
35.992424
 30
0.0
  0
POINT
  8
DEFPOINTS
  6
BYBLOCK
 62
     0
 10
286.907576
 20
35.992424
 30
0.0
  0
LINE
  8
0
  6
BYBLOCK
 62
     0
 10
286.210506
 20
34.972424
 30
0.0
 11
286.581728
 21
34.972424
 31
0.0
  0
LINE
  8
0
  6
BYBLOCK
 62
     0
 10
286.210506
 20
35.992424
 30
0.0
 11
286.581728
 21
35.992424
 31
0.0
  0
LINE
  8
0
  6
BYBLOCK
 62
     0
 10
286.566728
 20
35.122424
 30
0.0
 11
286.566728
 21
35.842424
 31
0.0
  0
SOLID
  8
0
  6
BYBLOCK
 62
     0
 10
286.541728
 20
35.122424
 30
0.0
 11
286.591728
 21
35.122424
 31
0.0
 12
286.566728
 22
34.972424
 32
0.0
 13
286.566728
 23
34.972424
 33
0.0
  0
SOLID
  8
0
  6
BYBLOCK
 62
     0
 10
286.541728
 20
35.842424
 30
0.0
 11
286.591728
 21
35.842424
 31
0.0
 12
286.566728
 22
35.992424
 32
0.0
 13
286.566728
 23
35.992424
 33
0.0
  0
TEXT
  8
0
  6
BYBLOCK
 62
     0
 10
286.529228
 20
35.352067
 30
0.0
 40
0.075
  1
1.02
 50
90.0
  7
ROMANC
 72
     1
 11
286.491728
 21
35.482424
 31
0.0
 73
     2
  0
POINT
  8
DEFPOINTS
  6
BYBLOCK
 62
     0
 10
286.195506
 20
34.972424
 30
0.0
  0
POINT
  8
DEFPOINTS
  6
BYBLOCK
 62
     0
 10
286.195506
 20
35.992424
 30
0.0
  0
POINT
  8
DEFPOINTS
  6
BYBLOCK
 62
     0
 10
286.566728
 20
35.992424
 30
0.0
  0
LINE
  8
0
  6
BYBLOCK
 62
     0
 10
285.480506
 20
34.772424
 30
0.0
 11
286.581728
 21
34.772424
 31
0.0
  0
LINE
  8
0
  6
BYBLOCK
 62
     0
 10
285.705506
 20
34.972424
 30
0.0
 11
286.581728
 21
34.972424
 31
0.0
  0
LINE
  8
0
  6
BYBLOCK
 62
     0
 10
286.566728
 20
34.622424
 30
0.0
 11
286.566728
 21
34.472424
 31
0.0
  0
LINE
  8
0
  6
BYBLOCK
 62
     0
 10
286.566728
 20
35.122424
 30
0.0
 11
286.566728
 21
35.272424
 31
0.0
  0
SOLID
  8
0
  6
BYBLOCK
 62
     0
 10
286.541728
 20
34.622424
 30
0.0
 11
286.591728
 21
34.622424
 31
0.0
 12
286.566728
 22
34.772424
 32
0.0
 13
286.566728
 23
34.772424
 33
0.0
  0
SOLID
  8
0
  6
BYBLOCK
 62
     0
 10
286.541728
 20
35.122424
 30
0.0
 11
286.591728
 21
35.122424
 31
0.0
 12
286.566728
 22
34.972424
 32
0.0
 13
286.566728
 23
34.972424
 33
0.0
  0
LINE
  8
0
  6
BYBLOCK
 62
     0
 10
286.566728
 20
34.772424
 30
0.0
 11
286.566728
 21
34.972424
 31
0.0
  0
TEXT
  8
0
  6
BYBLOCK
 62
     0
 10
286.529228
 20
34.466682
 30
0.0
 40
0.075
  1
0.20
 50
90.0
  7
ROMANC
 72
     1
 11
286.491728
 21
34.591682
 31
0.0
 73
     2
  0
POINT
  8
DEFPOINTS
  6
BYBLOCK
 62
     0
 10
285.465506
 20
34.772424
 30
0.0
  0
POINT
  8
DEFPOINTS
  6
BYBLOCK
 62
     0
 10
285.690506
 20
34.972424
 30
0.0
  0
POINT
  8
DEFPOINTS
  6
BYBLOCK
 62
     0
 10
286.566728
 20
34.972424
 30
0.0
  0
LINE
  8
0
  6
BYBLOCK
 62
     0
 10
284.735506
 20
34.957424
 30
0.0
 11
284.735506
 21
34.229338
 31
0.0
  0
LINE
  8
0
  6
BYBLOCK
 62
     0
 10
286.195506
 20
34.957424
 30
0.0
 11
286.195506
 21
34.229338
 31
0.0
  0
LINE
  8
0
  6
BYBLOCK
 62
     0
 10
284.885506
 20
34.244338
 30
0.0
 11
286.045506
 21
34.244338
 31
0.0
  0
SOLID
  8
0
  6
BYBLOCK
 62
     0
 10
284.885506
 20
34.269338
 30
0.0
 11
284.885506
 21
34.219338
 31
0.0
 12
284.735506
 22
34.244338
 32
0.0
 13
284.735506
 23
34.244338
 33
0.0
  0
SOLID
  8
0
  6
BYBLOCK
 62
     0
 10
286.045506
 20
34.269338
 30
0.0
 11
286.045506
 21
34.219338
 31
0.0
 12
286.195506
 22
34.244338
 32
0.0
 13
286.195506
 23
34.244338
 33
0.0
  0
TEXT
  8
0
  6
BYBLOCK
 62
     0
 10
285.335149
 20
34.281838
 30
0.0
 40
0.075
  1
1.46
  7
ROMANC
 72
     1
 11
285.465506
 21
34.319338
 31
0.0
 73
     2
  0
POINT
  8
DEFPOINTS
  6
BYBLOCK
 62
     0
 10
284.735506
 20
34.972424
 30
0.0
  0
POINT
  8
DEFPOINTS
  6
BYBLOCK
 62
     0
 10
286.195506
 20
34.972424
 30
0.0
  0
POINT
  8
DEFPOINTS
  6
BYBLOCK
 62
     0
 10
286.195506
 20
34.244338
 30
0.0
  0
LINE
  8
0
  6
BYBLOCK
 62
     0
 10
285.240506
 20
34.957424
 30
0.0
 11
285.240506
 21
34.509885
 31
0.0
  0
LINE
  8
0
  6
BYBLOCK
 62
     0
 10
285.690506
 20
34.957424
 30
0.0
 11
285.690506
 21
34.509885
 31
0.0
  0
LINE
  8
0
  6
BYBLOCK
 62
     0
 10
285.090506
 20
34.524885
 30
0.0
 11
284.940506
 21
34.524885
 31
0.0
  0
LINE
  8
0
  6
BYBLOCK
 62
     0
 10
285.840506
 20
34.524885
 30
0.0
 11
285.990506
 21
34.524885
 31
0.0
  0
SOLID
  8
0
  6
BYBLOCK
 62
     0
 10
285.090506
 20
34.549885
 30
0.0
 11
285.090506
 21
34.499885
 31
0.0
 12
285.240506
 22
34.524885
 32
0.0
 13
285.240506
 23
34.524885
 33
0.0
  0
SOLID
  8
0
  6
BYBLOCK
 62
     0
 10
285.840506
 20
34.549885
 30
0.0
 11
285.840506
 21
34.499885
 31
0.0
 12
285.690506
 22
34.524885
 32
0.0
 13
285.690506
 23
34.524885
 33
0.0
  0
LINE
  8
0
  6
BYBLOCK
 62
     0
 10
285.240506
 20
34.524885
 30
0.0
 11
285.690506
 21
34.524885
 31
0.0
  0
TEXT
  8
0
  6
BYBLOCK
 62
     0
 10
285.340506
 20
34.562385
 30
0.0
 40
0.075
  1
0.45
  7
ROMANC
 72
     1
 11
285.465506
 21
34.599885
 31
0.0
 73
     2
  0
POINT
  8
DEFPOINTS
  6
BYBLOCK
 62
     0
 10
285.240506
 20
34.972424
 30
0.0
  0
POINT
  8
DEFPOINTS
  6
BYBLOCK
 62
     0
 10
285.690506
 20
34.972424
 30
0.0
  0
POINT
  8
DEFPOINTS
  6
BYBLOCK
 62
     0
 10
285.690506
 20
34.524885
 30
0.0
  0
LINE
  8
0
 10
285.240506
 20
34.972424
 30
0.0
 11
284.735506
 21
34.972424
 31
0.0
  0
LINE
  8
0
 10
284.735506
 20
34.972424
 30
0.0
 11
284.735506
 21
35.992424
 31
0.0
  0
LINE
  8
0
 10
284.735506
 20
35.992424
 30
0.0
 11
286.195506
 21
35.992424
 31
0.0
  0
LINE
  8
0
 10
286.195506
 20
35.992424
 30
0.0
 11
286.195506
 21
34.972424
 31
0.0
  0
LINE
  8
0
 10
286.195506
 20
34.972424
 30
0.0
 11
285.690506
 21
34.972424
 31
0.0
  0
ARC
  8
0
 10
285.465506
 20
34.998987
 30
0.0
 40
0.226563
 50
186.732921
 51
353.267079
  0
LINE
  8
0
 10
281.395795
 20
29.897444
 30
0.0
 11
281.395795
 21
44.747444
 31
0.0
  0
LINE
  8
0
 10
281.395795
 20
44.747444
 30
0.0
 11
291.895795
 21
44.747444
 31
0.0
  0
LINE
  8
0
 10
291.895795
 20
44.747444
 30
0.0
 11
291.895795
 21
29.897444
 31
0.0
  0
LINE
  8
0
 10
291.895795
 20
29.897444
 30
0.0
 11
281.395795
 21
29.897444
 31
0.0
  0
ENDSEC
  0
EOF
