  0
SECTION
  2
HEADER
  9
$ACADVER
  1
AC1009
  9
$INSBASE
 10
223.221973
 20
-4.30265
 30
0.0
  9
$EXTMIN
 10
223.221973
 20
-4.30265
 30
0.0
  9
$EXTMAX
 10
233.721973
 20
10.54735
 30
0.0
  9
$LIMMIN
 10
0.0
 20
0.0
  9
$LIMMAX
 10
410.0
 20
287.0
  9
$ORTHOMODE
 70
     0
  9
$REGENMODE
 70
     1
  9
$FILLMODE
 70
     1
  9
$QTEXTMODE
 70
     0
  9
$MIRRTEXT
 70
     1
  9
$DRAGMODE
 70
     2
  9
$LTSCALE
 40
25.0
  9
$OSMODE
 70
    32
  9
$ATTMODE
 70
     1
  9
$TEXTSIZE
 40
0.1
  9
$TRACEWID
 40
1.0
  9
$TEXTSTYLE
  7
ROMANC
  9
$CLAYER
  8
0
  9
$CELTYPE
  6
BYLAYER
  9
$CECOLOR
 62
   256
  9
$DIMSCALE
 40
0.0
  9
$DIMASZ
 40
0.0
  9
$DIMEXO
 40
0.1
  9
$DIMDLI
 40
7.0
  9
$DIMRND
 40
0.0
  9
$DIMDLE
 40
0.0
  9
$DIMEXE
 40
1.8
  9
$DIMTP
 40
0.0
  9
$DIMTM
 40
0.0
  9
$DIMTXT
 40
0.03
  9
$DIMCEN
 40
1.5
  9
$DIMTSZ
 40
1.0
  9
$DIMTOL
 70
     0
  9
$DIMLIM
 70
     0
  9
$DIMTIH
 70
     0
  9
$DIMTOH
 70
     0
  9
$DIMSE1
 70
     0
  9
$DIMSE2
 70
     0
  9
$DIMTAD
 70
     0
  9
$DIMZIN
 70
     0
  9
$DIMBLK
  1

  9
$DIMASO
 70
     1
  9
$DIMSHO
 70
     0
  9
$DIMPOST
  1

  9
$DIMAPOST
  1

  9
$DIMALT
 70
     0
  9
$DIMALTD
 70
     2
  9
$DIMALTF
 40
25.4
  9
$DIMLFAC
 40
1.0
  9
$DIMTOFL
 70
     1
  9
$DIMTVP
 40
0.0
  9
$DIMTIX
 70
     1
  9
$DIMSOXD
 70
     0
  9
$DIMSAH
 70
     0
  9
$DIMBLK1
  1

  9
$DIMBLK2
  1

  9
$DIMSTYLE
  2
*UNNAMED
  9
$DIMCLRD
 70
     0
  9
$DIMCLRE
 70
     0
  9
$DIMCLRT
 70
     0
  9
$DIMTFAC
 40
116.666667
  9
$DIMGAP
 40
0.09
  9
$LUNITS
 70
     2
  9
$LUPREC
 70
     2
  9
$SKETCHINC
 40
1.0
  9
$FILLETRAD
 40
0.0
  9
$AUNITS
 70
     0
  9
$AUPREC
 70
     0
  9
$MENU
  1
acad
  9
$ELEVATION
 40
0.0
  9
$PELEVATION
 40
0.0
  9
$THICKNESS
 40
0.0
  9
$LIMCHECK
 70
     0
  9
$BLIPMODE
 70
     0
  9
$CHAMFERA
 40
0.0
  9
$CHAMFERB
 40
0.0
  9
$SKPOLY
 70
     0
  9
$TDCREATE
 40
2449967.728715046
  9
$TDUPDATE
 40
2450725.410772106
  9
$TDINDWG
 40
0.0489586806
  9
$TDUSRTIMER
 40
0.0489586806
  9
$USRTIMER
 70
     1
  9
$ANGBASE
 50
0.0
  9
$ANGDIR
 70
     0
  9
$PDMODE
 70
     0
  9
$PDSIZE
 40
0.0
  9
$PLINEWID
 40
0.0
  9
$COORDS
 70
     0
  9
$SPLFRAME
 70
     0
  9
$SPLINETYPE
 70
     6
  9
$SPLINESEGS
 70
     8
  9
$ATTDIA
 70
     0
  9
$ATTREQ
 70
     1
  9
$HANDLING
 70
     0
  9
$HANDSEED
  5
0
  9
$SURFTAB1
 70
     6
  9
$SURFTAB2
 70
     6
  9
$SURFTYPE
 70
     6
  9
$SURFU
 70
     6
  9
$SURFV
 70
     6
  9
$UCSNAME
  2

  9
$UCSORG
 10
0.0
 20
0.0
 30
0.0
  9
$UCSXDIR
 10
1.0
 20
0.0
 30
0.0
  9
$UCSYDIR
 10
0.0
 20
1.0
 30
0.0
  9
$PUCSNAME
  2

  9
$PUCSORG
 10
0.0
 20
0.0
 30
0.0
  9
$PUCSXDIR
 10
1.0
 20
0.0
 30
0.0
  9
$PUCSYDIR
 10
0.0
 20
1.0
 30
0.0
  9
$USERI1
 70
     0
  9
$USERI2
 70
     0
  9
$USERI3
 70
     0
  9
$USERI4
 70
     0
  9
$USERI5
 70
     0
  9
$USERR1
 40
0.0
  9
$USERR2
 40
0.0
  9
$USERR3
 40
0.0
  9
$USERR4
 40
0.0
  9
$USERR5
 40
0.0
  9
$WORLDVIEW
 70
     1
  9
$SHADEDGE
 70
     3
  9
$SHADEDIF
 70
    70
  9
$TILEMODE
 70
     1
  9
$MAXACTVP
 70
    16
  9
$PINSBASE
 10
0.0
 20
0.0
 30
0.0
  9
$PLIMCHECK
 70
     0
  9
$PEXTMIN
 10
1.000000E+20
 20
1.000000E+20
 30
1.000000E+20
  9
$PEXTMAX
 10
-1.000000E+20
 20
-1.000000E+20
 30
-1.000000E+20
  9
$PLIMMIN
 10
0.0
 20
0.0
  9
$PLIMMAX
 10
12.0
 20
9.0
  9
$UNITMODE
 70
     0
  9
$VISRETAIN
 70
     0
  9
$PLINEGEN
 70
     0
  9
$PSLTSCALE
 70
     0
  9
$TREEDEPTH
 70
  3020
  9
$DWGCODEPAGE
  3
iso8859-1
  0
ENDSEC
  0
SECTION
  2
TABLES
  0
TABLE
  2
VPORT
 70
     2
  0
VPORT
  2
*ACTIVE
 70
     0
 10
0.0
 20
0.0
 11
1.0
 21
1.0
 12
235.375213
 22
3.12235
 13
0.0
 23
0.0
 14
1.0
 24
1.0
 15
10.0
 25
10.0
 16
0.0
 26
0.0
 36
1.0
 17
0.0
 27
0.0
 37
0.0
 40
14.85
 41
1.6368
 42
50.0
 43
0.0
 44
0.0
 50
0.0
 51
0.0
 71
     0
 72
   100
 73
     1
 74
     0
 75
     0
 76
     0
 77
     0
 78
     1
  0
ENDTAB
  0
TABLE
  2
LTYPE
 70
     1
  0
LTYPE
  2
CONTINUOUS
 70
    64
  3
Solid line
 72
    65
 73
     0
 40
0.0
  0
ENDTAB
  0
TABLE
  2
LAYER
 70
     1
  0
LAYER
  2
0
 70
    64
 62
     7
  6
CONTINUOUS
  0
ENDTAB
  0
TABLE
  2
STYLE
 70
     2
  0
STYLE
  2
STANDARD
 70
     0
 40
0.0
 41
1.0
 50
0.0
 71
     0
 42
0.1
  3
txt
  4

  0
STYLE
  2
ROMANC
 70
    64
 40
0.0
 41
1.0
 50
0.0
 71
     0
 42
0.1
  3
romanc
  4

  0
ENDTAB
  0
TABLE
  2
VIEW
 70
     0
  0
ENDTAB
  0
TABLE
  2
UCS
 70
     0
  0
ENDTAB
  0
TABLE
  2
APPID
 70
     1
  0
APPID
  2
ACAD
 70
    64
  0
ENDTAB
  0
TABLE
  2
DIMSTYLE
 70
     0
  0
ENDTAB
  0
ENDSEC
  0
SECTION
  2
BLOCKS
  0
ENDSEC
  0
SECTION
  2
ENTITIES
  0
LINE
  8
0
 10
223.221973
 20
10.54735
 30
0.0
 11
223.221973
 21
-4.30265
 31
0.0
  0
LINE
  8
0
 10
233.721973
 20
-4.30265
 30
0.0
 11
233.721973
 21
10.54735
 31
0.0
  0
TEXT
  8
0
 10
225.714024
 20
6.361326
 30
0.0
 40
0.3
  1
P = 170  dm
  7
ROMANC
  0
LINE
  8
0
 10
223.221973
 20
-4.30265
 30
0.0
 11
233.721973
 21
-4.30265
 31
0.0
  0
TEXT
  8
0
 10
228.128989
 20
-1.89689
 30
0.0
 40
0.1
  1
5.6
  7
ROMANC
  0
LINE
  8
0
 10
225.37146
 20
-1.538199
 30
0.0
 11
225.497623
 21
-1.399735
 31
0.0
  0
LINE
  8
0
 10
230.953574
 20
-1.531056
 30
0.0
 11
231.079737
 21
-1.392592
 31
0.0
  0
TEXT
  8
0
 10
232.273533
 20
0.162378
 30
0.0
 40
0.1
  1
0.3
  7
ROMANC
  0
TEXT
  8
0
 10
230.473448
 20
-1.064154
 30
0.0
 40
0.1
  1
0.8
  7
ROMANC
  0
LINE
  8
0
 10
231.871379
 20
0.203356
 30
0.0
 11
231.997542
 21
0.34182
 31
0.0
  0
LINE
  8
0
 10
231.871379
 20
-0.094969
 30
0.0
 11
231.997542
 21
0.043495
 31
0.0
  0
LINE
  8
0
 10
230.955367
 20
-0.822286
 30
0.0
 11
231.081531
 21
-0.683822
 31
0.0
  0
LINE
  8
0
 10
230.172652
 20
-0.829175
 30
0.0
 11
230.298815
 21
-0.690711
 31
0.0
  0
TEXT
  8
0
 10
232.22444
 20
1.846816
 30
0.0
 40
0.1
  1
2.6
  7
ROMANC
  0
LINE
  8
0
 10
231.890915
 20
2.791975
 30
0.0
 11
232.017078
 21
2.930439
 31
0.0
  0
TEXT
  8
0
 10
225.751946
 20
8.143209
 30
0.0
 40
0.3
  1
TIPUS   NT1560
  7
ROMANC
  0
TEXT
  8
0
 10
225.76504
 20
7.058905
 30
0.0
 40
0.3
  1
S = 1560  dm
  7
ROMANC
  0
LINE
  8
0
 10
233.721973
 20
10.54735
 30
0.0
 11
223.221973
 21
10.54735
 31
0.0
  0
TEXT
  8
0
 10
225.751946
 20
7.657495
 30
0.0
 40
0.3
  1
ESCALA  1:50
  7
ROMANC
  0
TEXT
  8
0
 10
229.537178
 20
7.374678
 30
0.0
 40
0.1
  1
2
  7
ROMANC
  0
LINE
  8
0
 10
232.771298
 20
-0.091696
 30
0.0
 11
232.897461
 21
0.046768
 31
0.0
  0
LINE
  8
0
 10
232.790834
 20
2.795248
 30
0.0
 11
232.916997
 21
2.933712
 31
0.0
  0
TEXT
  8
0
 10
233.036491
 20
1.487848
 30
0.0
 40
0.1
  1
2.9
  7
ROMANC
  0
LINE
  8
0
 10
226.165986
 20
-0.829175
 30
0.0
 11
226.292149
 21
-0.690711
 31
0.0
  0
LINE
  8
0
 10
225.375986
 20
-0.829175
 30
0.0
 11
225.502149
 21
-0.690711
 31
0.0
  0
LINE
  8
0
 10
225.434542
 20
-0.753054
 30
0.0
 11
231.018449
 21
-0.753054
 31
0.0
  0
LINE
  8
0
 10
231.018449
 20
-0.753054
 30
0.0
 11
231.031916
 21
0.272588
 31
0.0
  0
LINE
  8
0
 10
225.434542
 20
0.472588
 30
0.0
 11
225.434542
 21
-1.468967
 31
0.0
  0
LINE
  8
0
 10
225.434542
 20
-1.468967
 30
0.0
 11
230.227918
 21
-1.468967
 31
0.0
  0
LINE
  8
0
 10
231.934461
 20
2.875861
 30
0.0
 11
232.83438
 21
2.875861
 31
0.0
  0
LINE
  8
0
 10
232.83438
 20
2.875861
 30
0.0
 11
232.83438
 21
0.479134
 31
0.0
  0
LINE
  8
0
 10
231.034542
 20
2.872588
 30
0.0
 11
231.934461
 21
2.872588
 31
0.0
  0
LINE
  8
0
 10
231.934461
 20
2.872588
 30
0.0
 11
231.934461
 21
0.475861
 31
0.0
  0
LINE
  8
0
 10
232.83438
 20
0.479134
 30
0.0
 11
232.83438
 21
-0.022464
 31
0.0
  0
LINE
  8
0
 10
232.83438
 20
-0.022464
 30
0.0
 11
231.934461
 21
-0.023351
 31
0.0
  0
LINE
  8
0
 10
231.934461
 20
0.475861
 30
0.0
 11
231.934461
 21
-0.025737
 31
0.0
  0
LINE
  8
0
 10
231.934461
 20
-0.025737
 30
0.0
 11
230.234542
 21
-0.027412
 31
0.0
  0
LINE
  8
0
 10
230.227918
 20
-1.468967
 30
0.0
 11
231.017254
 21
-1.468967
 31
0.0
  0
LINE
  8
0
 10
231.017254
 20
-1.468967
 30
0.0
 11
231.018449
 21
-0.753054
 31
0.0
  0
LINE
  8
0
 10
230.231208
 20
-0.753054
 30
0.0
 11
230.234542
 21
-0.027412
 31
0.0
  0
TEXT
  8
0
 10
228.155919
 20
-1.075131
 30
0.0
 40
0.1
  1
4.0
  7
ROMANC
  0
TEXT
  8
0
 10
225.73954
 20
-1.053177
 30
0.0
 40
0.1
  1
0.8
  7
ROMANC
  0
LINE
  8
0
 10
226.234542
 20
-0.027412
 30
0.0
 11
226.234542
 21
-0.753054
 31
0.0
  0
LINE
  8
0
 10
224.557447
 20
2.872588
 30
0.0
 11
224.557447
 21
-0.027412
 31
0.0
  0
LINE
  8
0
 10
225.434542
 20
0.472588
 30
0.0
 11
224.557447
 21
0.472588
 31
0.0
  0
LINE
  8
0
 10
226.234542
 20
-0.027412
 30
0.0
 11
224.557447
 21
-0.027412
 31
0.0
  0
LINE
  8
0
 10
224.494366
 20
-0.096644
 30
0.0
 11
224.620529
 21
0.04182
 31
0.0
  0
LINE
  8
0
 10
224.494366
 20
0.403356
 30
0.0
 11
224.620529
 21
0.54182
 31
0.0
  0
LINE
  8
0
 10
225.434542
 20
2.872588
 30
0.0
 11
224.557447
 21
2.872588
 31
0.0
  0
LINE
  8
0
 10
224.494366
 20
2.803356
 30
0.0
 11
224.620529
 21
2.94182
 31
0.0
  0
TEXT
  8
0
 10
224.183914
 20
0.151878
 30
0.0
 40
0.1
  1
0.5
  7
ROMANC
  0
TEXT
  8
0
 10
224.173408
 20
1.64284
 30
0.0
 40
0.1
  1
2.4
  7
ROMANC
  0
LINE
  8
0
 10
231.034542
 20
0.272588
 30
0.0
 11
231.934461
 21
0.272588
 31
0.0
  0
LINE
  8
0
 10
225.444542
 20
2.862588
 30
0.0
 11
225.444542
 21
0.482588
 31
0.0
  0
LINE
  8
0
 10
225.444542
 20
0.482588
 30
0.0
 11
226.244542
 21
0.482588
 31
0.0
  0
LINE
  8
0
 10
226.244542
 20
0.482588
 30
0.0
 11
226.244542
 21
-0.017412
 31
0.0
  0
LINE
  8
0
 10
226.244542
 20
-0.017412
 30
0.0
 11
230.224542
 21
-0.017412
 31
0.0
  0
LINE
  8
0
 10
230.224542
 20
-0.017412
 30
0.0
 11
230.224542
 21
0.282588
 31
0.0
  0
LINE
  8
0
 10
230.224542
 20
0.282588
 30
0.0
 11
231.024542
 21
0.282588
 31
0.0
  0
LINE
  8
0
 10
231.024542
 20
0.282588
 30
0.0
 11
231.024542
 21
2.862588
 31
0.0
  0
LINE
  8
0
 10
231.024542
 20
2.862588
 30
0.0
 11
225.444542
 21
2.862588
 31
0.0
  0
LINE
  8
0
 10
225.424542
 20
2.882588
 30
0.0
 11
225.424542
 21
0.462588
 31
0.0
  0
LINE
  8
0
 10
225.424542
 20
0.462588
 30
0.0
 11
226.224542
 21
0.462588
 31
0.0
  0
LINE
  8
0
 10
226.224542
 20
0.462588
 30
0.0
 11
226.224542
 21
-0.037412
 31
0.0
  0
LINE
  8
0
 10
226.224542
 20
-0.037412
 30
0.0
 11
230.244542
 21
-0.037412
 31
0.0
  0
LINE
  8
0
 10
230.244542
 20
-0.037412
 30
0.0
 11
230.244542
 21
0.262588
 31
0.0
  0
LINE
  8
0
 10
230.244542
 20
0.262588
 30
0.0
 11
231.044542
 21
0.262588
 31
0.0
  0
LINE
  8
0
 10
231.044542
 20
0.262588
 30
0.0
 11
231.044542
 21
2.882588
 31
0.0
  0
LINE
  8
0
 10
231.044542
 20
2.882588
 30
0.0
 11
225.424542
 21
2.882588
 31
0.0
  0
LINE
  8
0
 10
231.034542
 20
0.272588
 30
0.0
 11
231.034542
 21
2.872588
 31
0.0
  0
LINE
  8
0
 10
231.034542
 20
2.872588
 30
0.0
 11
225.434542
 21
2.872588
 31
0.0
  0
LINE
  8
0
 10
225.434542
 20
2.872588
 30
0.0
 11
225.434542
 21
0.472588
 31
0.0
  0
LINE
  8
0
 10
225.434542
 20
0.472588
 30
0.0
 11
226.234542
 21
0.472588
 31
0.0
  0
LINE
  8
0
 10
226.234542
 20
0.472588
 30
0.0
 11
226.234542
 21
-0.027412
 31
0.0
  0
LINE
  8
0
 10
226.234542
 20
-0.027412
 30
0.0
 11
230.234542
 21
-0.027412
 31
0.0
  0
LINE
  8
0
 10
230.234542
 20
-0.027412
 30
0.0
 11
230.234542
 21
0.272588
 31
0.0
  0
LINE
  8
0
 10
230.234542
 20
0.272588
 30
0.0
 11
231.034542
 21
0.272588
 31
0.0
  0
ENDSEC
  0
EOF
