  0
SECTION
  2
HEADER
  9
$ACADVER
  1
AC1009
  9
$INSBASE
 10
0.0
 20
0.0
 30
0.0
  9
$EXTMIN
 10
67.623298
 20
-27.532393
 30
0.0
  9
$EXTMAX
 10
351.54669
 20
44.747444
 30
0.0
  9
$LIMMIN
 10
0.0
 20
0.0
  9
$LIMMAX
 10
410.0
 20
287.0
  9
$ORTHOMODE
 70
     0
  9
$REGENMODE
 70
     1
  9
$FILLMODE
 70
     1
  9
$QTEXTMODE
 70
     0
  9
$MIRRTEXT
 70
     1
  9
$DRAGMODE
 70
     2
  9
$LTSCALE
 40
25.0
  9
$OSMODE
 70
    32
  9
$ATTMODE
 70
     1
  9
$TEXTSIZE
 40
0.1
  9
$TRACEWID
 40
1.0
  9
$TEXTSTYLE
  7
ROMANC
  9
$CLAYER
  8
0
  9
$CELTYPE
  6
BYLAYER
  9
$CECOLOR
 62
   256
  9
$DIMSCALE
 40
1.5
  9
$DIMASZ
 40
0.1
  9
$DIMEXO
 40
0.01
  9
$DIMDLI
 40
7.0
  9
$DIMRND
 40
0.0
  9
$DIMDLE
 40
0.0
  9
$DIMEXE
 40
0.01
  9
$DIMTP
 40
0.0
  9
$DIMTM
 40
0.0
  9
$DIMTXT
 40
0.05
  9
$DIMCEN
 40
0.1
  9
$DIMTSZ
 40
0.0
  9
$DIMTOL
 70
     0
  9
$DIMLIM
 70
     0
  9
$DIMTIH
 70
     0
  9
$DIMTOH
 70
     0
  9
$DIMSE1
 70
     0
  9
$DIMSE2
 70
     0
  9
$DIMTAD
 70
     1
  9
$DIMZIN
 70
     0
  9
$DIMBLK
  1

  9
$DIMASO
 70
     1
  9
$DIMSHO
 70
     0
  9
$DIMPOST
  1

  9
$DIMAPOST
  1

  9
$DIMALT
 70
     0
  9
$DIMALTD
 70
     2
  9
$DIMALTF
 40
25.4
  9
$DIMLFAC
 40
1.0
  9
$DIMTOFL
 70
     1
  9
$DIMTVP
 40
0.0
  9
$DIMTIX
 70
     1
  9
$DIMSOXD
 70
     0
  9
$DIMSAH
 70
     0
  9
$DIMBLK1
  1

  9
$DIMBLK2
  1

  9
$DIMSTYLE
  2
SILVIA
  9
$DIMCLRD
 70
     0
  9
$DIMCLRE
 70
     0
  9
$DIMCLRT
 70
     0
  9
$DIMTFAC
 40
70.0
  9
$DIMGAP
 40
0.09
  9
$LUNITS
 70
     2
  9
$LUPREC
 70
     2
  9
$SKETCHINC
 40
1.0
  9
$FILLETRAD
 40
0.0
  9
$AUNITS
 70
     0
  9
$AUPREC
 70
     0
  9
$MENU
  1
acad
  9
$ELEVATION
 40
0.0
  9
$PELEVATION
 40
0.0
  9
$THICKNESS
 40
0.0
  9
$LIMCHECK
 70
     0
  9
$BLIPMODE
 70
     0
  9
$CHAMFERA
 40
0.0
  9
$CHAMFERB
 40
0.0
  9
$SKPOLY
 70
     0
  9
$TDCREATE
 40
2450081.378561226
  9
$TDUPDATE
 40
2450081.378561226
  9
$TDINDWG
 40
0.0000000000
  9
$TDUSRTIMER
 40
0.0000000000
  9
$USRTIMER
 70
     1
  9
$ANGBASE
 50
0.0
  9
$ANGDIR
 70
     0
  9
$PDMODE
 70
     0
  9
$PDSIZE
 40
0.0
  9
$PLINEWID
 40
0.0
  9
$COORDS
 70
     2
  9
$SPLFRAME
 70
     0
  9
$SPLINETYPE
 70
     6
  9
$SPLINESEGS
 70
     8
  9
$ATTDIA
 70
     0
  9
$ATTREQ
 70
     1
  9
$HANDLING
 70
     0
  9
$HANDSEED
  5
0
  9
$SURFTAB1
 70
     6
  9
$SURFTAB2
 70
     6
  9
$SURFTYPE
 70
     6
  9
$SURFU
 70
     6
  9
$SURFV
 70
     6
  9
$UCSNAME
  2

  9
$UCSORG
 10
0.0
 20
0.0
 30
0.0
  9
$UCSXDIR
 10
1.0
 20
0.0
 30
0.0
  9
$UCSYDIR
 10
0.0
 20
1.0
 30
0.0
  9
$PUCSNAME
  2

  9
$PUCSORG
 10
0.0
 20
0.0
 30
0.0
  9
$PUCSXDIR
 10
1.0
 20
0.0
 30
0.0
  9
$PUCSYDIR
 10
0.0
 20
1.0
 30
0.0
  9
$USERI1
 70
     0
  9
$USERI2
 70
     0
  9
$USERI3
 70
     0
  9
$USERI4
 70
     0
  9
$USERI5
 70
     0
  9
$USERR1
 40
0.0
  9
$USERR2
 40
0.0
  9
$USERR3
 40
0.0
  9
$USERR4
 40
0.0
  9
$USERR5
 40
0.0
  9
$WORLDVIEW
 70
     1
  9
$SHADEDGE
 70
     3
  9
$SHADEDIF
 70
    70
  9
$TILEMODE
 70
     1
  9
$MAXACTVP
 70
    16
  9
$PINSBASE
 10
0.0
 20
0.0
 30
0.0
  9
$PLIMCHECK
 70
     0
  9
$PEXTMIN
 10
1.000000E+20
 20
1.000000E+20
 30
1.000000E+20
  9
$PEXTMAX
 10
-1.000000E+20
 20
-1.000000E+20
 30
-1.000000E+20
  9
$PLIMMIN
 10
0.0
 20
0.0
  9
$PLIMMAX
 10
12.0
 20
9.0
  9
$UNITMODE
 70
     0
  9
$VISRETAIN
 70
     0
  9
$PLINEGEN
 70
     0
  9
$PSLTSCALE
 70
     0
  9
$TREEDEPTH
 70
  3020
  9
$DWGCODEPAGE
  3
iso8859-1
  0
ENDSEC
  0
SECTION
  2
TABLES
  0
TABLE
  2
VPORT
 70
     1
  0
VPORT
  2
*ACTIVE
 70
     0
 10
0.0
 20
0.0
 11
1.0
 21
1.0
 12
293.839818
 22
21.020436
 13
0.0
 23
0.0
 14
1.0
 24
1.0
 15
10.0
 25
10.0
 16
0.0
 26
0.0
 36
1.0
 17
0.0
 27
0.0
 37
0.0
 40
17.61664
 41
1.639742
 42
50.0
 43
0.0
 44
0.0
 50
0.0
 51
0.0
 71
     0
 72
   100
 73
     1
 74
     0
 75
     0
 76
     0
 77
     0
 78
     1
  0
ENDTAB
  0
TABLE
  2
LTYPE
 70
     1
  0
LTYPE
  2
CONTINUOUS
 70
    64
  3
Solid line
 72
    65
 73
     0
 40
0.0
  0
ENDTAB
  0
TABLE
  2
LAYER
 70
     2
  0
LAYER
  2
0
 70
    64
 62
     7
  6
CONTINUOUS
  0
LAYER
  2
DEFPOINTS
 70
    64
 62
     7
  6
CONTINUOUS
  0
ENDTAB
  0
TABLE
  2
STYLE
 70
     2
  0
STYLE
  2
STANDARD
 70
     0
 40
0.0
 41
1.0
 50
0.0
 71
     0
 42
0.1
  3
txt
  4

  0
STYLE
  2
ROMANC
 70
    64
 40
0.0
 41
1.0
 50
0.0
 71
     0
 42
0.1
  3
romanc
  4

  0
ENDTAB
  0
TABLE
  2
VIEW
 70
     0
  0
ENDTAB
  0
TABLE
  2
UCS
 70
     0
  0
ENDTAB
  0
TABLE
  2
APPID
 70
     1
  0
APPID
  2
ACAD
 70
    64
  0
ENDTAB
  0
TABLE
  2
DIMSTYLE
 70
     1
  0
DIMSTYLE
  2
SILVIA
 70
    64
  3

  4

  5

  6

  7

 40
1.5
 41
0.1
 42
0.01
 43
7.0
 44
0.01
 45
0.0
 46
0.0
 47
0.0
 48
0.0
140
0.05
141
0.1
142
0.0
143
25.4
144
1.0
145
0.0
146
70.0
147
0.09
 71
     0
 72
     0
 73
     0
 74
     0
 75
     0
 76
     0
 77
     1
 78
     0
170
     0
171
     2
172
     1
173
     0
174
     1
175
     0
176
     0
177
     0
178
     0
  0
ENDTAB
  0
ENDSEC
  0
SECTION
  2
BLOCKS
  0
BLOCK
  8
0
  2
*D0
 70
    65
 10
0.0
 20
0.0
 30
0.0
  3
*D
  0
LINE
  8
0
  6
BYBLOCK
 62
     0
 10
299.472547
 20
19.037902
 30
0.0
 11
299.472547
 21
18.635044
 31
0.0
  0
LINE
  8
0
  6
BYBLOCK
 62
     0
 10
298.142547
 20
19.037902
 30
0.0
 11
298.142547
 21
18.635044
 31
0.0
  0
LINE
  8
0
  6
BYBLOCK
 62
     0
 10
299.322547
 20
18.650044
 30
0.0
 11
298.292547
 21
18.650044
 31
0.0
  0
SOLID
  8
0
  6
BYBLOCK
 62
     0
 10
299.322547
 20
18.675044
 30
0.0
 11
299.322547
 21
18.625044
 31
0.0
 12
299.472547
 22
18.650044
 32
0.0
 13
299.472547
 23
18.650044
 33
0.0
  0
SOLID
  8
0
  6
BYBLOCK
 62
     0
 10
298.292547
 20
18.675044
 30
0.0
 11
298.292547
 21
18.625044
 31
0.0
 12
298.142547
 22
18.650044
 32
0.0
 13
298.142547
 23
18.650044
 33
0.0
  0
TEXT
  8
0
  6
BYBLOCK
 62
     0
 10
298.67719
 20
18.687544
 30
0.0
 40
0.075
  1
1.35
  7
ROMANC
 72
     1
 11
298.807547
 21
18.725044
 31
0.0
 73
     2
  0
POINT
  8
DEFPOINTS
  6
BYBLOCK
 62
     0
 10
299.472547
 20
19.052902
 30
0.0
  0
POINT
  8
DEFPOINTS
  6
BYBLOCK
 62
     0
 10
298.142547
 20
19.052902
 30
0.0
  0
POINT
  8
DEFPOINTS
  6
BYBLOCK
 62
     0
 10
298.142547
 20
18.650044
 30
0.0
  0
ENDBLK
  8
0
  0
BLOCK
  8
0
  2
*D1
 70
    65
 10
0.0
 20
0.0
 30
0.0
  3
*D
  0
LINE
  8
0
  6
BYBLOCK
 62
     0
 10
299.487547
 20
20.182902
 30
0.0
 11
299.803622
 21
20.182902
 31
0.0
  0
LINE
  8
0
  6
BYBLOCK
 62
     0
 10
299.487547
 20
19.052902
 30
0.0
 11
299.803622
 21
19.052902
 31
0.0
  0
LINE
  8
0
  6
BYBLOCK
 62
     0
 10
299.788622
 20
20.032902
 30
0.0
 11
299.788622
 21
19.202902
 31
0.0
  0
SOLID
  8
0
  6
BYBLOCK
 62
     0
 10
299.763622
 20
20.032902
 30
0.0
 11
299.813622
 21
20.032902
 31
0.0
 12
299.788622
 22
20.182902
 32
0.0
 13
299.788622
 23
20.182902
 33
0.0
  0
SOLID
  8
0
  6
BYBLOCK
 62
     0
 10
299.763622
 20
19.202902
 30
0.0
 11
299.813622
 21
19.202902
 31
0.0
 12
299.788622
 22
19.052902
 32
0.0
 13
299.788622
 23
19.052902
 33
0.0
  0
TEXT
  8
0
  6
BYBLOCK
 62
     0
 10
299.751122
 20
19.487545
 30
0.0
 40
0.075
  1
1.15
 50
90.0
  7
ROMANC
 72
     1
 11
299.713622
 21
19.617902
 31
0.0
 73
     2
  0
POINT
  8
DEFPOINTS
  6
BYBLOCK
 62
     0
 10
299.472547
 20
20.182902
 30
0.0
  0
POINT
  8
DEFPOINTS
  6
BYBLOCK
 62
     0
 10
299.472547
 20
19.052902
 30
0.0
  0
POINT
  8
DEFPOINTS
  6
BYBLOCK
 62
     0
 10
299.788622
 20
19.052902
 30
0.0
  0
ENDBLK
  8
0
  0
ENDSEC
  0
SECTION
  2
ENTITIES
  0
LINE
  8
0
 10
294.054942
 20
13.344896
 30
0.0
 11
304.554942
 21
13.344896
 31
0.0
  0
LINE
  8
0
 10
304.554942
 20
28.194896
 30
0.0
 11
294.054942
 21
28.194896
 31
0.0
  0
LINE
  8
0
 10
294.054942
 20
28.194896
 30
0.0
 11
294.054942
 21
13.344896
 31
0.0
  0
TEXT
  8
0
 10
296.546992
 20
24.008872
 30
0.0
 40
0.3
  1
P = 50 dm
  7
ROMANC
  0
TEXT
  8
0
 10
296.598009
 20
24.706451
 30
0.0
 40
0.3
  1
S = 155  dm
  7
ROMANC
  0
TEXT
  8
0
 10
300.358361
 20
25.012367
 30
0.0
 40
0.1
  1
2
  7
ROMANC
  0
TEXT
  8
0
 10
296.584915
 20
25.790755
 30
0.0
 40
0.3
  1
TIPUS   NT155
  7
ROMANC
  0
TEXT
  8
0
 10
296.584915
 20
25.305041
 30
0.0
 40
0.3
  1
ESCALA  1:50
  7
ROMANC
  0
LINE
  8
0
 10
304.554942
 20
13.344896
 30
0.0
 11
304.554942
 21
28.194896
 31
0.0
  0
LINE
  8
0
  6
BYBLOCK
 62
     0
 10
299.472547
 20
19.037902
 30
0.0
 11
299.472547
 21
18.635044
 31
0.0
  0
LINE
  8
0
  6
BYBLOCK
 62
     0
 10
298.142547
 20
19.037902
 30
0.0
 11
298.142547
 21
18.635044
 31
0.0
  0
LINE
  8
0
  6
BYBLOCK
 62
     0
 10
299.322547
 20
18.650044
 30
0.0
 11
298.292547
 21
18.650044
 31
0.0
  0
SOLID
  8
0
  6
BYBLOCK
 62
     0
 10
299.322547
 20
18.675044
 30
0.0
 11
299.322547
 21
18.625044
 31
0.0
 12
299.472547
 22
18.650044
 32
0.0
 13
299.472547
 23
18.650044
 33
0.0
  0
SOLID
  8
0
  6
BYBLOCK
 62
     0
 10
298.292547
 20
18.675044
 30
0.0
 11
298.292547
 21
18.625044
 31
0.0
 12
298.142547
 22
18.650044
 32
0.0
 13
298.142547
 23
18.650044
 33
0.0
  0
TEXT
  8
0
  6
BYBLOCK
 62
     0
 10
298.67719
 20
18.687544
 30
0.0
 40
0.075
  1
1.35
  7
ROMANC
 72
     1
 11
298.807547
 21
18.725044
 31
0.0
 73
     2
  0
POINT
  8
DEFPOINTS
  6
BYBLOCK
 62
     0
 10
299.472547
 20
19.052902
 30
0.0
  0
POINT
  8
DEFPOINTS
  6
BYBLOCK
 62
     0
 10
298.142547
 20
19.052902
 30
0.0
  0
POINT
  8
DEFPOINTS
  6
BYBLOCK
 62
     0
 10
298.142547
 20
18.650044
 30
0.0
  0
LINE
  8
0
 10
298.132547
 20
20.192902
 30
0.0
 11
298.132547
 21
19.042902
 31
0.0
  0
LINE
  8
0
 10
298.132547
 20
19.042902
 30
0.0
 11
299.482547
 21
19.042902
 31
0.0
  0
LINE
  8
0
 10
299.482547
 20
19.042902
 30
0.0
 11
299.482547
 21
20.192902
 31
0.0
  0
LINE
  8
0
 10
299.482547
 20
20.192902
 30
0.0
 11
298.132547
 21
20.192902
 31
0.0
  0
LINE
  8
0
 10
298.122547
 20
20.202902
 30
0.0
 11
298.122547
 21
19.032902
 31
0.0
  0
LINE
  8
0
 10
298.122547
 20
19.032902
 30
0.0
 11
299.492547
 21
19.032902
 31
0.0
  0
LINE
  8
0
 10
299.492547
 20
19.032902
 30
0.0
 11
299.492547
 21
20.202902
 31
0.0
  0
LINE
  8
0
 10
299.492547
 20
20.202902
 30
0.0
 11
298.122547
 21
20.202902
 31
0.0
  0
LINE
  8
0
 10
298.142547
 20
20.182902
 30
0.0
 11
298.142547
 21
19.052902
 31
0.0
  0
LINE
  8
0
 10
298.142547
 20
19.052902
 30
0.0
 11
299.472547
 21
19.052902
 31
0.0
  0
LINE
  8
0
 10
299.472547
 20
19.052902
 30
0.0
 11
299.472547
 21
20.182902
 31
0.0
  0
LINE
  8
0
 10
299.472547
 20
20.182902
 30
0.0
 11
298.142547
 21
20.182902
 31
0.0
  0
LINE
  8
0
  6
BYBLOCK
 62
     0
 10
299.487547
 20
20.182902
 30
0.0
 11
299.803622
 21
20.182902
 31
0.0
  0
LINE
  8
0
  6
BYBLOCK
 62
     0
 10
299.487547
 20
19.052902
 30
0.0
 11
299.803622
 21
19.052902
 31
0.0
  0
LINE
  8
0
  6
BYBLOCK
 62
     0
 10
299.788622
 20
20.032902
 30
0.0
 11
299.788622
 21
19.202902
 31
0.0
  0
SOLID
  8
0
  6
BYBLOCK
 62
     0
 10
299.763622
 20
20.032902
 30
0.0
 11
299.813622
 21
20.032902
 31
0.0
 12
299.788622
 22
20.182902
 32
0.0
 13
299.788622
 23
20.182902
 33
0.0
  0
SOLID
  8
0
  6
BYBLOCK
 62
     0
 10
299.763622
 20
19.202902
 30
0.0
 11
299.813622
 21
19.202902
 31
0.0
 12
299.788622
 22
19.052902
 32
0.0
 13
299.788622
 23
19.052902
 33
0.0
  0
TEXT
  8
0
  6
BYBLOCK
 62
     0
 10
299.751122
 20
19.487545
 30
0.0
 40
0.075
  1
1.15
 50
90.0
  7
ROMANC
 72
     1
 11
299.713622
 21
19.617902
 31
0.0
 73
     2
  0
POINT
  8
DEFPOINTS
  6
BYBLOCK
 62
     0
 10
299.472547
 20
20.182902
 30
0.0
  0
POINT
  8
DEFPOINTS
  6
BYBLOCK
 62
     0
 10
299.472547
 20
19.052902
 30
0.0
  0
POINT
  8
DEFPOINTS
  6
BYBLOCK
 62
     0
 10
299.788622
 20
19.052902
 30
0.0
  0
ENDSEC
  0
EOF
