  0
SECTION
  2
HEADER
  9
$ACADVER
  1
AC1009
  9
$INSBASE
 10
0.0
 20
0.0
 30
0.0
  9
$EXTMIN
 10
318.829805
 20
29.85788
 30
0.0
  9
$EXTMAX
 10
329.371339
 20
44.72551
 30
0.0
  9
$LIMMIN
 10
0.0
 20
0.0
  9
$LIMMAX
 10
410.0
 20
287.0
  9
$ORTHOMODE
 70
     1
  9
$REGENMODE
 70
     1
  9
$FILLMODE
 70
     1
  9
$QTEXTMODE
 70
     0
  9
$MIRRTEXT
 70
     1
  9
$DRAGMODE
 70
     2
  9
$LTSCALE
 40
25.0
  9
$OSMODE
 70
     0
  9
$ATTMODE
 70
     1
  9
$TEXTSIZE
 40
0.1
  9
$TRACEWID
 40
1.0
  9
$TEXTSTYLE
  7
ROMANC
  9
$CLAYER
  8
0
  9
$CELTYPE
  6
BYLAYER
  9
$CECOLOR
 62
   256
  9
$DIMSCALE
 40
1.5
  9
$DIMASZ
 40
0.1
  9
$DIMEXO
 40
0.01
  9
$DIMDLI
 40
7.0
  9
$DIMRND
 40
0.0
  9
$DIMDLE
 40
0.0
  9
$DIMEXE
 40
0.01
  9
$DIMTP
 40
0.0
  9
$DIMTM
 40
0.0
  9
$DIMTXT
 40
0.05
  9
$DIMCEN
 40
0.0
  9
$DIMTSZ
 40
0.0
  9
$DIMTOL
 70
     0
  9
$DIMLIM
 70
     0
  9
$DIMTIH
 70
     0
  9
$DIMTOH
 70
     0
  9
$DIMSE1
 70
     0
  9
$DIMSE2
 70
     0
  9
$DIMTAD
 70
     1
  9
$DIMZIN
 70
     0
  9
$DIMBLK
  1

  9
$DIMASO
 70
     1
  9
$DIMSHO
 70
     0
  9
$DIMPOST
  1

  9
$DIMAPOST
  1

  9
$DIMALT
 70
     0
  9
$DIMALTD
 70
     2
  9
$DIMALTF
 40
25.4
  9
$DIMLFAC
 40
1.0
  9
$DIMTOFL
 70
     1
  9
$DIMTVP
 40
0.0
  9
$DIMTIX
 70
     1
  9
$DIMSOXD
 70
     0
  9
$DIMSAH
 70
     0
  9
$DIMBLK1
  1

  9
$DIMBLK2
  1

  9
$DIMSTYLE
  2
MERITXELL
  9
$DIMCLRD
 70
     0
  9
$DIMCLRE
 70
     0
  9
$DIMCLRT
 70
     0
  9
$DIMTFAC
 40
70.0
  9
$DIMGAP
 40
0.025
  9
$LUNITS
 70
     2
  9
$LUPREC
 70
     2
  9
$SKETCHINC
 40
1.0
  9
$FILLETRAD
 40
0.0
  9
$AUNITS
 70
     0
  9
$AUPREC
 70
     0
  9
$MENU
  1
acad
  9
$ELEVATION
 40
0.0
  9
$PELEVATION
 40
0.0
  9
$THICKNESS
 40
0.0
  9
$LIMCHECK
 70
     0
  9
$BLIPMODE
 70
     0
  9
$CHAMFERA
 40
0.0
  9
$CHAMFERB
 40
0.0
  9
$SKPOLY
 70
     0
  9
$TDCREATE
 40
2450927.46195
  9
$TDUPDATE
 40
2451108.69496
  9
$TDINDWG
 40
0.050603
  9
$TDUSRTIMER
 40
0.050603
  9
$USRTIMER
 70
     1
  9
$ANGBASE
 50
0.0
  9
$ANGDIR
 70
     0
  9
$PDMODE
 70
     0
  9
$PDSIZE
 40
0.0
  9
$PLINEWID
 40
0.0
  9
$COORDS
 70
     2
  9
$SPLFRAME
 70
     0
  9
$SPLINETYPE
 70
     6
  9
$SPLINESEGS
 70
     8
  9
$ATTDIA
 70
     0
  9
$ATTREQ
 70
     1
  9
$HANDLING
 70
     1
  9
$HANDSEED
  5
228
  9
$SURFTAB1
 70
     6
  9
$SURFTAB2
 70
     6
  9
$SURFTYPE
 70
     6
  9
$SURFU
 70
     6
  9
$SURFV
 70
     6
  9
$UCSNAME
  2

  9
$UCSORG
 10
0.0
 20
0.0
 30
0.0
  9
$UCSXDIR
 10
1.0
 20
0.0
 30
0.0
  9
$UCSYDIR
 10
0.0
 20
1.0
 30
0.0
  9
$PUCSNAME
  2

  9
$PUCSORG
 10
0.0
 20
0.0
 30
0.0
  9
$PUCSXDIR
 10
1.0
 20
0.0
 30
0.0
  9
$PUCSYDIR
 10
0.0
 20
1.0
 30
0.0
  9
$USERI1
 70
     0
  9
$USERI2
 70
     0
  9
$USERI3
 70
     0
  9
$USERI4
 70
     0
  9
$USERI5
 70
     0
  9
$USERR1
 40
0.0
  9
$USERR2
 40
0.0
  9
$USERR3
 40
0.0
  9
$USERR4
 40
0.0
  9
$USERR5
 40
0.0
  9
$WORLDVIEW
 70
     1
  9
$SHADEDGE
 70
     3
  9
$SHADEDIF
 70
    70
  9
$TILEMODE
 70
     1
  9
$MAXACTVP
 70
    16
  9
$PLIMCHECK
 70
     0
  9
$PEXTMIN
 10
1.000000E+020
 20
1.000000E+020
 30
1.000000E+020
  9
$PEXTMAX
 10
-1.000000E+020
 20
-1.000000E+020
 30
-1.000000E+020
  9
$PLIMMIN
 10
0.0
 20
0.0
  9
$PLIMMAX
 10
12.0
 20
9.0
  9
$UNITMODE
 70
     0
  9
$VISRETAIN
 70
     0
  9
$PLINEGEN
 70
     0
  9
$PSLTSCALE
 70
     0
  0
ENDSEC
  0
SECTION
  2
TABLES
  0
TABLE
  2
VPORT
 70
     6
  0
VPORT
  2
*ACTIVE
 70
     0
 10
0.0
 20
0.0
 11
1.0
 21
1.0
 12
324.100572
 22
37.291695
 13
0.0
 23
0.0
 14
1.0
 24
1.0
 15
10.0
 25
10.0
 16
0.0
 26
0.0
 36
1.0
 17
0.0
 27
0.0
 37
0.0
 40
15.002178
 41
1.732628
 42
50.0
 43
0.0
 44
0.0
 50
0.0
 51
0.0
 71
     0
 72
   100
 73
     1
 74
     0
 75
     0
 76
     0
 77
     0
 78
     1
  0
ENDTAB
  0
TABLE
  2
LTYPE
 70
     1
  0
LTYPE
  2
CONTINUOUS
 70
     0
  3
Solid line
 72
    65
 73
     0
 40
0.0
  0
ENDTAB
  0
TABLE
  2
LAYER
 70
     2
  0
LAYER
  2
0
 70
     0
 62
     7
  6
CONTINUOUS
  0
LAYER
  2
DEFPOINTS
 70
     0
 62
     7
  6
CONTINUOUS
  0
ENDTAB
  0
TABLE
  2
STYLE
 70
     2
  0
STYLE
  2
STANDARD
 70
     0
 40
0.0
 41
1.0
 50
0.0
 71
     0
 42
0.1
  3
txt
  4

  0
STYLE
  2
ROMANC
 70
     0
 40
0.0
 41
1.0
 50
0.0
 71
     0
 42
0.1
  3
romanc
  4

  0
ENDTAB
  0
TABLE
  2
VIEW
 70
     0
  0
ENDTAB
  0
TABLE
  2
UCS
 70
     0
  0
ENDTAB
  0
TABLE
  2
APPID
 70
     1
  0
APPID
  2
ACAD
 70
     0
  0
ENDTAB
  0
TABLE
  2
DIMSTYLE
 70
     1
  0
DIMSTYLE
  2
MERITXELL
 70
     0
  3

  4

  5

  6

  7

 40
1.5
 41
0.1
 42
0.01
 43
7.0
 44
0.01
 45
0.0
 46
0.0
 47
0.0
 48
0.0
140
0.05
141
0.1
142
0.0
143
25.4
144
1.0
145
0.0
146
70.0
147
0.09
 71
     0
 72
     0
 73
     0
 74
     0
 75
     0
 76
     0
 77
     1
 78
     0
170
     0
171
     2
172
     1
173
     0
174
     1
175
     0
176
     0
177
     0
178
     0
  0
ENDTAB
  0
ENDSEC
  0
SECTION
  2
BLOCKS
  0
BLOCK
  8
0
  2
$MODEL_SPACE
 70
     0
 10
0.0
 20
0.0
 30
0.0
  3
$MODEL_SPACE
  1

  0
ENDBLK
  5
24
  8
0
  0
BLOCK
 67
     1
  8
0
  2
$PAPER_SPACE
 70
     0
 10
0.0
 20
0.0
 30
0.0
  3
$PAPER_SPACE
  1

  0
ENDBLK
  5
22
 67
     1
  8
0
  0
BLOCK
  8
0
  2
*D0
 70
     1
 10
0.0
 20
0.0
 30
0.0
  3
*D0
  1

  0
LINE
  5
169
  8
0
  6
BYBLOCK
 62
     0
 10
322.82643
 20
34.652329
 30
0.0
 11
322.82643
 21
34.144609
 31
0.0
  0
LINE
  5
16A
  8
0
  6
BYBLOCK
 62
     0
 10
322.42643
 20
34.652329
 30
0.0
 11
322.42643
 21
34.144609
 31
0.0
  0
LINE
  5
16B
  8
0
  6
BYBLOCK
 62
     0
 10
322.67643
 20
34.159609
 30
0.0
 11
322.57643
 21
34.159609
 31
0.0
  0
SOLID
  5
16C
  8
0
  6
BYBLOCK
 62
     0
 10
322.67643
 20
34.184609
 30
0.0
 11
322.67643
 21
34.134609
 31
0.0
 12
322.82643
 22
34.159609
 32
0.0
 13
322.82643
 23
34.159609
 33
0.0
  0
SOLID
  5
16D
  8
0
  6
BYBLOCK
 62
     0
 10
322.57643
 20
34.184609
 30
0.0
 11
322.57643
 21
34.134609
 31
0.0
 12
322.42643
 22
34.159609
 32
0.0
 13
322.42643
 23
34.159609
 33
0.0
  0
TEXT
  8
0
  40
0.075
  5
21C
  62
0
  72
0
  71
0
 10
322.476
 20
34.1019
 30
0.000000
  1
0.40
  7
ROMANC
  0
POINT
  5
16F
  8
DEFPOINTS
  6
BYBLOCK
 62
     0
 10
322.82643
 20
34.667329
 30
0.0
  0
POINT
  5
170
  8
DEFPOINTS
  6
BYBLOCK
 62
     0
 10
322.42643
 20
34.667329
 30
0.0
  0
POINT
  5
171
  8
DEFPOINTS
  6
BYBLOCK
 62
     0
 10
322.42643
 20
34.159609
 30
0.0
  0
ENDBLK
  5
172
  8
0
  0
BLOCK
  8
0
  2
*D1
 70
     1
 10
0.0
 20
0.0
 30
0.0
  3
*D1
  1

  0
LINE
  5
176
  8
0
  6
BYBLOCK
 62
     0
 10
323.52643
 20
34.652329
 30
0.0
 11
323.52643
 21
34.144609
 31
0.0
  0
LINE
  5
177
  8
0
  6
BYBLOCK
 62
     0
 10
324.42643
 20
34.652329
 30
0.0
 11
324.42643
 21
34.144609
 31
0.0
  0
LINE
  5
178
  8
0
  6
BYBLOCK
 62
     0
 10
323.67643
 20
34.159609
 30
0.0
 11
324.27643
 21
34.159609
 31
0.0
  0
SOLID
  5
179
  8
0
  6
BYBLOCK
 62
     0
 10
323.67643
 20
34.184609
 30
0.0
 11
323.67643
 21
34.134609
 31
0.0
 12
323.52643
 22
34.159609
 32
0.0
 13
323.52643
 23
34.159609
 33
0.0
  0
SOLID
  5
17A
  8
0
  6
BYBLOCK
 62
     0
 10
324.27643
 20
34.184609
 30
0.0
 11
324.27643
 21
34.134609
 31
0.0
 12
324.42643
 22
34.159609
 32
0.0
 13
324.42643
 23
34.159609
 33
0.0
  0
TEXT
  8
0
  40
0.075
  5
21D
  62
0
  72
0
  71
0
 10
323.826
 20
34.1019
 30
0.000000
  1
0.90
  7
ROMANC
  0
POINT
  5
17C
  8
DEFPOINTS
  6
BYBLOCK
 62
     0
 10
323.52643
 20
34.667329
 30
0.0
  0
POINT
  5
17D
  8
DEFPOINTS
  6
BYBLOCK
 62
     0
 10
324.42643
 20
34.667329
 30
0.0
  0
POINT
  5
17E
  8
DEFPOINTS
  6
BYBLOCK
 62
     0
 10
324.42643
 20
34.159609
 30
0.0
  0
ENDBLK
  5
17F
  8
0
  0
BLOCK
  8
0
  2
*D2
 70
     1
 10
0.0
 20
0.0
 30
0.0
  3
*D2
  1

  0
LINE
  5
183
  8
0
  6
BYBLOCK
 62
     0
 10
322.82643
 20
34.652329
 30
0.0
 11
322.82643
 21
34.144609
 31
0.0
  0
LINE
  5
184
  8
0
  6
BYBLOCK
 62
     0
 10
323.52643
 20
34.637329
 30
0.0
 11
323.52643
 21
34.144609
 31
0.0
  0
LINE
  5
185
  8
0
  6
BYBLOCK
 62
     0
 10
322.97643
 20
34.159609
 30
0.0
 11
323.37643
 21
34.159609
 31
0.0
  0
SOLID
  5
186
  8
0
  6
BYBLOCK
 62
     0
 10
322.97643
 20
34.184609
 30
0.0
 11
322.97643
 21
34.134609
 31
0.0
 12
322.82643
 22
34.159609
 32
0.0
 13
322.82643
 23
34.159609
 33
0.0
  0
SOLID
  5
187
  8
0
  6
BYBLOCK
 62
     0
 10
323.37643
 20
34.184609
 30
0.0
 11
323.37643
 21
34.134609
 31
0.0
 12
323.52643
 22
34.159609
 32
0.0
 13
323.52643
 23
34.159609
 33
0.0
  0
TEXT
  8
0
  40
0.075
  5
21E
  62
0
  72
0
  71
0
 10
323.026
 20
34.1019
 30
0.000000
  1
0.70
  7
ROMANC
  0
POINT
  5
189
  8
DEFPOINTS
  6
BYBLOCK
 62
     0
 10
322.82643
 20
34.667329
 30
0.0
  0
POINT
  5
18A
  8
DEFPOINTS
  6
BYBLOCK
 62
     0
 10
323.52643
 20
34.652329
 30
0.0
  0
POINT
  5
18B
  8
DEFPOINTS
  6
BYBLOCK
 62
     0
 10
323.52643
 20
34.159609
 30
0.0
  0
ENDBLK
  5
18C
  8
0
  0
BLOCK
  8
0
  2
*D3
 70
     1
 10
0.0
 20
0.0
 30
0.0
  3
*D3
  1

  0
LINE
  5
190
  8
0
  6
BYBLOCK
 62
     0
 10
322.42643
 20
34.652329
 30
0.0
 11
322.42643
 21
33.820574
 31
0.0
  0
LINE
  5
191
  8
0
  6
BYBLOCK
 62
     0
 10
324.42643
 20
34.652329
 30
0.0
 11
324.42643
 21
33.820574
 31
0.0
  0
LINE
  5
192
  8
0
  6
BYBLOCK
 62
     0
 10
322.57643
 20
33.835574
 30
0.0
 11
324.27643
 21
33.835574
 31
0.0
  0
SOLID
  5
193
  8
0
  6
BYBLOCK
 62
     0
 10
322.57643
 20
33.860574
 30
0.0
 11
322.57643
 21
33.810574
 31
0.0
 12
322.42643
 22
33.835574
 32
0.0
 13
322.42643
 23
33.835574
 33
0.0
  0
SOLID
  5
194
  8
0
  6
BYBLOCK
 62
     0
 10
324.27643
 20
33.860574
 30
0.0
 11
324.27643
 21
33.810574
 31
0.0
 12
324.42643
 22
33.835574
 32
0.0
 13
324.42643
 23
33.835574
 33
0.0
  0
TEXT
  8
0
  40
0.075
  5
21F
  62
0
  72
0
  71
0
 10
323.276
 20
33.7778
 30
0.000000
  1
2.00
  7
ROMANC
  0
POINT
  5
196
  8
DEFPOINTS
  6
BYBLOCK
 62
     0
 10
322.42643
 20
34.667329
 30
0.0
  0
POINT
  5
197
  8
DEFPOINTS
  6
BYBLOCK
 62
     0
 10
324.42643
 20
34.667329
 30
0.0
  0
POINT
  5
198
  8
DEFPOINTS
  6
BYBLOCK
 62
     0
 10
324.42643
 20
33.835574
 30
0.0
  0
ENDBLK
  5
199
  8
0
  0
BLOCK
  8
0
  2
*D4
 70
     1
 10
0.0
 20
0.0
 30
0.0
  3
*D4
  1

  0
LINE
  5
19D
  8
0
  6
BYBLOCK
 62
     0
 10
323.19143
 20
34.437329
 30
0.0
 11
324.825377
 21
34.437329
 31
0.0
  0
LINE
  5
19E
  8
0
  6
BYBLOCK
 62
     0
 10
323.54143
 20
34.667329
 30
0.0
 11
324.825377
 21
34.667329
 31
0.0
  0
LINE
  5
19F
  8
0
  6
BYBLOCK
 62
     0
 10
324.810377
 20
34.287329
 30
0.0
 11
324.810377
 21
34.137329
 31
0.0
  0
LINE
  5
1A0
  8
0
  6
BYBLOCK
 62
     0
 10
324.810377
 20
34.817329
 30
0.0
 11
324.810377
 21
34.967329
 31
0.0
  0
LINE
  5
1A1
  8
0
  6
BYBLOCK
 62
     0
 10
324.810377
 20
34.437329
 30
0.0
 11
324.810377
 21
34.667329
 31
0.0
  0
SOLID
  5
1A2
  8
0
  6
BYBLOCK
 62
     0
 10
324.785377
 20
34.287329
 30
0.0
 11
324.835377
 21
34.287329
 31
0.0
 12
324.810377
 22
34.437329
 32
0.0
 13
324.810377
 23
34.437329
 33
0.0
  0
SOLID
  5
1A3
  8
0
  6
BYBLOCK
 62
     0
 10
324.785377
 20
34.817329
 30
0.0
 11
324.835377
 21
34.817329
 31
0.0
 12
324.810377
 22
34.667329
 32
0.0
 13
324.810377
 23
34.667329
 33
0.0
  0
TEXT
  8
0
  40
0.075
  5
220
  62
0
  72
0
  71
0
 10
324.585
 20
34.4196
 30
0.000000
  1
0.23
  7
ROMANC
  0
POINT
  5
1A5
  8
DEFPOINTS
  6
BYBLOCK
 62
     0
 10
323.17643
 20
34.437329
 30
0.0
  0
POINT
  5
1A6
  8
DEFPOINTS
  6
BYBLOCK
 62
     0
 10
323.52643
 20
34.667329
 30
0.0
  0
POINT
  5
1A7
  8
DEFPOINTS
  6
BYBLOCK
 62
     0
 10
324.810377
 20
34.667329
 30
0.0
  0
ENDBLK
  5
1A8
  8
0
  0
BLOCK
  8
0
  2
*D5
 70
     1
 10
0.0
 20
0.0
 30
0.0
  3
*D5
  1

  0
LINE
  5
1AC
  8
0
  6
BYBLOCK
 62
     0
 10
324.44143
 20
35.717329
 30
0.0
 11
324.825377
 21
35.717329
 31
0.0
  0
LINE
  5
1AD
  8
0
  6
BYBLOCK
 62
     0
 10
324.44143
 20
34.667329
 30
0.0
 11
324.825377
 21
34.667329
 31
0.0
  0
LINE
  5
1AE
  8
0
  6
BYBLOCK
 62
     0
 10
324.810377
 20
35.567329
 30
0.0
 11
324.810377
 21
34.817329
 31
0.0
  0
SOLID
  5
1AF
  8
0
  6
BYBLOCK
 62
     0
 10
324.785377
 20
35.567329
 30
0.0
 11
324.835377
 21
35.567329
 31
0.0
 12
324.810377
 22
35.717329
 32
0.0
 13
324.810377
 23
35.717329
 33
0.0
  0
SOLID
  5
1B0
  8
0
  6
BYBLOCK
 62
     0
 10
324.785377
 20
34.817329
 30
0.0
 11
324.835377
 21
34.817329
 31
0.0
 12
324.810377
 22
34.667329
 32
0.0
 13
324.810377
 23
34.667329
 33
0.0
  0
TEXT
  8
0
  40
0.075
  5
221
  62
0
  72
0
  71
0
 10
324.585
 20
35.0596
 30
0.000000
  1
1.05
  7
ROMANC
  0
POINT
  5
1B2
  8
DEFPOINTS
  6
BYBLOCK
 62
     0
 10
324.42643
 20
35.717329
 30
0.0
  0
POINT
  5
1B3
  8
DEFPOINTS
  6
BYBLOCK
 62
     0
 10
324.42643
 20
34.667329
 30
0.0
  0
POINT
  5
1B4
  8
DEFPOINTS
  6
BYBLOCK
 62
     0
 10
324.810377
 20
34.667329
 30
0.0
  0
ENDBLK
  5
1B5
  8
0
  0
BLOCK
  8
0
  2
*D6
 70
     1
 10
0.0
 20
0.0
 30
0.0
  3
*D6
  1

  0
LINE
  5
1B9
  8
0
  6
BYBLOCK
 62
     0
 10
323.44143
 20
36.237329
 30
0.0
 11
324.825377
 21
36.237329
 31
0.0
  0
LINE
  5
1BA
  8
0
  6
BYBLOCK
 62
     0
 10
324.45643
 20
35.717329
 30
0.0
 11
324.825377
 21
35.717329
 31
0.0
  0
LINE
  5
1BB
  8
0
  6
BYBLOCK
 62
     0
 10
324.810377
 20
36.087329
 30
0.0
 11
324.810377
 21
35.867329
 31
0.0
  0
SOLID
  5
1BC
  8
0
  6
BYBLOCK
 62
     0
 10
324.785377
 20
36.087329
 30
0.0
 11
324.835377
 21
36.087329
 31
0.0
 12
324.810377
 22
36.237329
 32
0.0
 13
324.810377
 23
36.237329
 33
0.0
  0
SOLID
  5
1BD
  8
0
  6
BYBLOCK
 62
     0
 10
324.785377
 20
35.867329
 30
0.0
 11
324.835377
 21
35.867329
 31
0.0
 12
324.810377
 22
35.717329
 32
0.0
 13
324.810377
 23
35.717329
 33
0.0
  0
TEXT
  8
0
  40
0.075
  5
222
  62
0
  72
0
  71
0
 10
324.585
 20
35.8446
 30
0.000000
  1
0.52
  7
ROMANC
  0
POINT
  5
1BF
  8
DEFPOINTS
  6
BYBLOCK
 62
     0
 10
323.42643
 20
36.237329
 30
0.0
  0
POINT
  5
1C0
  8
DEFPOINTS
  6
BYBLOCK
 62
     0
 10
324.44143
 20
35.717329
 30
0.0
  0
POINT
  5
1C1
  8
DEFPOINTS
  6
BYBLOCK
 62
     0
 10
324.810377
 20
35.717329
 30
0.0
  0
ENDBLK
  5
1C2
  8
0
  0
BLOCK
  8
0
  2
*D7
 70
     1
 10
0.0
 20
0.0
 30
0.0
  3
*D7
  1

  0
LINE
  5
1C6
  8
0
  6
BYBLOCK
 62
     0
 10
323.44143
 20
36.237329
 30
0.0
 11
325.172811
 21
36.237329
 31
0.0
  0
LINE
  5
1C7
  8
0
  6
BYBLOCK
 62
     0
 10
323.19143
 20
34.437329
 30
0.0
 11
325.172811
 21
34.437329
 31
0.0
  0
LINE
  5
1C8
  8
0
  6
BYBLOCK
 62
     0
 10
325.157811
 20
36.087329
 30
0.0
 11
325.157811
 21
34.587329
 31
0.0
  0
SOLID
  5
1C9
  8
0
  6
BYBLOCK
 62
     0
 10
325.132811
 20
36.087329
 30
0.0
 11
325.182811
 21
36.087329
 31
0.0
 12
325.157811
 22
36.237329
 32
0.0
 13
325.157811
 23
36.237329
 33
0.0
  0
SOLID
  5
1CA
  8
0
  6
BYBLOCK
 62
     0
 10
325.132811
 20
34.587329
 30
0.0
 11
325.182811
 21
34.587329
 31
0.0
 12
325.157811
 22
34.437329
 32
0.0
 13
325.157811
 23
34.437329
 33
0.0
  0
TEXT
  8
0
  40
0.075
  5
223
  62
0
  72
0
  71
0
 10
324.933
 20
35.2046
 30
0.000000
  1
1.80
  7
ROMANC
  0
POINT
  5
1CC
  8
DEFPOINTS
  6
BYBLOCK
 62
     0
 10
323.42643
 20
36.237329
 30
0.0
  0
POINT
  5
1CD
  8
DEFPOINTS
  6
BYBLOCK
 62
     0
 10
323.17643
 20
34.437329
 30
0.0
  0
POINT
  5
1CE
  8
DEFPOINTS
  6
BYBLOCK
 62
     0
 10
325.157811
 20
34.437329
 30
0.0
  0
ENDBLK
  5
1CF
  8
0
  0
BLOCK
  8
0
  2
*D8
 70
     1
 10
0.0
 20
0.0
 30
0.0
  3
*D8
  1

  0
LINE
  5
1DF
  8
0
  6
BYBLOCK
 62
     0
 10
322.708114
 20
36.182197
 30
0.0
 11
323.260741
 21
36.182197
 31
0.0
  0
LINE
  5
1E0
  8
0
  6
BYBLOCK
 62
     0
 10
322.708114
 20
33.982197
 30
0.0
 11
323.260741
 21
33.982197
 31
0.0
  0
LINE
  5
1E1
  8
0
  6
BYBLOCK
 62
     0
 10
323.245741
 20
36.032197
 30
0.0
 11
323.245741
 21
34.132197
 31
0.0
  0
SOLID
  5
1E2
  8
0
  6
BYBLOCK
 62
     0
 10
323.220741
 20
36.032197
 30
0.0
 11
323.270741
 21
36.032197
 31
0.0
 12
323.245741
 22
36.182197
 32
0.0
 13
323.245741
 23
36.182197
 33
0.0
  0
SOLID
  5
1E3
  8
0
  6
BYBLOCK
 62
     0
 10
323.220741
 20
34.132197
 30
0.0
 11
323.270741
 21
34.132197
 31
0.0
 12
323.245741
 22
33.982197
 32
0.0
 13
323.245741
 23
33.982197
 33
0.0
  0
TEXT
  8
0
  40
0.075
  5
224
  62
0
  72
0
  71
0
 10
323.021
 20
34.9494
 30
0.000000
  1
2.20
  7
ROMANC
  0
POINT
  5
1E5
  8
DEFPOINTS
  6
BYBLOCK
 62
     0
 10
322.693114
 20
36.182197
 30
0.0
  0
POINT
  5
1E6
  8
DEFPOINTS
  6
BYBLOCK
 62
     0
 10
322.693114
 20
33.982197
 30
0.0
  0
POINT
  5
1E7
  8
DEFPOINTS
  6
BYBLOCK
 62
     0
 10
323.245741
 20
33.982197
 30
0.0
  0
ENDBLK
  5
1E8
  8
0
  0
BLOCK
  8
0
  2
*D9
 70
     1
 10
0.0
 20
0.0
 30
0.0
  3
*D9
  1

  0
LINE
  5
1EC
  8
0
  6
BYBLOCK
 62
     0
 10
321.993114
 20
33.967197
 30
0.0
 11
321.993114
 21
33.529057
 31
0.0
  0
LINE
  5
1ED
  8
0
  6
BYBLOCK
 62
     0
 10
322.693114
 20
33.967197
 30
0.0
 11
322.693114
 21
33.529057
 31
0.0
  0
LINE
  5
1EE
  8
0
  6
BYBLOCK
 62
     0
 10
322.143114
 20
33.544057
 30
0.0
 11
322.543114
 21
33.544057
 31
0.0
  0
SOLID
  5
1EF
  8
0
  6
BYBLOCK
 62
     0
 10
322.143114
 20
33.569057
 30
0.0
 11
322.143114
 21
33.519057
 31
0.0
 12
321.993114
 22
33.544057
 32
0.0
 13
321.993114
 23
33.544057
 33
0.0
  0
SOLID
  5
1F0
  8
0
  6
BYBLOCK
 62
     0
 10
322.543114
 20
33.569057
 30
0.0
 11
322.543114
 21
33.519057
 31
0.0
 12
322.693114
 22
33.544057
 32
0.0
 13
322.693114
 23
33.544057
 33
0.0
  0
TEXT
  8
0
  40
0.075
  5
225
  62
0
  72
0
  71
0
 10
322.193
 20
33.4863
 30
0.000000
  1
0.70
  7
ROMANC
  0
POINT
  5
1F2
  8
DEFPOINTS
  6
BYBLOCK
 62
     0
 10
321.993114
 20
33.982197
 30
0.0
  0
POINT
  5
1F3
  8
DEFPOINTS
  6
BYBLOCK
 62
     0
 10
322.693114
 20
33.982197
 30
0.0
  0
POINT
  5
1F4
  8
DEFPOINTS
  6
BYBLOCK
 62
     0
 10
322.693114
 20
33.544057
 30
0.0
  0
ENDBLK
  5
1F5
  8
0
  0
ENDSEC
  0
SECTION
  2
ENTITIES
  0
LINE
  5
27
  8
0
 10
329.348696
 20
29.863623
 30
0.0
 11
329.348696
 21
44.713623
 31
0.0
  0
LINE
  5
28
  8
0
 10
318.848696
 20
44.713623
 30
0.0
 11
318.848696
 21
29.863623
 31
0.0
  0
LINE
  5
29
  8
0
 10
318.848696
 20
29.863623
 30
0.0
 11
329.348696
 21
29.863623
 31
0.0
  0
TEXT
  5
2A
  8
0
 10
321.773149
 20
42.309482
 30
0.0
 40
0.3
  1
TIPUS   NT154A
  7
ROMANC
  0
TEXT
  5
2D
  8
0
 10
321.735227
 20
40.527599
 30
0.0
 40
0.3
  1
P = 58 dm
  7
ROMANC
  0
TEXT
  5
2E
  8
0
 10
321.786243
 20
41.225178
 30
0.0
 40
0.3
  1
S = 154 dm
  7
ROMANC
  0
TEXT
  5
2F
  8
0
 10
321.773149
 20
41.823768
 30
0.0
 40
0.3
  1
ESCALA  1:50
  7
ROMANC
  0
TEXT
  5
30
  8
0
 10
324.991178
 20
41.531094
 30
0.0
 40
0.1
  1
2
  7
ROMANC
  0
LINE
  5
31
  8
0
 10
329.348696
 20
44.713623
 30
0.0
 11
318.848696
 21
44.713623
 31
0.0
  0
LINE
  5
1FD
  8
0
 10
323.064937
 20
33.967197
 30
0.0
 11
323.794937
 21
33.967197
 31
0.0
  0
LINE
  5
1FE
  8
0
 10
323.794937
 20
33.967197
 30
0.0
 11
323.794937
 21
36.197197
 31
0.0
  0
LINE
  5
1FF
  8
0
 10
323.794937
 20
36.197197
 30
0.0
 11
323.064937
 21
36.197197
 31
0.0
  0
LINE
  5
200
  8
0
 10
323.064937
 20
36.197197
 30
0.0
 11
323.064937
 21
33.967197
 31
0.0
  0
LINE
  5
201
  8
0
 10
323.072437
 20
33.974697
 30
0.0
 11
323.787437
 21
33.974697
 31
0.0
  0
LINE
  5
202
  8
0
 10
323.787437
 20
33.974697
 30
0.0
 11
323.787437
 21
36.189697
 31
0.0
  0
LINE
  5
203
  8
0
 10
323.787437
 20
36.189697
 30
0.0
 11
323.072437
 21
36.189697
 31
0.0
  0
LINE
  5
204
  8
0
 10
323.072437
 20
36.189697
 30
0.0
 11
323.072437
 21
33.974697
 31
0.0
  0
LINE
  5
205
  8
0
  6
BYBLOCK
 62
     0
 10
323.079937
 20
33.967197
 30
0.0
 11
323.079937
 21
33.529057
 31
0.0
  0
LINE
  5
206
  8
0
  6
BYBLOCK
 62
     0
 10
323.779937
 20
33.967197
 30
0.0
 11
323.779937
 21
33.529057
 31
0.0
  0
LINE
  5
207
  8
0
  6
BYBLOCK
 62
     0
 10
323.229937
 20
33.544057
 30
0.0
 11
323.629937
 21
33.544057
 31
0.0
  0
SOLID
  5
208
  8
0
  6
BYBLOCK
 62
     0
 10
323.229937
 20
33.569057
 30
0.0
 11
323.229937
 21
33.519057
 31
0.0
 12
323.079937
 22
33.544057
 32
0.0
 13
323.079937
 23
33.544057
 33
0.0
  0
SOLID
  5
209
  8
0
  6
BYBLOCK
 62
     0
 10
323.629937
 20
33.569057
 30
0.0
 11
323.629937
 21
33.519057
 31
0.0
 12
323.779937
 22
33.544057
 32
0.0
 13
323.779937
 23
33.544057
 33
0.0
  0
TEXT
  8
0
  40
0.075
  5
226
  62
0
  72
0
  71
0
 10
323.280
 20
33.4863
 30
0.000000
  1
0.70
  7
ROMANC
  0
POINT
  5
20B
  8
DEFPOINTS
  6
BYBLOCK
 62
     0
 10
323.079937
 20
33.982197
 30
0.0
  0
POINT
  5
20C
  8
DEFPOINTS
  6
BYBLOCK
 62
     0
 10
323.779937
 20
33.982197
 30
0.0
  0
POINT
  5
20D
  8
DEFPOINTS
  6
BYBLOCK
 62
     0
 10
323.779937
 20
33.544057
 30
0.0
  0
LINE
  5
20E
  8
0
  6
BYBLOCK
 62
     0
 10
323.794937
 20
36.182197
 30
0.0
 11
324.347565
 21
36.182197
 31
0.0
  0
LINE
  5
20F
  8
0
  6
BYBLOCK
 62
     0
 10
323.794937
 20
33.982197
 30
0.0
 11
324.347565
 21
33.982197
 31
0.0
  0
LINE
  5
210
  8
0
  6
BYBLOCK
 62
     0
 10
324.332565
 20
36.032197
 30
0.0
 11
324.332565
 21
34.132197
 31
0.0
  0
SOLID
  5
211
  8
0
  6
BYBLOCK
 62
     0
 10
324.307565
 20
36.032197
 30
0.0
 11
324.357565
 21
36.032197
 31
0.0
 12
324.332565
 22
36.182197
 32
0.0
 13
324.332565
 23
36.182197
 33
0.0
  0
SOLID
  5
212
  8
0
  6
BYBLOCK
 62
     0
 10
324.307565
 20
34.132197
 30
0.0
 11
324.357565
 21
34.132197
 31
0.0
 12
324.332565
 22
33.982197
 32
0.0
 13
324.332565
 23
33.982197
 33
0.0
  0
TEXT
  8
0
  40
0.075
  5
227
  62
0
  72
0
  71
0
 10
324.108
 20
34.9494
 30
0.000000
  1
2.20
  7
ROMANC
  0
POINT
  5
214
  8
DEFPOINTS
  6
BYBLOCK
 62
     0
 10
323.779937
 20
36.182197
 30
0.0
  0
POINT
  5
215
  8
DEFPOINTS
  6
BYBLOCK
 62
     0
 10
323.779937
 20
33.982197
 30
0.0
  0
POINT
  5
216
  8
DEFPOINTS
  6
BYBLOCK
 62
     0
 10
324.332565
 20
33.982197
 30
0.0
  0
LINE
  5
217
  8
0
 10
323.079937
 20
33.982197
 30
0.0
 11
323.779937
 21
33.982197
 31
0.0
  0
LINE
  5
218
  8
0
 10
323.779937
 20
33.982197
 30
0.0
 11
323.779937
 21
36.182197
 31
0.0
  0
LINE
  5
219
  8
0
 10
323.779937
 20
36.182197
 30
0.0
 11
323.079937
 21
36.182197
 31
0.0
  0
LINE
  5
21A
  8
0
 10
323.079937
 20
36.182197
 30
0.0
 11
323.079937
 21
33.982197
 31
0.0
  0
ENDSEC
  0
EOF
