  0
SECTION
  2
HEADER
  9
$ACADVER
  1
AC1009
  9
$INSBASE
 10
0.0
 20
0.0
 30
0.0
  9
$EXTMIN
 10
180.642909
 20
80.934754
 30
0.0
  9
$EXTMAX
 10
191.142909
 20
95.784754
 30
0.0
  9
$LIMMIN
 10
280.396
 20
28.897
  9
$LIMMAX
 10
284.496
 20
31.867
  9
$ORTHOMODE
 70
     1
  9
$REGENMODE
 70
     1
  9
$FILLMODE
 70
     1
  9
$QTEXTMODE
 70
     0
  9
$MIRRTEXT
 70
     1
  9
$DRAGMODE
 70
     2
  9
$LTSCALE
 40
1.0
  9
$OSMODE
 70
     0
  9
$ATTMODE
 70
     1
  9
$TEXTSIZE
 40
3.5
  9
$TRACEWID
 40
0.05
  9
$TEXTSTYLE
  7
ROMANS
  9
$CLAYER
  8
0
  9
$CELTYPE
  6
BYLAYER
  9
$CECOLOR
 62
   256
  9
$DIMSCALE
 40
0.05
  9
$DIMASZ
 40
0.0
  9
$DIMEXO
 40
1.0
  9
$DIMDLI
 40
0.5
  9
$DIMRND
 40
0.0
  9
$DIMDLE
 40
0.75
  9
$DIMEXE
 40
0.75
  9
$DIMTP
 40
0.0
  9
$DIMTM
 40
0.0
  9
$DIMTXT
 40
2.0
  9
$DIMCEN
 40
1.0
  9
$DIMTSZ
 40
0.75
  9
$DIMTOL
 70
     0
  9
$DIMLIM
 70
     0
  9
$DIMTIH
 70
     0
  9
$DIMTOH
 70
     0
  9
$DIMSE1
 70
     0
  9
$DIMSE2
 70
     0
  9
$DIMTAD
 70
     0
  9
$DIMZIN
 70
     0
  9
$DIMBLK
  1

  9
$DIMASO
 70
     1
  9
$DIMSHO
 70
     1
  9
$DIMPOST
  1

  9
$DIMAPOST
  1

  9
$DIMALT
 70
     0
  9
$DIMALTD
 70
     2
  9
$DIMALTF
 40
25.4
  9
$DIMLFAC
 40
1.0
  9
$DIMTOFL
 70
     0
  9
$DIMTVP
 40
0.0
  9
$DIMTIX
 70
     0
  9
$DIMSOXD
 70
     0
  9
$DIMSAH
 70
     0
  9
$DIMBLK1
  1

  9
$DIMBLK2
  1

  9
$DIMSTYLE
  2
*UNNAMED
  9
$DIMCLRD
 70
     0
  9
$DIMCLRE
 70
     0
  9
$DIMCLRT
 70
     0
  9
$DIMTFAC
 40
1.0
  9
$DIMGAP
 40
0.05
  9
$LUNITS
 70
     2
  9
$LUPREC
 70
     2
  9
$SKETCHINC
 40
0.1
  9
$FILLETRAD
 40
0.0
  9
$AUNITS
 70
     0
  9
$AUPREC
 70
     0
  9
$MENU
  1
acad
  9
$ELEVATION
 40
0.0
  9
$PELEVATION
 40
0.0
  9
$THICKNESS
 40
0.0
  9
$LIMCHECK
 70
     0
  9
$BLIPMODE
 70
     0
  9
$CHAMFERA
 40
0.0
  9
$CHAMFERB
 40
0.0
  9
$SKPOLY
 70
     0
  9
$TDCREATE
 40
2448315.373408102
  9
$TDUPDATE
 40
2450933.563688657
  9
$TDINDWG
 40
0.1561295139
  9
$TDUSRTIMER
 40
0.1561295139
  9
$USRTIMER
 70
     1
  9
$ANGBASE
 50
0.0
  9
$ANGDIR
 70
     0
  9
$PDMODE
 70
     0
  9
$PDSIZE
 40
0.0
  9
$PLINEWID
 40
0.0
  9
$COORDS
 70
     0
  9
$SPLFRAME
 70
     0
  9
$SPLINETYPE
 70
     6
  9
$SPLINESEGS
 70
     8
  9
$ATTDIA
 70
     0
  9
$ATTREQ
 70
     1
  9
$HANDLING
 70
     0
  9
$HANDSEED
  5
0
  9
$SURFTAB1
 70
     6
  9
$SURFTAB2
 70
     6
  9
$SURFTYPE
 70
     6
  9
$SURFU
 70
     6
  9
$SURFV
 70
     6
  9
$UCSNAME
  2

  9
$UCSORG
 10
0.0
 20
0.0
 30
0.0
  9
$UCSXDIR
 10
1.0
 20
0.0
 30
0.0
  9
$UCSYDIR
 10
0.0
 20
1.0
 30
0.0
  9
$PUCSNAME
  2

  9
$PUCSORG
 10
0.0
 20
0.0
 30
0.0
  9
$PUCSXDIR
 10
1.0
 20
0.0
 30
0.0
  9
$PUCSYDIR
 10
0.0
 20
1.0
 30
0.0
  9
$USERI1
 70
     0
  9
$USERI2
 70
     0
  9
$USERI3
 70
     0
  9
$USERI4
 70
     0
  9
$USERI5
 70
     0
  9
$USERR1
 40
0.0
  9
$USERR2
 40
0.0
  9
$USERR3
 40
0.0
  9
$USERR4
 40
0.0
  9
$USERR5
 40
0.0
  9
$WORLDVIEW
 70
     1
  9
$SHADEDGE
 70
     3
  9
$SHADEDIF
 70
    70
  9
$TILEMODE
 70
     1
  9
$MAXACTVP
 70
    16
  9
$PINSBASE
 10
0.0
 20
0.0
 30
0.0
  9
$PLIMCHECK
 70
     0
  9
$PEXTMIN
 10
1.000000E+20
 20
1.000000E+20
 30
1.000000E+20
  9
$PEXTMAX
 10
-1.000000E+20
 20
-1.000000E+20
 30
-1.000000E+20
  9
$PLIMMIN
 10
0.0
 20
0.0
  9
$PLIMMAX
 10
12.0
 20
9.0
  9
$UNITMODE
 70
     0
  9
$VISRETAIN
 70
     0
  9
$PLINEGEN
 70
     0
  9
$PSLTSCALE
 70
     0
  9
$TREEDEPTH
 70
  3020
  9
$DWGCODEPAGE
  3
iso8859-1
  0
ENDSEC
  0
SECTION
  2
TABLES
  0
TABLE
  2
VPORT
 70
     2
  0
VPORT
  2
*ACTIVE
 70
     0
 10
0.0
 20
0.0
 11
1.0
 21
1.0
 12
191.962346
 22
88.359754
 13
0.0
 23
0.0
 14
1.0
 24
1.0
 15
10.0
 25
10.0
 16
0.0
 26
0.0
 36
1.0
 17
0.0
 27
0.0
 37
0.0
 40
14.85
 41
1.524503
 42
50.0
 43
0.0
 44
0.0
 50
0.0
 51
0.0
 71
     0
 72
   100
 73
     1
 74
     0
 75
     0
 76
     0
 77
     0
 78
     0
  0
ENDTAB
  0
TABLE
  2
LTYPE
 70
     1
  0
LTYPE
  2
CONTINUOUS
 70
    64
  3
Solid line
 72
    65
 73
     0
 40
0.0
  0
ENDTAB
  0
TABLE
  2
LAYER
 70
     9
  0
LAYER
  2
0
 70
    64
 62
     7
  6
CONTINUOUS
  0
LAYER
  2
1
 70
     0
 62
     7
  6
CONTINUOUS
  0
LAYER
  2
7
 70
     0
 62
     7
  6
CONTINUOUS
  0
LAYER
  2
8
 70
     0
 62
     7
  6
CONTINUOUS
  0
LAYER
  2
9
 70
     0
 62
     7
  6
CONTINUOUS
  0
LAYER
  2
22
 70
     0
 62
     7
  6
CONTINUOUS
  0
LAYER
  2
25
 70
     0
 62
     7
  6
CONTINUOUS
  0
LAYER
  2
DEFPOINTS
 70
    64
 62
     7
  6
CONTINUOUS
  0
LAYER
  2
MESURA
 70
     0
 62
     7
  6
CONTINUOUS
  0
ENDTAB
  0
TABLE
  2
STYLE
 70
     3
  0
STYLE
  2
STANDARD
 70
     0
 40
0.0
 41
1.0
 50
0.0
 71
     0
 42
3.5
  3
C:\APLIC\ACADWIN\FONTS\ROMANS.SHX
  4

  0
STYLE
  2
ROMANC
 70
    64
 40
0.0
 41
1.0
 50
0.0
 71
     0
 42
0.2
  3
ROMANC
  4

  0
STYLE
  2
ROMANS
 70
    64
 40
0.0
 41
1.0
 50
0.0
 71
     0
 42
3.5
  3
C:\APLIC\ACADWIN\FONTS\ROMANC.SHX
  4

  0
ENDTAB
  0
TABLE
  2
VIEW
 70
     0
  0
ENDTAB
  0
TABLE
  2
UCS
 70
     0
  0
ENDTAB
  0
TABLE
  2
APPID
 70
     1
  0
APPID
  2
ACAD
 70
    64
  0
ENDTAB
  0
TABLE
  2
DIMSTYLE
 70
     0
  0
ENDTAB
  0
ENDSEC
  0
SECTION
  2
BLOCKS
  0
BLOCK
  8
0
  2
*D11
 70
    65
 10
0.0
 20
0.0
 30
0.0
  3
*D
  0
LINE
  8
0
  6
BYBLOCK
 62
     0
 10
185.642372
 20
86.471893
 30
0.0
 11
185.642372
 21
86.140347
 31
0.0
  0
LINE
  8
0
  6
BYBLOCK
 62
     0
 10
186.042372
 20
86.471893
 30
0.0
 11
186.042372
 21
86.140347
 31
0.0
  0
LINE
  8
0
  6
BYBLOCK
 62
     0
 10
185.642372
 20
86.165347
 30
0.0
 11
186.042372
 21
86.165347
 31
0.0
  0
LINE
  8
0
  6
BYBLOCK
 62
     0
 10
185.567372
 20
86.090347
 30
0.0
 11
185.717372
 21
86.240347
 31
0.0
  0
LINE
  8
0
  6
BYBLOCK
 62
     0
 10
185.967372
 20
86.090347
 30
0.0
 11
186.117372
 21
86.240347
 31
0.0
  0
TEXT
  8
0
  6
BYBLOCK
 62
     0
 10
186.092126
 20
86.115347
 30
0.0
 40
0.1
  1
0.40
  7
ROMANS
 72
     1
 11
186.258792
 21
86.165347
 31
0.0
 73
     2
  0
POINT
  8
DEFPOINTS
  6
BYBLOCK
 62
     0
 10
185.642372
 20
86.521893
 30
0.0
  0
POINT
  8
DEFPOINTS
  6
BYBLOCK
 62
     0
 10
186.042372
 20
86.521893
 30
0.0
  0
POINT
  8
DEFPOINTS
  6
BYBLOCK
 62
     0
 10
186.042372
 20
86.165347
 30
0.0
  0
ENDBLK
  8
0
  0
BLOCK
  8
0
  2
*D12
 70
    65
 10
0.0
 20
0.0
 30
0.0
  3
*D
  0
LINE
  8
0
  6
BYBLOCK
 62
     0
 10
185.542372
 20
86.471893
 30
0.0
 11
185.542372
 21
85.86709
 31
0.0
  0
LINE
  8
0
  6
BYBLOCK
 62
     0
 10
186.142372
 20
86.471893
 30
0.0
 11
186.142372
 21
85.86709
 31
0.0
  0
LINE
  8
0
  6
BYBLOCK
 62
     0
 10
185.542372
 20
85.89209
 30
0.0
 11
185.687491
 21
85.89209
 31
0.0
  0
LINE
  8
0
  6
BYBLOCK
 62
     0
 10
186.142372
 20
85.89209
 30
0.0
 11
185.997253
 21
85.89209
 31
0.0
  0
LINE
  8
0
  6
BYBLOCK
 62
     0
 10
185.467372
 20
85.81709
 30
0.0
 11
185.617372
 21
85.96709
 31
0.0
  0
LINE
  8
0
  6
BYBLOCK
 62
     0
 10
186.067372
 20
85.81709
 30
0.0
 11
186.217372
 21
85.96709
 31
0.0
  0
TEXT
  8
0
  6
BYBLOCK
 62
     0
 10
185.675705
 20
85.84209
 30
0.0
 40
0.1
  1
0.60
  7
ROMANS
 72
     1
 11
185.842372
 21
85.89209
 31
0.0
 73
     2
  0
POINT
  8
DEFPOINTS
  6
BYBLOCK
 62
     0
 10
185.542372
 20
86.521893
 30
0.0
  0
POINT
  8
DEFPOINTS
  6
BYBLOCK
 62
     0
 10
186.142372
 20
86.521893
 30
0.0
  0
POINT
  8
DEFPOINTS
  6
BYBLOCK
 62
     0
 10
186.142372
 20
85.89209
 30
0.0
  0
ENDBLK
  8
0
  0
BLOCK
  8
0
  2
*D13
 70
    65
 10
0.0
 20
0.0
 30
0.0
  3
*D
  0
LINE
  8
0
  6
BYBLOCK
 62
     0
 10
185.892372
 20
86.371893
 30
0.0
 11
186.363321
 21
86.371893
 31
0.0
  0
LINE
  8
0
  6
BYBLOCK
 62
     0
 10
186.092372
 20
86.521893
 30
0.0
 11
186.363321
 21
86.521893
 31
0.0
  0
LINE
  8
0
  6
BYBLOCK
 62
     0
 10
186.338321
 20
86.371893
 30
0.0
 11
186.338321
 21
86.221893
 31
0.0
  0
LINE
  8
0
  6
BYBLOCK
 62
     0
 10
186.338321
 20
86.521893
 30
0.0
 11
186.338321
 21
86.671893
 31
0.0
  0
LINE
  8
0
  6
BYBLOCK
 62
     0
 10
186.413321
 20
86.296893
 30
0.0
 11
186.263321
 21
86.446893
 31
0.0
  0
LINE
  8
0
  6
BYBLOCK
 62
     0
 10
186.413321
 20
86.446893
 30
0.0
 11
186.263321
 21
86.596893
 31
0.0
  0
TEXT
  8
0
  6
BYBLOCK
 62
     0
 10
186.388321
 20
86.660107
 30
0.0
 40
0.1
  1
0.15
 50
90.0
  7
ROMANS
 72
     1
 11
186.338321
 21
86.826774
 31
0.0
 73
     2
  0
POINT
  8
DEFPOINTS
  6
BYBLOCK
 62
     0
 10
185.842372
 20
86.371893
 30
0.0
  0
POINT
  8
DEFPOINTS
  6
BYBLOCK
 62
     0
 10
186.042372
 20
86.521893
 30
0.0
  0
POINT
  8
DEFPOINTS
  6
BYBLOCK
 62
     0
 10
186.338321
 20
86.521893
 30
0.0
  0
ENDBLK
  8
0
  0
BLOCK
  8
0
  2
*D14
 70
    65
 10
0.0
 20
0.0
 30
0.0
  3
*D
  0
LINE
  8
0
  6
BYBLOCK
 62
     0
 10
185.892372
 20
86.371893
 30
0.0
 11
186.636703
 21
86.371893
 31
0.0
  0
LINE
  8
0
  6
BYBLOCK
 62
     0
 10
185.892372
 20
87.521893
 30
0.0
 11
186.636703
 21
87.521893
 31
0.0
  0
LINE
  8
0
  6
BYBLOCK
 62
     0
 10
186.611703
 20
86.371893
 30
0.0
 11
186.611703
 21
86.799155
 31
0.0
  0
LINE
  8
0
  6
BYBLOCK
 62
     0
 10
186.611703
 20
87.521893
 30
0.0
 11
186.611703
 21
87.094631
 31
0.0
  0
LINE
  8
0
  6
BYBLOCK
 62
     0
 10
186.686703
 20
86.296893
 30
0.0
 11
186.536703
 21
86.446893
 31
0.0
  0
LINE
  8
0
  6
BYBLOCK
 62
     0
 10
186.686703
 20
87.446893
 30
0.0
 11
186.536703
 21
87.596893
 31
0.0
  0
TEXT
  8
0
  6
BYBLOCK
 62
     0
 10
186.661703
 20
86.773083
 30
0.0
 40
0.1
  1
1.15
 50
90.0
  7
ROMANS
 72
     1
 11
186.611703
 21
86.946893
 31
0.0
 73
     2
  0
POINT
  8
DEFPOINTS
  6
BYBLOCK
 62
     0
 10
185.842372
 20
86.371893
 30
0.0
  0
POINT
  8
DEFPOINTS
  6
BYBLOCK
 62
     0
 10
185.842372
 20
87.521893
 30
0.0
  0
POINT
  8
DEFPOINTS
  6
BYBLOCK
 62
     0
 10
186.611703
 20
87.521893
 30
0.0
  0
ENDBLK
  8
0
  0
BLOCK
  8
0
  2
*D15
 70
    65
 10
0.0
 20
0.0
 30
0.0
  3
*D
  0
LINE
  8
0
  6
BYBLOCK
 62
     0
 10
183.733409
 20
86.130062
 30
0.0
 11
183.733409
 21
85.787202
 31
0.0
  0
LINE
  8
0
  6
BYBLOCK
 62
     0
 10
184.133409
 20
86.130062
 30
0.0
 11
184.133409
 21
85.787202
 31
0.0
  0
LINE
  8
0
  6
BYBLOCK
 62
     0
 10
183.733409
 20
85.812202
 30
0.0
 11
183.583409
 21
85.812202
 31
0.0
  0
LINE
  8
0
  6
BYBLOCK
 62
     0
 10
184.133409
 20
85.812202
 30
0.0
 11
184.283409
 21
85.812202
 31
0.0
  0
LINE
  8
0
  6
BYBLOCK
 62
     0
 10
183.658409
 20
85.737202
 30
0.0
 11
183.808409
 21
85.887202
 31
0.0
  0
LINE
  8
0
  6
BYBLOCK
 62
     0
 10
184.058409
 20
85.737202
 30
0.0
 11
184.208409
 21
85.887202
 31
0.0
  0
TEXT
  8
0
  6
BYBLOCK
 62
     0
 10
184.285909
 20
85.762202
 30
0.0
 40
0.1
  1
 .40
  7
ROMANS
 72
     1
 11
184.447813
 21
85.812202
 31
0.0
 73
     2
  0
POINT
  8
DEFPOINTS
  6
BYBLOCK
 62
     0
 10
183.733409
 20
86.180062
 30
0.0
  0
POINT
  8
DEFPOINTS
  6
BYBLOCK
 62
     0
 10
184.133409
 20
86.180062
 30
0.0
  0
POINT
  8
DEFPOINTS
  6
BYBLOCK
 62
     0
 10
184.133409
 20
85.812202
 30
0.0
  0
ENDBLK
  8
0
  0
BLOCK
  8
0
  2
*D16
 70
    65
 10
0.0
 20
0.0
 30
0.0
  3
*D
  0
LINE
  8
0
  6
BYBLOCK
 62
     0
 10
183.733409
 20
86.130062
 30
0.0
 11
183.733409
 21
85.803673
 31
0.0
  0
LINE
  8
0
  6
BYBLOCK
 62
     0
 10
184.133409
 20
86.130062
 30
0.0
 11
184.133409
 21
85.803673
 31
0.0
  0
LINE
  8
0
  6
BYBLOCK
 62
     0
 10
183.733409
 20
85.828673
 30
0.0
 11
183.583409
 21
85.828673
 31
0.0
  0
LINE
  8
0
  6
BYBLOCK
 62
     0
 10
184.133409
 20
85.828673
 30
0.0
 11
184.283409
 21
85.828673
 31
0.0
  0
LINE
  8
0
  6
BYBLOCK
 62
     0
 10
183.658409
 20
85.753673
 30
0.0
 11
183.808409
 21
85.903673
 31
0.0
  0
LINE
  8
0
  6
BYBLOCK
 62
     0
 10
184.058409
 20
85.753673
 30
0.0
 11
184.208409
 21
85.903673
 31
0.0
  0
TEXT
  8
0
  6
BYBLOCK
 62
     0
 10
184.271623
 20
85.778673
 30
0.0
 40
0.1
  1
0.40
  7
ROMANS
 72
     1
 11
184.438289
 21
85.828673
 31
0.0
 73
     2
  0
POINT
  8
DEFPOINTS
  6
BYBLOCK
 62
     0
 10
183.733409
 20
86.180062
 30
0.0
  0
POINT
  8
DEFPOINTS
  6
BYBLOCK
 62
     0
 10
184.133409
 20
86.180062
 30
0.0
  0
POINT
  8
DEFPOINTS
  6
BYBLOCK
 62
     0
 10
184.133409
 20
85.828673
 30
0.0
  0
ENDBLK
  8
0
  0
BLOCK
  8
0
  2
*D17
 70
    65
 10
0.0
 20
0.0
 30
0.0
  3
*D
  0
LINE
  8
0
  6
BYBLOCK
 62
     0
 10
183.283409
 20
86.130062
 30
0.0
 11
183.283409
 21
85.578564
 31
0.0
  0
LINE
  8
0
  6
BYBLOCK
 62
     0
 10
184.583409
 20
86.130062
 30
0.0
 11
184.583409
 21
85.578564
 31
0.0
  0
LINE
  8
0
  6
BYBLOCK
 62
     0
 10
183.283409
 20
85.603564
 30
0.0
 11
183.78567
 21
85.603564
 31
0.0
  0
LINE
  8
0
  6
BYBLOCK
 62
     0
 10
184.583409
 20
85.603564
 30
0.0
 11
184.081147
 21
85.603564
 31
0.0
  0
LINE
  8
0
  6
BYBLOCK
 62
     0
 10
183.208409
 20
85.528564
 30
0.0
 11
183.358409
 21
85.678564
 31
0.0
  0
LINE
  8
0
  6
BYBLOCK
 62
     0
 10
184.508409
 20
85.528564
 30
0.0
 11
184.658409
 21
85.678564
 31
0.0
  0
TEXT
  8
0
  6
BYBLOCK
 62
     0
 10
183.759599
 20
85.553564
 30
0.0
 40
0.1
  1
1.30
  7
ROMANS
 72
     1
 11
183.933409
 21
85.603564
 31
0.0
 73
     2
  0
POINT
  8
DEFPOINTS
  6
BYBLOCK
 62
     0
 10
183.283409
 20
86.180062
 30
0.0
  0
POINT
  8
DEFPOINTS
  6
BYBLOCK
 62
     0
 10
184.583409
 20
86.180062
 30
0.0
  0
POINT
  8
DEFPOINTS
  6
BYBLOCK
 62
     0
 10
184.583409
 20
85.603564
 30
0.0
  0
ENDBLK
  8
0
  0
BLOCK
  8
0
  2
*D18
 70
    65
 10
0.0
 20
0.0
 30
0.0
  3
*D
  0
LINE
  8
0
  6
BYBLOCK
 62
     0
 10
183.283409
 20
87.280062
 30
0.0
 11
183.283409
 21
87.255062
 31
0.0
  0
LINE
  8
0
  6
BYBLOCK
 62
     0
 10
184.583409
 20
87.280062
 30
0.0
 11
184.583409
 21
87.255062
 31
0.0
  0
LINE
  8
0
  6
BYBLOCK
 62
     0
 10
183.283409
 20
87.230062
 30
0.0
 11
183.78567
 21
87.230062
 31
0.0
  0
LINE
  8
0
  6
BYBLOCK
 62
     0
 10
184.583409
 20
87.230062
 30
0.0
 11
184.081147
 21
87.230062
 31
0.0
  0
LINE
  8
0
  6
BYBLOCK
 62
     0
 10
183.208409
 20
87.155062
 30
0.0
 11
183.358409
 21
87.305062
 31
0.0
  0
LINE
  8
0
  6
BYBLOCK
 62
     0
 10
184.508409
 20
87.155062
 30
0.0
 11
184.658409
 21
87.305062
 31
0.0
  0
TEXT
  8
0
  6
BYBLOCK
 62
     0
 10
183.759599
 20
87.180062
 30
0.0
 40
0.1
  1
1.30
  7
ROMANS
 72
     1
 11
183.933409
 21
87.230062
 31
0.0
 73
     2
  0
POINT
  8
DEFPOINTS
  6
BYBLOCK
 62
     0
 10
183.283409
 20
87.230062
 30
0.0
  0
POINT
  8
DEFPOINTS
  6
BYBLOCK
 62
     0
 10
184.583409
 20
87.230062
 30
0.0
  0
POINT
  8
DEFPOINTS
  6
BYBLOCK
 62
     0
 10
184.583409
 20
87.230062
 30
0.0
  0
ENDBLK
  8
0
  0
BLOCK
  8
0
  2
*D19
 70
    65
 10
0.0
 20
0.0
 30
0.0
  3
*D
  0
LINE
  8
0
  6
BYBLOCK
 62
     0
 10
183.983409
 20
86.030062
 30
0.0
 11
184.859253
 21
86.030062
 31
0.0
  0
LINE
  8
0
  6
BYBLOCK
 62
     0
 10
184.183409
 20
86.180062
 30
0.0
 11
184.859253
 21
86.180062
 31
0.0
  0
LINE
  8
0
  6
BYBLOCK
 62
     0
 10
184.834253
 20
86.030062
 30
0.0
 11
184.834253
 21
85.880062
 31
0.0
  0
LINE
  8
0
  6
BYBLOCK
 62
     0
 10
184.834253
 20
86.180062
 30
0.0
 11
184.834253
 21
86.330062
 31
0.0
  0
LINE
  8
0
  6
BYBLOCK
 62
     0
 10
184.909253
 20
85.955062
 30
0.0
 11
184.759253
 21
86.105062
 31
0.0
  0
LINE
  8
0
  6
BYBLOCK
 62
     0
 10
184.909253
 20
86.105062
 30
0.0
 11
184.759253
 21
86.255062
 31
0.0
  0
TEXT
  8
0
  6
BYBLOCK
 62
     0
 10
184.884253
 20
86.318276
 30
0.0
 40
0.1
  1
0.15
 50
90.0
  7
ROMANS
 72
     1
 11
184.834253
 21
86.484943
 31
0.0
 73
     2
  0
POINT
  8
DEFPOINTS
  6
BYBLOCK
 62
     0
 10
183.933409
 20
86.030062
 30
0.0
  0
POINT
  8
DEFPOINTS
  6
BYBLOCK
 62
     0
 10
184.133409
 20
86.180062
 30
0.0
  0
POINT
  8
DEFPOINTS
  6
BYBLOCK
 62
     0
 10
184.834253
 20
86.180062
 30
0.0
  0
ENDBLK
  8
0
  0
BLOCK
  8
0
  2
*D20
 70
    65
 10
0.0
 20
0.0
 30
0.0
  3
*D
  0
LINE
  8
0
  6
BYBLOCK
 62
     0
 10
183.983409
 20
86.030062
 30
0.0
 11
184.859253
 21
86.030062
 31
0.0
  0
LINE
  8
0
  6
BYBLOCK
 62
     0
 10
184.183409
 20
86.180062
 30
0.0
 11
184.859253
 21
86.180062
 31
0.0
  0
LINE
  8
0
  6
BYBLOCK
 62
     0
 10
184.834253
 20
86.030062
 30
0.0
 11
184.834253
 21
85.880062
 31
0.0
  0
LINE
  8
0
  6
BYBLOCK
 62
     0
 10
184.834253
 20
86.180062
 30
0.0
 11
184.834253
 21
86.330062
 31
0.0
  0
LINE
  8
0
  6
BYBLOCK
 62
     0
 10
184.909253
 20
85.955062
 30
0.0
 11
184.759253
 21
86.105062
 31
0.0
  0
LINE
  8
0
  6
BYBLOCK
 62
     0
 10
184.909253
 20
86.105062
 30
0.0
 11
184.759253
 21
86.255062
 31
0.0
  0
TEXT
  8
0
  6
BYBLOCK
 62
     0
 10
184.884253
 20
85.607102
 30
0.0
 40
0.1
  1
0.15
 50
90.0
  7
ROMANS
 72
     1
 11
184.834253
 21
85.773768
 31
0.0
 73
     2
  0
POINT
  8
DEFPOINTS
  6
BYBLOCK
 62
     0
 10
183.933409
 20
86.030062
 30
0.0
  0
POINT
  8
DEFPOINTS
  6
BYBLOCK
 62
     0
 10
184.133409
 20
86.180062
 30
0.0
  0
POINT
  8
DEFPOINTS
  6
BYBLOCK
 62
     0
 10
184.834253
 20
86.180062
 30
0.0
  0
ENDBLK
  8
0
  0
BLOCK
  8
0
  2
*D21
 70
    65
 10
0.0
 20
0.0
 30
0.0
  3
*D
  0
LINE
  8
0
  6
BYBLOCK
 62
     0
 10
183.733409
 20
86.130062
 30
0.0
 11
183.733409
 21
85.803673
 31
0.0
  0
LINE
  8
0
  6
BYBLOCK
 62
     0
 10
184.133409
 20
86.130062
 30
0.0
 11
184.133409
 21
85.803673
 31
0.0
  0
LINE
  8
0
  6
BYBLOCK
 62
     0
 10
183.733409
 20
85.828673
 30
0.0
 11
184.133409
 21
85.828673
 31
0.0
  0
LINE
  8
0
  6
BYBLOCK
 62
     0
 10
183.658409
 20
85.753673
 30
0.0
 11
183.808409
 21
85.903673
 31
0.0
  0
LINE
  8
0
  6
BYBLOCK
 62
     0
 10
184.058409
 20
85.753673
 30
0.0
 11
184.208409
 21
85.903673
 31
0.0
  0
TEXT
  8
0
  6
BYBLOCK
 62
     0
 10
184.217164
 20
85.778673
 30
0.0
 40
0.1
  1
0.40
  7
ROMANS
 72
     1
 11
184.38383
 21
85.828673
 31
0.0
 73
     2
  0
POINT
  8
DEFPOINTS
  6
BYBLOCK
 62
     0
 10
183.733409
 20
86.180062
 30
0.0
  0
POINT
  8
DEFPOINTS
  6
BYBLOCK
 62
     0
 10
184.133409
 20
86.180062
 30
0.0
  0
POINT
  8
DEFPOINTS
  6
BYBLOCK
 62
     0
 10
184.133409
 20
85.828673
 30
0.0
  0
ENDBLK
  8
0
  0
BLOCK
  8
0
  2
*D22
 70
    65
 10
0.0
 20
0.0
 30
0.0
  3
*D
  0
LINE
  8
0
  6
BYBLOCK
 62
     0
 10
183.733409
 20
86.130062
 30
0.0
 11
183.733409
 21
85.803673
 31
0.0
  0
LINE
  8
0
  6
BYBLOCK
 62
     0
 10
184.133409
 20
86.130062
 30
0.0
 11
184.133409
 21
85.803673
 31
0.0
  0
LINE
  8
0
  6
BYBLOCK
 62
     0
 10
183.733409
 20
85.828673
 30
0.0
 11
184.133409
 21
85.828673
 31
0.0
  0
LINE
  8
0
  6
BYBLOCK
 62
     0
 10
183.658409
 20
85.753673
 30
0.0
 11
183.808409
 21
85.903673
 31
0.0
  0
LINE
  8
0
  6
BYBLOCK
 62
     0
 10
184.058409
 20
85.753673
 30
0.0
 11
184.208409
 21
85.903673
 31
0.0
  0
TEXT
  8
0
  6
BYBLOCK
 62
     0
 10
184.189699
 20
85.778673
 30
0.0
 40
0.1
  1
0.40
  7
ROMANS
 72
     1
 11
184.356366
 21
85.828673
 31
0.0
 73
     2
  0
POINT
  8
DEFPOINTS
  6
BYBLOCK
 62
     0
 10
183.733409
 20
86.180062
 30
0.0
  0
POINT
  8
DEFPOINTS
  6
BYBLOCK
 62
     0
 10
184.133409
 20
86.180062
 30
0.0
  0
POINT
  8
DEFPOINTS
  6
BYBLOCK
 62
     0
 10
184.133409
 20
85.828673
 30
0.0
  0
ENDBLK
  8
0
  0
BLOCK
  8
0
  2
*D23
 70
    65
 10
0.0
 20
0.0
 30
0.0
  3
*D
  0
LINE
  8
0
  6
BYBLOCK
 62
     0
 10
183.983409
 20
86.030062
 30
0.0
 11
184.859253
 21
86.030062
 31
0.0
  0
LINE
  8
0
  6
BYBLOCK
 62
     0
 10
184.183409
 20
86.180062
 30
0.0
 11
184.859253
 21
86.180062
 31
0.0
  0
LINE
  8
0
  6
BYBLOCK
 62
     0
 10
184.834253
 20
86.030062
 30
0.0
 11
184.834253
 21
85.880062
 31
0.0
  0
LINE
  8
0
  6
BYBLOCK
 62
     0
 10
184.834253
 20
86.180062
 30
0.0
 11
184.834253
 21
86.330062
 31
0.0
  0
LINE
  8
0
  6
BYBLOCK
 62
     0
 10
184.909253
 20
85.955062
 30
0.0
 11
184.759253
 21
86.105062
 31
0.0
  0
LINE
  8
0
  6
BYBLOCK
 62
     0
 10
184.909253
 20
86.105062
 30
0.0
 11
184.759253
 21
86.255062
 31
0.0
  0
TEXT
  8
0
  6
BYBLOCK
 62
     0
 10
184.884253
 20
85.58514
 30
0.0
 40
0.1
  1
0.15
 50
90.0
  7
ROMANS
 72
     1
 11
184.834253
 21
85.751807
 31
0.0
 73
     2
  0
POINT
  8
DEFPOINTS
  6
BYBLOCK
 62
     0
 10
183.933409
 20
86.030062
 30
0.0
  0
POINT
  8
DEFPOINTS
  6
BYBLOCK
 62
     0
 10
184.133409
 20
86.180062
 30
0.0
  0
POINT
  8
DEFPOINTS
  6
BYBLOCK
 62
     0
 10
184.834253
 20
86.180062
 30
0.0
  0
ENDBLK
  8
0
  0
BLOCK
  8
0
  2
*D24
 70
    65
 10
0.0
 20
0.0
 30
0.0
  3
*D
  0
LINE
  8
0
  6
BYBLOCK
 62
     0
 10
184.633409
 20
87.230062
 30
0.0
 11
184.859253
 21
87.230062
 31
0.0
  0
LINE
  8
0
  6
BYBLOCK
 62
     0
 10
184.633409
 20
86.180062
 30
0.0
 11
184.859253
 21
86.180062
 31
0.0
  0
LINE
  8
0
  6
BYBLOCK
 62
     0
 10
184.834253
 20
87.230062
 30
0.0
 11
184.834253
 21
86.8528
 31
0.0
  0
LINE
  8
0
  6
BYBLOCK
 62
     0
 10
184.834253
 20
86.180062
 30
0.0
 11
184.834253
 21
86.557324
 31
0.0
  0
LINE
  8
0
  6
BYBLOCK
 62
     0
 10
184.909253
 20
87.155062
 30
0.0
 11
184.759253
 21
87.305062
 31
0.0
  0
LINE
  8
0
  6
BYBLOCK
 62
     0
 10
184.909253
 20
86.105062
 30
0.0
 11
184.759253
 21
86.255062
 31
0.0
  0
TEXT
  8
0
  6
BYBLOCK
 62
     0
 10
184.884253
 20
86.531252
 30
0.0
 40
0.1
  1
1.05
 50
90.0
  7
ROMANS
 72
     1
 11
184.834253
 21
86.705062
 31
0.0
 73
     2
  0
POINT
  8
DEFPOINTS
  6
BYBLOCK
 62
     0
 10
184.583409
 20
87.230062
 30
0.0
  0
POINT
  8
DEFPOINTS
  6
BYBLOCK
 62
     0
 10
184.583409
 20
86.180062
 30
0.0
  0
POINT
  8
DEFPOINTS
  6
BYBLOCK
 62
     0
 10
184.834253
 20
86.180062
 30
0.0
  0
ENDBLK
  8
0
  0
BLOCK
  8
0
  2
*D25
 70
    65
 10
0.0
 20
0.0
 30
0.0
  3
*D
  0
LINE
  8
0
  6
BYBLOCK
 62
     0
 10
183.983409
 20
86.030062
 30
0.0
 11
185.144886
 21
86.030062
 31
0.0
  0
LINE
  8
0
  6
BYBLOCK
 62
     0
 10
183.983409
 20
87.880062
 30
0.0
 11
185.144886
 21
87.880062
 31
0.0
  0
LINE
  8
0
  6
BYBLOCK
 62
     0
 10
185.119886
 20
86.030062
 30
0.0
 11
185.119886
 21
86.807324
 31
0.0
  0
LINE
  8
0
  6
BYBLOCK
 62
     0
 10
185.119886
 20
87.880062
 30
0.0
 11
185.119886
 21
87.1028
 31
0.0
  0
LINE
  8
0
  6
BYBLOCK
 62
     0
 10
185.194886
 20
85.955062
 30
0.0
 11
185.044886
 21
86.105062
 31
0.0
  0
LINE
  8
0
  6
BYBLOCK
 62
     0
 10
185.194886
 20
87.805062
 30
0.0
 11
185.044886
 21
87.955062
 31
0.0
  0
TEXT
  8
0
  6
BYBLOCK
 62
     0
 10
185.169886
 20
86.781252
 30
0.0
 40
0.1
  1
1.85
 50
90.0
  7
ROMANS
 72
     1
 11
185.119886
 21
86.955062
 31
0.0
 73
     2
  0
POINT
  8
DEFPOINTS
  6
BYBLOCK
 62
     0
 10
183.933409
 20
86.030062
 30
0.0
  0
POINT
  8
DEFPOINTS
  6
BYBLOCK
 62
     0
 10
183.933409
 20
87.880062
 30
0.0
  0
POINT
  8
DEFPOINTS
  6
BYBLOCK
 62
     0
 10
185.119886
 20
87.880062
 30
0.0
  0
ENDBLK
  8
0
  0
BLOCK
  8
0
  2
*D26
 70
    65
 10
0.0
 20
0.0
 30
0.0
  3
*D
  0
LINE
  8
0
  6
BYBLOCK
 62
     0
 10
183.983409
 20
86.030062
 30
0.0
 11
185.144886
 21
86.030062
 31
0.0
  0
LINE
  8
0
  6
BYBLOCK
 62
     0
 10
183.983409
 20
87.730062
 30
0.0
 11
185.144886
 21
87.730062
 31
0.0
  0
LINE
  8
0
  6
BYBLOCK
 62
     0
 10
185.119886
 20
86.030062
 30
0.0
 11
185.119886
 21
86.732324
 31
0.0
  0
LINE
  8
0
  6
BYBLOCK
 62
     0
 10
185.119886
 20
87.730062
 30
0.0
 11
185.119886
 21
87.0278
 31
0.0
  0
LINE
  8
0
  6
BYBLOCK
 62
     0
 10
185.194886
 20
85.955062
 30
0.0
 11
185.044886
 21
86.105062
 31
0.0
  0
LINE
  8
0
  6
BYBLOCK
 62
     0
 10
185.194886
 20
87.655062
 30
0.0
 11
185.044886
 21
87.805062
 31
0.0
  0
TEXT
  8
0
  6
BYBLOCK
 62
     0
 10
185.169886
 20
86.706252
 30
0.0
 40
0.1
  1
1.70
 50
90.0
  7
ROMANS
 72
     1
 11
185.119886
 21
86.880062
 31
0.0
 73
     2
  0
POINT
  8
DEFPOINTS
  6
BYBLOCK
 62
     0
 10
183.933409
 20
86.030062
 30
0.0
  0
POINT
  8
DEFPOINTS
  6
BYBLOCK
 62
     0
 10
183.933409
 20
87.730062
 30
0.0
  0
POINT
  8
DEFPOINTS
  6
BYBLOCK
 62
     0
 10
185.119886
 20
87.730062
 30
0.0
  0
ENDBLK
  8
0
  0
BLOCK
  8
0
  2
*D27
 70
    65
 10
0.0
 20
0.0
 30
0.0
  3
*D
  0
LINE
  8
0
  6
BYBLOCK
 62
     0
 10
183.798409
 20
87.780062
 30
0.0
 11
183.798409
 21
87.956516
 31
0.0
  0
LINE
  8
0
  6
BYBLOCK
 62
     0
 10
184.068409
 20
87.780062
 30
0.0
 11
184.068409
 21
87.956516
 31
0.0
  0
LINE
  8
0
  6
BYBLOCK
 62
     0
 10
183.798409
 20
87.931516
 30
0.0
 11
183.648409
 21
87.931516
 31
0.0
  0
LINE
  8
0
  6
BYBLOCK
 62
     0
 10
184.068409
 20
87.931516
 30
0.0
 11
184.218409
 21
87.931516
 31
0.0
  0
LINE
  8
0
  6
BYBLOCK
 62
     0
 10
183.723409
 20
87.856516
 30
0.0
 11
183.873409
 21
88.006516
 31
0.0
  0
LINE
  8
0
  6
BYBLOCK
 62
     0
 10
183.993409
 20
87.856516
 30
0.0
 11
184.143409
 21
88.006516
 31
0.0
  0
TEXT
  8
0
  6
BYBLOCK
 62
     0
 10
184.206623
 20
87.881516
 30
0.0
 40
0.1
  1
0.27
  7
ROMANS
 72
     1
 11
184.373289
 21
87.931516
 31
0.0
 73
     2
  0
POINT
  8
DEFPOINTS
  6
BYBLOCK
 62
     0
 10
183.798409
 20
87.730062
 30
0.0
  0
POINT
  8
DEFPOINTS
  6
BYBLOCK
 62
     0
 10
184.068409
 20
87.730062
 30
0.0
  0
POINT
  8
DEFPOINTS
  6
BYBLOCK
 62
     0
 10
184.068409
 20
87.931516
 30
0.0
  0
ENDBLK
  8
0
  0
BLOCK
  8
0
  2
*D28
 70
    65
 10
0.0
 20
0.0
 30
0.0
  3
*D
  0
LINE
  8
0
  6
BYBLOCK
 62
     0
 10
183.248579
 20
87.265936
 30
0.0
 11
183.085809
 21
87.433589
 31
0.0
  0
LINE
  8
0
  6
BYBLOCK
 62
     0
 10
183.763579
 20
87.765936
 30
0.0
 11
183.600809
 21
87.933589
 31
0.0
  0
LINE
  8
0
  6
BYBLOCK
 62
     0
 10
183.103223
 20
87.415652
 30
0.0
 11
183.2496
 21
87.557765
 31
0.0
  0
LINE
  8
0
  6
BYBLOCK
 62
     0
 10
183.618223
 20
87.915652
 30
0.0
 11
183.471847
 21
87.77354
 31
0.0
  0
LINE
  8
0
  6
BYBLOCK
 62
     0
 10
183.101656
 20
87.309598
 30
0.0
 11
183.104791
 21
87.521707
 31
0.0
  0
LINE
  8
0
  6
BYBLOCK
 62
     0
 10
183.616656
 20
87.809598
 30
0.0
 11
183.619791
 21
88.021707
 31
0.0
  0
TEXT
  8
0
  6
BYBLOCK
 62
     0
 10
183.275973
 20
87.513682
 30
0.0
 40
0.1
  1
0.72
 50
44.153326
  7
ROMANS
 72
     1
 11
183.360723
 21
87.665652
 31
0.0
 73
     2
  0
POINT
  8
DEFPOINTS
  6
BYBLOCK
 62
     0
 10
183.283409
 20
87.230062
 30
0.0
  0
POINT
  8
DEFPOINTS
  6
BYBLOCK
 62
     0
 10
183.798409
 20
87.730062
 30
0.0
  0
POINT
  8
DEFPOINTS
  6
BYBLOCK
 62
     0
 10
183.618223
 20
87.915652
 30
0.0
  0
ENDBLK
  8
0
  0
BLOCK
  8
0
  2
*D29
 70
    65
 10
0.0
 20
0.0
 30
0.0
  3
*D
  0
LINE
  8
0
  6
BYBLOCK
 62
     0
 10
184.618238
 20
87.265936
 30
0.0
 11
184.785394
 21
87.438107
 31
0.0
  0
LINE
  8
0
  6
BYBLOCK
 62
     0
 10
184.103238
 20
87.765936
 30
0.0
 11
184.270394
 21
87.938107
 31
0.0
  0
LINE
  8
0
  6
BYBLOCK
 62
     0
 10
184.76798
 20
87.42017
 30
0.0
 11
184.621603
 21
87.562283
 31
0.0
  0
LINE
  8
0
  6
BYBLOCK
 62
     0
 10
184.25298
 20
87.92017
 30
0.0
 11
184.399356
 21
87.778057
 31
0.0
  0
LINE
  8
0
  6
BYBLOCK
 62
     0
 10
184.661925
 20
87.418603
 30
0.0
 11
184.874034
 21
87.421737
 31
0.0
  0
LINE
  8
0
  6
BYBLOCK
 62
     0
 10
184.146925
 20
87.918603
 30
0.0
 11
184.359034
 21
87.921737
 31
0.0
  0
TEXT
  8
0
  6
BYBLOCK
 62
     0
 10
184.356071
 20
87.750393
 30
0.0
 40
0.1
  1
0.72
 50
315.846674
  7
ROMANS
 72
     1
 11
184.51048
 21
87.67017
 31
0.0
 73
     2
  0
POINT
  8
DEFPOINTS
  6
BYBLOCK
 62
     0
 10
184.583409
 20
87.230062
 30
0.0
  0
POINT
  8
DEFPOINTS
  6
BYBLOCK
 62
     0
 10
184.068409
 20
87.730062
 30
0.0
  0
POINT
  8
DEFPOINTS
  6
BYBLOCK
 62
     0
 10
184.25298
 20
87.92017
 30
0.0
  0
ENDBLK
  8
0
  0
BLOCK
  8
0
  2
*D30
 70
    65
 10
0.0
 20
0.0
 30
0.0
  3
*D
  0
LINE
  8
0
  6
BYBLOCK
 62
     0
 10
183.798409
 20
87.780062
 30
0.0
 11
183.798409
 21
88.082796
 31
0.0
  0
LINE
  8
0
  6
BYBLOCK
 62
     0
 10
184.068409
 20
87.780062
 30
0.0
 11
184.068409
 21
88.082796
 31
0.0
  0
LINE
  8
0
  6
BYBLOCK
 62
     0
 10
183.798409
 20
88.057796
 30
0.0
 11
183.648409
 21
88.057796
 31
0.0
  0
LINE
  8
0
  6
BYBLOCK
 62
     0
 10
184.068409
 20
88.057796
 30
0.0
 11
184.218409
 21
88.057796
 31
0.0
  0
LINE
  8
0
  6
BYBLOCK
 62
     0
 10
183.723409
 20
87.982796
 30
0.0
 11
183.873409
 21
88.132796
 31
0.0
  0
LINE
  8
0
  6
BYBLOCK
 62
     0
 10
183.993409
 20
87.982796
 30
0.0
 11
184.143409
 21
88.132796
 31
0.0
  0
TEXT
  8
0
  6
BYBLOCK
 62
     0
 10
184.206623
 20
88.007796
 30
0.0
 40
0.1
  1
0.27
  7
ROMANS
 72
     1
 11
184.373289
 21
88.057796
 31
0.0
 73
     2
  0
POINT
  8
DEFPOINTS
  6
BYBLOCK
 62
     0
 10
183.798409
 20
87.730062
 30
0.0
  0
POINT
  8
DEFPOINTS
  6
BYBLOCK
 62
     0
 10
184.068409
 20
87.730062
 30
0.0
  0
POINT
  8
DEFPOINTS
  6
BYBLOCK
 62
     0
 10
184.068409
 20
88.057796
 30
0.0
  0
ENDBLK
  8
0
  0
BLOCK
  8
0
  2
*D31
 70
    65
 10
0.0
 20
0.0
 30
0.0
  3
*D
  0
LINE
  8
0
  6
BYBLOCK
 62
     0
 10
183.983409
 20
86.030062
 30
0.0
 11
185.144886
 21
86.030062
 31
0.0
  0
LINE
  8
0
  6
BYBLOCK
 62
     0
 10
184.702985
 20
87.730062
 30
0.0
 11
185.144886
 21
87.730062
 31
0.0
  0
LINE
  8
0
  6
BYBLOCK
 62
     0
 10
185.119886
 20
86.030062
 30
0.0
 11
185.119886
 21
86.732324
 31
0.0
  0
LINE
  8
0
  6
BYBLOCK
 62
     0
 10
185.119886
 20
87.730062
 30
0.0
 11
185.119886
 21
87.0278
 31
0.0
  0
LINE
  8
0
  6
BYBLOCK
 62
     0
 10
185.194886
 20
85.955062
 30
0.0
 11
185.044886
 21
86.105062
 31
0.0
  0
LINE
  8
0
  6
BYBLOCK
 62
     0
 10
185.194886
 20
87.655062
 30
0.0
 11
185.044886
 21
87.805062
 31
0.0
  0
TEXT
  8
0
  6
BYBLOCK
 62
     0
 10
185.169886
 20
86.706252
 30
0.0
 40
0.1
  1
1.70
 50
90.0
  7
ROMANS
 72
     1
 11
185.119886
 21
86.880062
 31
0.0
 73
     2
  0
POINT
  8
DEFPOINTS
  6
BYBLOCK
 62
     0
 10
183.933409
 20
86.030062
 30
0.0
  0
POINT
  8
DEFPOINTS
  6
BYBLOCK
 62
     0
 10
184.652985
 20
87.730062
 30
0.0
  0
POINT
  8
DEFPOINTS
  6
BYBLOCK
 62
     0
 10
185.119886
 20
87.730062
 30
0.0
  0
ENDBLK
  8
0
  0
BLOCK
  8
0
  2
*D32
 70
    65
 10
0.0
 20
0.0
 30
0.0
  3
*D
  0
LINE
  8
0
  6
BYBLOCK
 62
     0
 10
183.983409
 20
86.030062
 30
0.0
 11
185.216294
 21
86.030062
 31
0.0
  0
LINE
  8
0
  6
BYBLOCK
 62
     0
 10
184.702985
 20
87.730062
 30
0.0
 11
185.216294
 21
87.730062
 31
0.0
  0
LINE
  8
0
  6
BYBLOCK
 62
     0
 10
185.191294
 20
86.030062
 30
0.0
 11
185.191294
 21
86.732324
 31
0.0
  0
LINE
  8
0
  6
BYBLOCK
 62
     0
 10
185.191294
 20
87.730062
 30
0.0
 11
185.191294
 21
87.0278
 31
0.0
  0
LINE
  8
0
  6
BYBLOCK
 62
     0
 10
185.266294
 20
85.955062
 30
0.0
 11
185.116294
 21
86.105062
 31
0.0
  0
LINE
  8
0
  6
BYBLOCK
 62
     0
 10
185.266294
 20
87.655062
 30
0.0
 11
185.116294
 21
87.805062
 31
0.0
  0
TEXT
  8
0
  6
BYBLOCK
 62
     0
 10
185.241294
 20
86.706252
 30
0.0
 40
0.1
  1
1.70
 50
90.0
  7
ROMANS
 72
     1
 11
185.191294
 21
86.880062
 31
0.0
 73
     2
  0
POINT
  8
DEFPOINTS
  6
BYBLOCK
 62
     0
 10
183.933409
 20
86.030062
 30
0.0
  0
POINT
  8
DEFPOINTS
  6
BYBLOCK
 62
     0
 10
184.652985
 20
87.730062
 30
0.0
  0
POINT
  8
DEFPOINTS
  6
BYBLOCK
 62
     0
 10
185.191294
 20
87.730062
 30
0.0
  0
ENDBLK
  8
0
  0
BLOCK
  8
0
  2
*D33
 70
    65
 10
0.0
 20
0.0
 30
0.0
  3
*D
  0
LINE
  8
0
  6
BYBLOCK
 62
     0
 10
184.633409
 20
87.230062
 30
0.0
 11
184.936154
 21
87.230062
 31
0.0
  0
LINE
  8
0
  6
BYBLOCK
 62
     0
 10
184.633409
 20
86.180062
 30
0.0
 11
184.936154
 21
86.180062
 31
0.0
  0
LINE
  8
0
  6
BYBLOCK
 62
     0
 10
184.911154
 20
87.230062
 30
0.0
 11
184.911154
 21
86.8528
 31
0.0
  0
LINE
  8
0
  6
BYBLOCK
 62
     0
 10
184.911154
 20
86.180062
 30
0.0
 11
184.911154
 21
86.557324
 31
0.0
  0
LINE
  8
0
  6
BYBLOCK
 62
     0
 10
184.986154
 20
87.155062
 30
0.0
 11
184.836154
 21
87.305062
 31
0.0
  0
LINE
  8
0
  6
BYBLOCK
 62
     0
 10
184.986154
 20
86.105062
 30
0.0
 11
184.836154
 21
86.255062
 31
0.0
  0
TEXT
  8
0
  6
BYBLOCK
 62
     0
 10
184.961154
 20
86.531252
 30
0.0
 40
0.1
  1
1.05
 50
90.0
  7
ROMANS
 72
     1
 11
184.911154
 21
86.705062
 31
0.0
 73
     2
  0
POINT
  8
DEFPOINTS
  6
BYBLOCK
 62
     0
 10
184.583409
 20
87.230062
 30
0.0
  0
POINT
  8
DEFPOINTS
  6
BYBLOCK
 62
     0
 10
184.583409
 20
86.180062
 30
0.0
  0
POINT
  8
DEFPOINTS
  6
BYBLOCK
 62
     0
 10
184.911154
 20
86.180062
 30
0.0
  0
ENDBLK
  8
0
  0
BLOCK
  8
0
  2
*D34
 70
    65
 10
0.0
 20
0.0
 30
0.0
  3
*D
  0
LINE
  8
0
  6
BYBLOCK
 62
     0
 10
183.983409
 20
86.030062
 30
0.0
 11
184.936154
 21
86.030062
 31
0.0
  0
LINE
  8
0
  6
BYBLOCK
 62
     0
 10
184.183409
 20
86.180062
 30
0.0
 11
184.936154
 21
86.180062
 31
0.0
  0
LINE
  8
0
  6
BYBLOCK
 62
     0
 10
184.911154
 20
86.030062
 30
0.0
 11
184.911154
 21
85.880062
 31
0.0
  0
LINE
  8
0
  6
BYBLOCK
 62
     0
 10
184.911154
 20
86.180062
 30
0.0
 11
184.911154
 21
86.330062
 31
0.0
  0
LINE
  8
0
  6
BYBLOCK
 62
     0
 10
184.986154
 20
85.955062
 30
0.0
 11
184.836154
 21
86.105062
 31
0.0
  0
LINE
  8
0
  6
BYBLOCK
 62
     0
 10
184.986154
 20
86.105062
 30
0.0
 11
184.836154
 21
86.255062
 31
0.0
  0
TEXT
  8
0
  6
BYBLOCK
 62
     0
 10
184.884253
 20
85.58514
 30
0.0
 40
0.1
  1
0.15
 50
90.0
  7
ROMANS
 72
     1
 11
184.834253
 21
85.751807
 31
0.0
 73
     2
  0
POINT
  8
DEFPOINTS
  6
BYBLOCK
 62
     0
 10
183.933409
 20
86.030062
 30
0.0
  0
POINT
  8
DEFPOINTS
  6
BYBLOCK
 62
     0
 10
184.133409
 20
86.180062
 30
0.0
  0
POINT
  8
DEFPOINTS
  6
BYBLOCK
 62
     0
 10
184.911154
 20
86.180062
 30
0.0
  0
ENDBLK
  8
0
  0
BLOCK
  8
0
  2
*D35
 70
    65
 10
0.0
 20
0.0
 30
0.0
  3
*D
  0
LINE
  8
0
  6
BYBLOCK
 62
     0
 10
184.663088
 20
87.780062
 30
0.0
 11
184.663088
 21
88.082796
 31
0.0
  0
LINE
  8
0
  6
BYBLOCK
 62
     0
 10
184.933088
 20
87.780062
 30
0.0
 11
184.933088
 21
88.082796
 31
0.0
  0
LINE
  8
0
  6
BYBLOCK
 62
     0
 10
184.663088
 20
88.057796
 30
0.0
 11
184.563088
 21
88.057796
 31
0.0
  0
LINE
  8
0
  6
BYBLOCK
 62
     0
 10
184.933088
 20
88.057796
 30
0.0
 11
185.033088
 21
88.057796
 31
0.0
  0
LINE
  8
0
  6
BYBLOCK
 62
     0
 10
184.613088
 20
88.007796
 30
0.0
 11
184.713088
 21
88.107796
 31
0.0
  0
LINE
  8
0
  6
BYBLOCK
 62
     0
 10
184.883088
 20
88.007796
 30
0.0
 11
184.983088
 21
88.107796
 31
0.0
  0
TEXT
  8
0
  6
BYBLOCK
 62
     0
 10
185.021302
 20
88.007796
 30
0.0
 40
0.1
  1
0.27
  7
ROMANS
 72
     1
 11
185.187969
 21
88.057796
 31
0.0
 73
     2
  0
POINT
  8
DEFPOINTS
  6
BYBLOCK
 62
     0
 10
184.663088
 20
87.730062
 30
0.0
  0
POINT
  8
DEFPOINTS
  6
BYBLOCK
 62
     0
 10
184.933088
 20
87.730062
 30
0.0
  0
POINT
  8
DEFPOINTS
  6
BYBLOCK
 62
     0
 10
184.933088
 20
88.057796
 30
0.0
  0
ENDBLK
  8
0
  0
BLOCK
  8
0
  2
*D36
 70
    65
 10
0.0
 20
0.0
 30
0.0
  3
*D
  0
LINE
  8
0
  6
BYBLOCK
 62
     0
 10
184.113259
 20
87.265936
 30
0.0
 11
183.950488
 21
87.433589
 31
0.0
  0
LINE
  8
0
  6
BYBLOCK
 62
     0
 10
184.628259
 20
87.765936
 30
0.0
 11
184.465488
 21
87.933589
 31
0.0
  0
LINE
  8
0
  6
BYBLOCK
 62
     0
 10
183.967903
 20
87.415652
 30
0.0
 11
184.114279
 21
87.557765
 31
0.0
  0
LINE
  8
0
  6
BYBLOCK
 62
     0
 10
184.482903
 20
87.915652
 30
0.0
 11
184.336526
 21
87.77354
 31
0.0
  0
LINE
  8
0
  6
BYBLOCK
 62
     0
 10
183.966858
 20
87.344949
 30
0.0
 11
183.968948
 21
87.486355
 31
0.0
  0
LINE
  8
0
  6
BYBLOCK
 62
     0
 10
184.481858
 20
87.844949
 30
0.0
 11
184.483948
 21
87.986355
 31
0.0
  0
TEXT
  8
0
  6
BYBLOCK
 62
     0
 10
184.140652
 20
87.513682
 30
0.0
 40
0.1
  1
0.72
 50
44.153326
  7
ROMANS
 72
     1
 11
184.225403
 21
87.665652
 31
0.0
 73
     2
  0
POINT
  8
DEFPOINTS
  6
BYBLOCK
 62
     0
 10
184.148088
 20
87.230062
 30
0.0
  0
POINT
  8
DEFPOINTS
  6
BYBLOCK
 62
     0
 10
184.663088
 20
87.730062
 30
0.0
  0
POINT
  8
DEFPOINTS
  6
BYBLOCK
 62
     0
 10
184.482903
 20
87.915652
 30
0.0
  0
ENDBLK
  8
0
  0
BLOCK
  8
0
  2
*D37
 70
    65
 10
0.0
 20
0.0
 30
0.0
  3
*D
  0
LINE
  8
0
  6
BYBLOCK
 62
     0
 10
185.482917
 20
87.265936
 30
0.0
 11
185.650073
 21
87.438107
 31
0.0
  0
LINE
  8
0
  6
BYBLOCK
 62
     0
 10
184.967917
 20
87.765936
 30
0.0
 11
185.135073
 21
87.938107
 31
0.0
  0
LINE
  8
0
  6
BYBLOCK
 62
     0
 10
185.632659
 20
87.42017
 30
0.0
 11
185.486283
 21
87.562283
 31
0.0
  0
LINE
  8
0
  6
BYBLOCK
 62
     0
 10
185.117659
 20
87.92017
 30
0.0
 11
185.264035
 21
87.778057
 31
0.0
  0
LINE
  8
0
  6
BYBLOCK
 62
     0
 10
185.561956
 20
87.419125
 30
0.0
 11
185.703362
 21
87.421215
 31
0.0
  0
LINE
  8
0
  6
BYBLOCK
 62
     0
 10
185.046956
 20
87.919125
 30
0.0
 11
185.188362
 21
87.921215
 31
0.0
  0
TEXT
  8
0
  6
BYBLOCK
 62
     0
 10
185.22075
 20
87.750393
 30
0.0
 40
0.1
  1
0.72
 50
315.846674
  7
ROMANS
 72
     1
 11
185.375159
 21
87.67017
 31
0.0
 73
     2
  0
POINT
  8
DEFPOINTS
  6
BYBLOCK
 62
     0
 10
185.448088
 20
87.230062
 30
0.0
  0
POINT
  8
DEFPOINTS
  6
BYBLOCK
 62
     0
 10
184.933088
 20
87.730062
 30
0.0
  0
POINT
  8
DEFPOINTS
  6
BYBLOCK
 62
     0
 10
185.117659
 20
87.92017
 30
0.0
  0
ENDBLK
  8
0
  0
BLOCK
  8
0
  2
*D38
 70
    65
 10
0.0
 20
0.0
 30
0.0
  3
*D
  0
LINE
  8
0
  6
BYBLOCK
 62
     0
 10
184.848088
 20
86.030062
 30
0.0
 11
186.080974
 21
86.030062
 31
0.0
  0
LINE
  8
0
  6
BYBLOCK
 62
     0
 10
185.567664
 20
87.730062
 30
0.0
 11
186.080974
 21
87.730062
 31
0.0
  0
LINE
  8
0
  6
BYBLOCK
 62
     0
 10
186.055974
 20
86.030062
 30
0.0
 11
186.055974
 21
86.732324
 31
0.0
  0
LINE
  8
0
  6
BYBLOCK
 62
     0
 10
186.055974
 20
87.730062
 30
0.0
 11
186.055974
 21
87.0278
 31
0.0
  0
LINE
  8
0
  6
BYBLOCK
 62
     0
 10
186.105974
 20
85.980062
 30
0.0
 11
186.005974
 21
86.080062
 31
0.0
  0
LINE
  8
0
  6
BYBLOCK
 62
     0
 10
186.105974
 20
87.680062
 30
0.0
 11
186.005974
 21
87.780062
 31
0.0
  0
TEXT
  8
0
  6
BYBLOCK
 62
     0
 10
186.105974
 20
86.706252
 30
0.0
 40
0.1
  1
1.70
 50
90.0
  7
ROMANS
 72
     1
 11
186.055974
 21
86.880062
 31
0.0
 73
     2
  0
POINT
  8
DEFPOINTS
  6
BYBLOCK
 62
     0
 10
184.798088
 20
86.030062
 30
0.0
  0
POINT
  8
DEFPOINTS
  6
BYBLOCK
 62
     0
 10
185.517664
 20
87.730062
 30
0.0
  0
POINT
  8
DEFPOINTS
  6
BYBLOCK
 62
     0
 10
186.055974
 20
87.730062
 30
0.0
  0
ENDBLK
  8
0
  0
BLOCK
  8
0
  2
*D39
 70
    65
 10
0.0
 20
0.0
 30
0.0
  3
*D
  0
LINE
  8
0
  6
BYBLOCK
 62
     0
 10
185.498088
 20
87.230062
 30
0.0
 11
185.800833
 21
87.230062
 31
0.0
  0
LINE
  8
0
  6
BYBLOCK
 62
     0
 10
185.498088
 20
86.180062
 30
0.0
 11
185.800833
 21
86.180062
 31
0.0
  0
LINE
  8
0
  6
BYBLOCK
 62
     0
 10
185.775833
 20
87.230062
 30
0.0
 11
185.775833
 21
86.8528
 31
0.0
  0
LINE
  8
0
  6
BYBLOCK
 62
     0
 10
185.775833
 20
86.180062
 30
0.0
 11
185.775833
 21
86.557324
 31
0.0
  0
LINE
  8
0
  6
BYBLOCK
 62
     0
 10
185.825833
 20
87.180062
 30
0.0
 11
185.725833
 21
87.280062
 31
0.0
  0
LINE
  8
0
  6
BYBLOCK
 62
     0
 10
185.825833
 20
86.130062
 30
0.0
 11
185.725833
 21
86.230062
 31
0.0
  0
TEXT
  8
0
  6
BYBLOCK
 62
     0
 10
185.825833
 20
86.531252
 30
0.0
 40
0.1
  1
1.05
 50
90.0
  7
ROMANS
 72
     1
 11
185.775833
 21
86.705062
 31
0.0
 73
     2
  0
POINT
  8
DEFPOINTS
  6
BYBLOCK
 62
     0
 10
185.448088
 20
87.230062
 30
0.0
  0
POINT
  8
DEFPOINTS
  6
BYBLOCK
 62
     0
 10
185.448088
 20
86.180062
 30
0.0
  0
POINT
  8
DEFPOINTS
  6
BYBLOCK
 62
     0
 10
185.775833
 20
86.180062
 30
0.0
  0
ENDBLK
  8
0
  0
BLOCK
  8
0
  2
*D40
 70
    65
 10
0.0
 20
0.0
 30
0.0
  3
*D
  0
LINE
  8
0
  6
BYBLOCK
 62
     0
 10
184.848088
 20
86.030062
 30
0.0
 11
185.800833
 21
86.030062
 31
0.0
  0
LINE
  8
0
  6
BYBLOCK
 62
     0
 10
185.048088
 20
86.180062
 30
0.0
 11
185.800833
 21
86.180062
 31
0.0
  0
LINE
  8
0
  6
BYBLOCK
 62
     0
 10
185.775833
 20
86.030062
 30
0.0
 11
185.775833
 21
86.180062
 31
0.0
  0
LINE
  8
0
  6
BYBLOCK
 62
     0
 10
185.825833
 20
85.980062
 30
0.0
 11
185.725833
 21
86.080062
 31
0.0
  0
LINE
  8
0
  6
BYBLOCK
 62
     0
 10
185.825833
 20
86.130062
 30
0.0
 11
185.725833
 21
86.230062
 31
0.0
  0
TEXT
  8
0
  6
BYBLOCK
 62
     0
 10
185.748932
 20
85.58514
 30
0.0
 40
0.1
  1
0.15
 50
90.0
  7
ROMANS
 72
     1
 11
185.698932
 21
85.751807
 31
0.0
 73
     2
  0
POINT
  8
DEFPOINTS
  6
BYBLOCK
 62
     0
 10
184.798088
 20
86.030062
 30
0.0
  0
POINT
  8
DEFPOINTS
  6
BYBLOCK
 62
     0
 10
184.998088
 20
86.180062
 30
0.0
  0
POINT
  8
DEFPOINTS
  6
BYBLOCK
 62
     0
 10
185.775833
 20
86.180062
 30
0.0
  0
ENDBLK
  8
0
  0
BLOCK
  8
0
  2
*D41
 70
    65
 10
0.0
 20
0.0
 30
0.0
  3
*D
  0
LINE
  8
0
  6
BYBLOCK
 62
     0
 10
184.148088
 20
86.130062
 30
0.0
 11
184.148088
 21
85.578564
 31
0.0
  0
LINE
  8
0
  6
BYBLOCK
 62
     0
 10
185.448088
 20
86.130062
 30
0.0
 11
185.448088
 21
85.578564
 31
0.0
  0
LINE
  8
0
  6
BYBLOCK
 62
     0
 10
184.148088
 20
85.603564
 30
0.0
 11
184.65035
 21
85.603564
 31
0.0
  0
LINE
  8
0
  6
BYBLOCK
 62
     0
 10
185.448088
 20
85.603564
 30
0.0
 11
184.945826
 21
85.603564
 31
0.0
  0
LINE
  8
0
  6
BYBLOCK
 62
     0
 10
184.098088
 20
85.553564
 30
0.0
 11
184.198088
 21
85.653564
 31
0.0
  0
LINE
  8
0
  6
BYBLOCK
 62
     0
 10
185.398088
 20
85.553564
 30
0.0
 11
185.498088
 21
85.653564
 31
0.0
  0
TEXT
  8
0
  6
BYBLOCK
 62
     0
 10
184.624278
 20
85.553564
 30
0.0
 40
0.1
  1
1.30
  7
ROMANS
 72
     1
 11
184.798088
 21
85.603564
 31
0.0
 73
     2
  0
POINT
  8
DEFPOINTS
  6
BYBLOCK
 62
     0
 10
184.148088
 20
86.180062
 30
0.0
  0
POINT
  8
DEFPOINTS
  6
BYBLOCK
 62
     0
 10
185.448088
 20
86.180062
 30
0.0
  0
POINT
  8
DEFPOINTS
  6
BYBLOCK
 62
     0
 10
185.448088
 20
85.603564
 30
0.0
  0
ENDBLK
  8
0
  0
BLOCK
  8
0
  2
*D42
 70
    65
 10
0.0
 20
0.0
 30
0.0
  3
*D
  0
LINE
  8
0
  6
BYBLOCK
 62
     0
 10
184.598088
 20
86.130062
 30
0.0
 11
184.598088
 21
85.803673
 31
0.0
  0
LINE
  8
0
  6
BYBLOCK
 62
     0
 10
184.998088
 20
86.130062
 30
0.0
 11
184.998088
 21
85.803673
 31
0.0
  0
LINE
  8
0
  6
BYBLOCK
 62
     0
 10
184.598088
 20
85.828673
 30
0.0
 11
184.998088
 21
85.828673
 31
0.0
  0
LINE
  8
0
  6
BYBLOCK
 62
     0
 10
184.548088
 20
85.778673
 30
0.0
 11
184.648088
 21
85.878673
 31
0.0
  0
LINE
  8
0
  6
BYBLOCK
 62
     0
 10
184.948088
 20
85.778673
 30
0.0
 11
185.048088
 21
85.878673
 31
0.0
  0
TEXT
  8
0
  6
BYBLOCK
 62
     0
 10
185.054378
 20
85.778673
 30
0.0
 40
0.1
  1
0.40
  7
ROMANS
 72
     1
 11
185.221045
 21
85.828673
 31
0.0
 73
     2
  0
POINT
  8
DEFPOINTS
  6
BYBLOCK
 62
     0
 10
184.598088
 20
86.180062
 30
0.0
  0
POINT
  8
DEFPOINTS
  6
BYBLOCK
 62
     0
 10
184.998088
 20
86.180062
 30
0.0
  0
POINT
  8
DEFPOINTS
  6
BYBLOCK
 62
     0
 10
184.998088
 20
85.828673
 30
0.0
  0
ENDBLK
  8
0
  0
BLOCK
  8
0
  2
*D43
 70
    65
 10
0.0
 20
0.0
 30
0.0
  3
*D
  0
LINE
  8
0
  6
BYBLOCK
 62
     0
 10
184.663088
 20
87.780062
 30
0.0
 11
184.663088
 21
88.082796
 31
0.0
  0
LINE
  8
0
  6
BYBLOCK
 62
     0
 10
184.933088
 20
87.780062
 30
0.0
 11
184.933088
 21
88.082796
 31
0.0
  0
LINE
  8
0
  6
BYBLOCK
 62
     0
 10
184.663088
 20
88.057796
 30
0.0
 11
184.588088
 21
88.057796
 31
0.0
  0
LINE
  8
0
  6
BYBLOCK
 62
     0
 10
184.933088
 20
88.057796
 30
0.0
 11
185.008088
 21
88.057796
 31
0.0
  0
LINE
  8
0
  6
BYBLOCK
 62
     0
 10
184.625588
 20
88.020296
 30
0.0
 11
184.700588
 21
88.095296
 31
0.0
  0
LINE
  8
0
  6
BYBLOCK
 62
     0
 10
184.895588
 20
88.020296
 30
0.0
 11
184.970588
 21
88.095296
 31
0.0
  0
TEXT
  8
0
  6
BYBLOCK
 62
     0
 10
184.996302
 20
88.007796
 30
0.0
 40
0.1
  1
0.27
  7
ROMANS
 72
     1
 11
185.162969
 21
88.057796
 31
0.0
 73
     2
  0
POINT
  8
DEFPOINTS
  6
BYBLOCK
 62
     0
 10
184.663088
 20
87.730062
 30
0.0
  0
POINT
  8
DEFPOINTS
  6
BYBLOCK
 62
     0
 10
184.933088
 20
87.730062
 30
0.0
  0
POINT
  8
DEFPOINTS
  6
BYBLOCK
 62
     0
 10
184.933088
 20
88.057796
 30
0.0
  0
ENDBLK
  8
0
  0
BLOCK
  8
0
  2
*D44
 70
    65
 10
0.0
 20
0.0
 30
0.0
  3
*D
  0
LINE
  8
0
  6
BYBLOCK
 62
     0
 10
184.848088
 20
86.030062
 30
0.0
 11
186.080974
 21
86.030062
 31
0.0
  0
LINE
  8
0
  6
BYBLOCK
 62
     0
 10
185.567664
 20
87.730062
 30
0.0
 11
186.080974
 21
87.730062
 31
0.0
  0
LINE
  8
0
  6
BYBLOCK
 62
     0
 10
186.055974
 20
86.030062
 30
0.0
 11
186.055974
 21
86.732324
 31
0.0
  0
LINE
  8
0
  6
BYBLOCK
 62
     0
 10
186.055974
 20
87.730062
 30
0.0
 11
186.055974
 21
87.0278
 31
0.0
  0
LINE
  8
0
  6
BYBLOCK
 62
     0
 10
186.093474
 20
85.992562
 30
0.0
 11
186.018474
 21
86.067562
 31
0.0
  0
LINE
  8
0
  6
BYBLOCK
 62
     0
 10
186.093474
 20
87.692562
 30
0.0
 11
186.018474
 21
87.767562
 31
0.0
  0
TEXT
  8
0
  6
BYBLOCK
 62
     0
 10
186.105974
 20
86.706252
 30
0.0
 40
0.1
  1
1.70
 50
90.0
  7
ROMANS
 72
     1
 11
186.055974
 21
86.880062
 31
0.0
 73
     2
  0
POINT
  8
DEFPOINTS
  6
BYBLOCK
 62
     0
 10
184.798088
 20
86.030062
 30
0.0
  0
POINT
  8
DEFPOINTS
  6
BYBLOCK
 62
     0
 10
185.517664
 20
87.730062
 30
0.0
  0
POINT
  8
DEFPOINTS
  6
BYBLOCK
 62
     0
 10
186.055974
 20
87.730062
 30
0.0
  0
ENDBLK
  8
0
  0
BLOCK
  8
0
  2
*D45
 70
    65
 10
0.0
 20
0.0
 30
0.0
  3
*D
  0
LINE
  8
0
  6
BYBLOCK
 62
     0
 10
185.482917
 20
87.265936
 30
0.0
 11
185.650073
 21
87.438107
 31
0.0
  0
LINE
  8
0
  6
BYBLOCK
 62
     0
 10
184.967917
 20
87.765936
 30
0.0
 11
185.135073
 21
87.938107
 31
0.0
  0
LINE
  8
0
  6
BYBLOCK
 62
     0
 10
185.632659
 20
87.42017
 30
0.0
 11
185.486283
 21
87.562283
 31
0.0
  0
LINE
  8
0
  6
BYBLOCK
 62
     0
 10
185.117659
 20
87.92017
 30
0.0
 11
185.264035
 21
87.778057
 31
0.0
  0
LINE
  8
0
  6
BYBLOCK
 62
     0
 10
185.579632
 20
87.419386
 30
0.0
 11
185.685686
 21
87.420954
 31
0.0
  0
LINE
  8
0
  6
BYBLOCK
 62
     0
 10
185.064632
 20
87.919386
 30
0.0
 11
185.170686
 21
87.920954
 31
0.0
  0
TEXT
  8
0
  6
BYBLOCK
 62
     0
 10
185.22075
 20
87.750393
 30
0.0
 40
0.1
  1
0.72
 50
315.846674
  7
ROMANS
 72
     1
 11
185.375159
 21
87.67017
 31
0.0
 73
     2
  0
POINT
  8
DEFPOINTS
  6
BYBLOCK
 62
     0
 10
185.448088
 20
87.230062
 30
0.0
  0
POINT
  8
DEFPOINTS
  6
BYBLOCK
 62
     0
 10
184.933088
 20
87.730062
 30
0.0
  0
POINT
  8
DEFPOINTS
  6
BYBLOCK
 62
     0
 10
185.117659
 20
87.92017
 30
0.0
  0
ENDBLK
  8
0
  0
BLOCK
  8
0
  2
*D46
 70
    65
 10
0.0
 20
0.0
 30
0.0
  3
*D
  0
LINE
  8
0
  6
BYBLOCK
 62
     0
 10
184.113259
 20
87.265936
 30
0.0
 11
183.950488
 21
87.433589
 31
0.0
  0
LINE
  8
0
  6
BYBLOCK
 62
     0
 10
184.628259
 20
87.765936
 30
0.0
 11
184.465488
 21
87.933589
 31
0.0
  0
LINE
  8
0
  6
BYBLOCK
 62
     0
 10
183.967903
 20
87.415652
 30
0.0
 11
184.114279
 21
87.557765
 31
0.0
  0
LINE
  8
0
  6
BYBLOCK
 62
     0
 10
184.482903
 20
87.915652
 30
0.0
 11
184.336526
 21
87.77354
 31
0.0
  0
LINE
  8
0
  6
BYBLOCK
 62
     0
 10
183.967119
 20
87.362625
 30
0.0
 11
183.968686
 21
87.46868
 31
0.0
  0
LINE
  8
0
  6
BYBLOCK
 62
     0
 10
184.482119
 20
87.862625
 30
0.0
 11
184.483686
 21
87.96868
 31
0.0
  0
TEXT
  8
0
  6
BYBLOCK
 62
     0
 10
184.140652
 20
87.513682
 30
0.0
 40
0.1
  1
0.72
 50
44.153326
  7
ROMANS
 72
     1
 11
184.225403
 21
87.665652
 31
0.0
 73
     2
  0
POINT
  8
DEFPOINTS
  6
BYBLOCK
 62
     0
 10
184.148088
 20
87.230062
 30
0.0
  0
POINT
  8
DEFPOINTS
  6
BYBLOCK
 62
     0
 10
184.663088
 20
87.730062
 30
0.0
  0
POINT
  8
DEFPOINTS
  6
BYBLOCK
 62
     0
 10
184.482903
 20
87.915652
 30
0.0
  0
ENDBLK
  8
0
  0
BLOCK
  8
0
  2
*D47
 70
    65
 10
0.0
 20
0.0
 30
0.0
  3
*D
  0
LINE
  8
0
  6
BYBLOCK
 62
     0
 10
184.848088
 20
86.030062
 30
0.0
 11
185.800833
 21
86.030062
 31
0.0
  0
LINE
  8
0
  6
BYBLOCK
 62
     0
 10
185.048088
 20
86.180062
 30
0.0
 11
185.800833
 21
86.180062
 31
0.0
  0
LINE
  8
0
  6
BYBLOCK
 62
     0
 10
185.775833
 20
86.030062
 30
0.0
 11
185.775833
 21
86.180062
 31
0.0
  0
LINE
  8
0
  6
BYBLOCK
 62
     0
 10
185.813333
 20
85.992562
 30
0.0
 11
185.738333
 21
86.067562
 31
0.0
  0
LINE
  8
0
  6
BYBLOCK
 62
     0
 10
185.813333
 20
86.142562
 30
0.0
 11
185.738333
 21
86.217562
 31
0.0
  0
TEXT
  8
0
  6
BYBLOCK
 62
     0
 10
185.748932
 20
85.58514
 30
0.0
 40
0.1
  1
0.15
 50
90.0
  7
ROMANS
 72
     1
 11
185.698932
 21
85.751807
 31
0.0
 73
     2
  0
POINT
  8
DEFPOINTS
  6
BYBLOCK
 62
     0
 10
184.798088
 20
86.030062
 30
0.0
  0
POINT
  8
DEFPOINTS
  6
BYBLOCK
 62
     0
 10
184.998088
 20
86.180062
 30
0.0
  0
POINT
  8
DEFPOINTS
  6
BYBLOCK
 62
     0
 10
185.775833
 20
86.180062
 30
0.0
  0
ENDBLK
  8
0
  0
BLOCK
  8
0
  2
*D48
 70
    65
 10
0.0
 20
0.0
 30
0.0
  3
*D
  0
LINE
  8
0
  6
BYBLOCK
 62
     0
 10
185.498088
 20
87.230062
 30
0.0
 11
185.800833
 21
87.230062
 31
0.0
  0
LINE
  8
0
  6
BYBLOCK
 62
     0
 10
185.498088
 20
86.180062
 30
0.0
 11
185.800833
 21
86.180062
 31
0.0
  0
LINE
  8
0
  6
BYBLOCK
 62
     0
 10
185.775833
 20
87.230062
 30
0.0
 11
185.775833
 21
86.8528
 31
0.0
  0
LINE
  8
0
  6
BYBLOCK
 62
     0
 10
185.775833
 20
86.180062
 30
0.0
 11
185.775833
 21
86.557324
 31
0.0
  0
LINE
  8
0
  6
BYBLOCK
 62
     0
 10
185.813333
 20
87.192562
 30
0.0
 11
185.738333
 21
87.267562
 31
0.0
  0
LINE
  8
0
  6
BYBLOCK
 62
     0
 10
185.813333
 20
86.142562
 30
0.0
 11
185.738333
 21
86.217562
 31
0.0
  0
TEXT
  8
0
  6
BYBLOCK
 62
     0
 10
185.825833
 20
86.531252
 30
0.0
 40
0.1
  1
1.05
 50
90.0
  7
ROMANS
 72
     1
 11
185.775833
 21
86.705062
 31
0.0
 73
     2
  0
POINT
  8
DEFPOINTS
  6
BYBLOCK
 62
     0
 10
185.448088
 20
87.230062
 30
0.0
  0
POINT
  8
DEFPOINTS
  6
BYBLOCK
 62
     0
 10
185.448088
 20
86.180062
 30
0.0
  0
POINT
  8
DEFPOINTS
  6
BYBLOCK
 62
     0
 10
185.775833
 20
86.180062
 30
0.0
  0
ENDBLK
  8
0
  0
BLOCK
  8
0
  2
*D49
 70
    65
 10
0.0
 20
0.0
 30
0.0
  3
*D
  0
LINE
  8
0
  6
BYBLOCK
 62
     0
 10
184.598088
 20
86.130062
 30
0.0
 11
184.598088
 21
85.803673
 31
0.0
  0
LINE
  8
0
  6
BYBLOCK
 62
     0
 10
184.998088
 20
86.130062
 30
0.0
 11
184.998088
 21
85.803673
 31
0.0
  0
LINE
  8
0
  6
BYBLOCK
 62
     0
 10
184.598088
 20
85.828673
 30
0.0
 11
184.998088
 21
85.828673
 31
0.0
  0
LINE
  8
0
  6
BYBLOCK
 62
     0
 10
184.560588
 20
85.791173
 30
0.0
 11
184.635588
 21
85.866173
 31
0.0
  0
LINE
  8
0
  6
BYBLOCK
 62
     0
 10
184.960588
 20
85.791173
 30
0.0
 11
185.035588
 21
85.866173
 31
0.0
  0
TEXT
  8
0
  6
BYBLOCK
 62
     0
 10
185.054378
 20
85.778673
 30
0.0
 40
0.1
  1
0.40
  7
ROMANS
 72
     1
 11
185.221045
 21
85.828673
 31
0.0
 73
     2
  0
POINT
  8
DEFPOINTS
  6
BYBLOCK
 62
     0
 10
184.598088
 20
86.180062
 30
0.0
  0
POINT
  8
DEFPOINTS
  6
BYBLOCK
 62
     0
 10
184.998088
 20
86.180062
 30
0.0
  0
POINT
  8
DEFPOINTS
  6
BYBLOCK
 62
     0
 10
184.998088
 20
85.828673
 30
0.0
  0
ENDBLK
  8
0
  0
BLOCK
  8
0
  2
*D50
 70
    65
 10
0.0
 20
0.0
 30
0.0
  3
*D
  0
LINE
  8
0
  6
BYBLOCK
 62
     0
 10
184.148088
 20
86.130062
 30
0.0
 11
184.148088
 21
85.578564
 31
0.0
  0
LINE
  8
0
  6
BYBLOCK
 62
     0
 10
185.448088
 20
86.130062
 30
0.0
 11
185.448088
 21
85.578564
 31
0.0
  0
LINE
  8
0
  6
BYBLOCK
 62
     0
 10
184.148088
 20
85.603564
 30
0.0
 11
184.65035
 21
85.603564
 31
0.0
  0
LINE
  8
0
  6
BYBLOCK
 62
     0
 10
185.448088
 20
85.603564
 30
0.0
 11
184.945826
 21
85.603564
 31
0.0
  0
LINE
  8
0
  6
BYBLOCK
 62
     0
 10
184.110588
 20
85.566064
 30
0.0
 11
184.185588
 21
85.641064
 31
0.0
  0
LINE
  8
0
  6
BYBLOCK
 62
     0
 10
185.410588
 20
85.566064
 30
0.0
 11
185.485588
 21
85.641064
 31
0.0
  0
TEXT
  8
0
  6
BYBLOCK
 62
     0
 10
184.624278
 20
85.553564
 30
0.0
 40
0.1
  1
1.30
  7
ROMANS
 72
     1
 11
184.798088
 21
85.603564
 31
0.0
 73
     2
  0
POINT
  8
DEFPOINTS
  6
BYBLOCK
 62
     0
 10
184.148088
 20
86.180062
 30
0.0
  0
POINT
  8
DEFPOINTS
  6
BYBLOCK
 62
     0
 10
185.448088
 20
86.180062
 30
0.0
  0
POINT
  8
DEFPOINTS
  6
BYBLOCK
 62
     0
 10
185.448088
 20
85.603564
 30
0.0
  0
ENDBLK
  8
0
  0
BLOCK
  8
0
  2
*D51
 70
    65
 10
0.0
 20
0.0
 30
0.0
  3
*D
  0
LINE
  8
0
  6
BYBLOCK
 62
     0
 10
184.663088
 20
87.780062
 30
0.0
 11
184.663088
 21
88.082796
 31
0.0
  0
LINE
  8
0
  6
BYBLOCK
 62
     0
 10
184.933088
 20
87.780062
 30
0.0
 11
184.933088
 21
88.082796
 31
0.0
  0
LINE
  8
0
  6
BYBLOCK
 62
     0
 10
184.700588
 20
88.057796
 30
0.0
 11
184.588088
 21
88.057796
 31
0.0
  0
LINE
  8
0
  6
BYBLOCK
 62
     0
 10
184.895588
 20
88.057796
 30
0.0
 11
185.008088
 21
88.057796
 31
0.0
  0
LINE
  8
0
  6
BYBLOCK
 62
     0
 10
184.625588
 20
88.020296
 30
0.0
 11
184.700588
 21
88.095296
 31
0.0
  0
LINE
  8
0
  6
BYBLOCK
 62
     0
 10
184.895588
 20
88.020296
 30
0.0
 11
184.970588
 21
88.095296
 31
0.0
  0
TEXT
  8
0
  6
BYBLOCK
 62
     0
 10
184.996302
 20
88.007796
 30
0.0
 40
0.1
  1
0.27
  7
ROMANS
 72
     1
 11
185.162969
 21
88.057796
 31
0.0
 73
     2
  0
POINT
  8
DEFPOINTS
  6
BYBLOCK
 62
     0
 10
184.663088
 20
87.730062
 30
0.0
  0
POINT
  8
DEFPOINTS
  6
BYBLOCK
 62
     0
 10
184.933088
 20
87.730062
 30
0.0
  0
POINT
  8
DEFPOINTS
  6
BYBLOCK
 62
     0
 10
184.933088
 20
88.057796
 30
0.0
  0
ENDBLK
  8
0
  0
BLOCK
  8
0
  2
*D52
 70
    65
 10
0.0
 20
0.0
 30
0.0
  3
*D
  0
LINE
  8
0
  6
BYBLOCK
 62
     0
 10
184.113259
 20
87.265936
 30
0.0
 11
183.950488
 21
87.433589
 31
0.0
  0
LINE
  8
0
  6
BYBLOCK
 62
     0
 10
184.628259
 20
87.765936
 30
0.0
 11
184.465488
 21
87.933589
 31
0.0
  0
LINE
  8
0
  6
BYBLOCK
 62
     0
 10
183.940997
 20
87.389531
 30
0.0
 11
184.114279
 21
87.557765
 31
0.0
  0
LINE
  8
0
  6
BYBLOCK
 62
     0
 10
184.509808
 20
87.941774
 30
0.0
 11
184.336526
 21
87.77354
 31
0.0
  0
LINE
  8
0
  6
BYBLOCK
 62
     0
 10
183.967119
 20
87.362625
 30
0.0
 11
183.968686
 21
87.46868
 31
0.0
  0
LINE
  8
0
  6
BYBLOCK
 62
     0
 10
184.482119
 20
87.862625
 30
0.0
 11
184.483686
 21
87.96868
 31
0.0
  0
TEXT
  8
0
  6
BYBLOCK
 62
     0
 10
184.140652
 20
87.513682
 30
0.0
 40
0.1
  1
0.72
 50
44.153326
  7
ROMANS
 72
     1
 11
184.225403
 21
87.665652
 31
0.0
 73
     2
  0
POINT
  8
DEFPOINTS
  6
BYBLOCK
 62
     0
 10
184.148088
 20
87.230062
 30
0.0
  0
POINT
  8
DEFPOINTS
  6
BYBLOCK
 62
     0
 10
184.663088
 20
87.730062
 30
0.0
  0
POINT
  8
DEFPOINTS
  6
BYBLOCK
 62
     0
 10
184.482903
 20
87.915652
 30
0.0
  0
ENDBLK
  8
0
  0
BLOCK
  8
0
  2
*D53
 70
    65
 10
0.0
 20
0.0
 30
0.0
  3
*D
  0
LINE
  8
0
  6
BYBLOCK
 62
     0
 10
185.482917
 20
87.265936
 30
0.0
 11
185.650073
 21
87.438107
 31
0.0
  0
LINE
  8
0
  6
BYBLOCK
 62
     0
 10
184.967917
 20
87.765936
 30
0.0
 11
185.135073
 21
87.938107
 31
0.0
  0
LINE
  8
0
  6
BYBLOCK
 62
     0
 10
185.659564
 20
87.394048
 30
0.0
 11
185.486283
 21
87.562283
 31
0.0
  0
LINE
  8
0
  6
BYBLOCK
 62
     0
 10
185.090753
 20
87.946292
 30
0.0
 11
185.264035
 21
87.778057
 31
0.0
  0
LINE
  8
0
  6
BYBLOCK
 62
     0
 10
185.579632
 20
87.419386
 30
0.0
 11
185.685686
 21
87.420954
 31
0.0
  0
LINE
  8
0
  6
BYBLOCK
 62
     0
 10
185.064632
 20
87.919386
 30
0.0
 11
185.170686
 21
87.920954
 31
0.0
  0
TEXT
  8
0
  6
BYBLOCK
 62
     0
 10
185.22075
 20
87.750393
 30
0.0
 40
0.1
  1
0.72
 50
315.846674
  7
ROMANS
 72
     1
 11
185.375159
 21
87.67017
 31
0.0
 73
     2
  0
POINT
  8
DEFPOINTS
  6
BYBLOCK
 62
     0
 10
185.448088
 20
87.230062
 30
0.0
  0
POINT
  8
DEFPOINTS
  6
BYBLOCK
 62
     0
 10
184.933088
 20
87.730062
 30
0.0
  0
POINT
  8
DEFPOINTS
  6
BYBLOCK
 62
     0
 10
185.117659
 20
87.92017
 30
0.0
  0
ENDBLK
  8
0
  0
BLOCK
  8
0
  2
*D54
 70
    65
 10
0.0
 20
0.0
 30
0.0
  3
*D
  0
LINE
  8
0
  6
BYBLOCK
 62
     0
 10
184.848088
 20
86.030062
 30
0.0
 11
186.080974
 21
86.030062
 31
0.0
  0
LINE
  8
0
  6
BYBLOCK
 62
     0
 10
185.567664
 20
87.730062
 30
0.0
 11
186.080974
 21
87.730062
 31
0.0
  0
LINE
  8
0
  6
BYBLOCK
 62
     0
 10
186.055974
 20
85.992562
 30
0.0
 11
186.055974
 21
86.732324
 31
0.0
  0
LINE
  8
0
  6
BYBLOCK
 62
     0
 10
186.055974
 20
87.767562
 30
0.0
 11
186.055974
 21
87.0278
 31
0.0
  0
LINE
  8
0
  6
BYBLOCK
 62
     0
 10
186.093474
 20
85.992562
 30
0.0
 11
186.018474
 21
86.067562
 31
0.0
  0
LINE
  8
0
  6
BYBLOCK
 62
     0
 10
186.093474
 20
87.692562
 30
0.0
 11
186.018474
 21
87.767562
 31
0.0
  0
TEXT
  8
0
  6
BYBLOCK
 62
     0
 10
186.105974
 20
86.706252
 30
0.0
 40
0.1
  1
1.70
 50
90.0
  7
ROMANS
 72
     1
 11
186.055974
 21
86.880062
 31
0.0
 73
     2
  0
POINT
  8
DEFPOINTS
  6
BYBLOCK
 62
     0
 10
184.798088
 20
86.030062
 30
0.0
  0
POINT
  8
DEFPOINTS
  6
BYBLOCK
 62
     0
 10
185.517664
 20
87.730062
 30
0.0
  0
POINT
  8
DEFPOINTS
  6
BYBLOCK
 62
     0
 10
186.055974
 20
87.730062
 30
0.0
  0
ENDBLK
  8
0
  0
BLOCK
  8
0
  2
*D55
 70
    65
 10
0.0
 20
0.0
 30
0.0
  3
*D
  0
LINE
  8
0
  6
BYBLOCK
 62
     0
 10
185.498088
 20
87.230062
 30
0.0
 11
185.800833
 21
87.230062
 31
0.0
  0
LINE
  8
0
  6
BYBLOCK
 62
     0
 10
185.498088
 20
86.180062
 30
0.0
 11
185.800833
 21
86.180062
 31
0.0
  0
LINE
  8
0
  6
BYBLOCK
 62
     0
 10
185.775833
 20
87.267562
 30
0.0
 11
185.775833
 21
86.8528
 31
0.0
  0
LINE
  8
0
  6
BYBLOCK
 62
     0
 10
185.775833
 20
86.142562
 30
0.0
 11
185.775833
 21
86.557324
 31
0.0
  0
LINE
  8
0
  6
BYBLOCK
 62
     0
 10
185.813333
 20
87.192562
 30
0.0
 11
185.738333
 21
87.267562
 31
0.0
  0
LINE
  8
0
  6
BYBLOCK
 62
     0
 10
185.813333
 20
86.142562
 30
0.0
 11
185.738333
 21
86.217562
 31
0.0
  0
TEXT
  8
0
  6
BYBLOCK
 62
     0
 10
185.825833
 20
86.531252
 30
0.0
 40
0.1
  1
1.05
 50
90.0
  7
ROMANS
 72
     1
 11
185.775833
 21
86.705062
 31
0.0
 73
     2
  0
POINT
  8
DEFPOINTS
  6
BYBLOCK
 62
     0
 10
185.448088
 20
87.230062
 30
0.0
  0
POINT
  8
DEFPOINTS
  6
BYBLOCK
 62
     0
 10
185.448088
 20
86.180062
 30
0.0
  0
POINT
  8
DEFPOINTS
  6
BYBLOCK
 62
     0
 10
185.775833
 20
86.180062
 30
0.0
  0
ENDBLK
  8
0
  0
BLOCK
  8
0
  2
*D56
 70
    65
 10
0.0
 20
0.0
 30
0.0
  3
*D
  0
LINE
  8
0
  6
BYBLOCK
 62
     0
 10
184.148088
 20
86.130062
 30
0.0
 11
184.148088
 21
85.578564
 31
0.0
  0
LINE
  8
0
  6
BYBLOCK
 62
     0
 10
185.448088
 20
86.130062
 30
0.0
 11
185.448088
 21
85.578564
 31
0.0
  0
LINE
  8
0
  6
BYBLOCK
 62
     0
 10
184.110588
 20
85.603564
 30
0.0
 11
184.65035
 21
85.603564
 31
0.0
  0
LINE
  8
0
  6
BYBLOCK
 62
     0
 10
185.485588
 20
85.603564
 30
0.0
 11
184.945826
 21
85.603564
 31
0.0
  0
LINE
  8
0
  6
BYBLOCK
 62
     0
 10
184.110588
 20
85.566064
 30
0.0
 11
184.185588
 21
85.641064
 31
0.0
  0
LINE
  8
0
  6
BYBLOCK
 62
     0
 10
185.410588
 20
85.566064
 30
0.0
 11
185.485588
 21
85.641064
 31
0.0
  0
TEXT
  8
0
  6
BYBLOCK
 62
     0
 10
184.624278
 20
85.553564
 30
0.0
 40
0.1
  1
1.30
  7
ROMANS
 72
     1
 11
184.798088
 21
85.603564
 31
0.0
 73
     2
  0
POINT
  8
DEFPOINTS
  6
BYBLOCK
 62
     0
 10
184.148088
 20
86.180062
 30
0.0
  0
POINT
  8
DEFPOINTS
  6
BYBLOCK
 62
     0
 10
185.448088
 20
86.180062
 30
0.0
  0
POINT
  8
DEFPOINTS
  6
BYBLOCK
 62
     0
 10
185.448088
 20
85.603564
 30
0.0
  0
ENDBLK
  8
0
  0
BLOCK
  8
0
  2
*D57
 70
    65
 10
0.0
 20
0.0
 30
0.0
  3
*D
  0
LINE
  8
0
  6
BYBLOCK
 62
     0
 10
184.598088
 20
86.130062
 30
0.0
 11
184.598088
 21
85.803673
 31
0.0
  0
LINE
  8
0
  6
BYBLOCK
 62
     0
 10
184.998088
 20
86.130062
 30
0.0
 11
184.998088
 21
85.803673
 31
0.0
  0
LINE
  8
0
  6
BYBLOCK
 62
     0
 10
184.560588
 20
85.828673
 30
0.0
 11
185.035588
 21
85.828673
 31
0.0
  0
LINE
  8
0
  6
BYBLOCK
 62
     0
 10
184.560588
 20
85.791173
 30
0.0
 11
184.635588
 21
85.866173
 31
0.0
  0
LINE
  8
0
  6
BYBLOCK
 62
     0
 10
184.960588
 20
85.791173
 30
0.0
 11
185.035588
 21
85.866173
 31
0.0
  0
TEXT
  8
0
  6
BYBLOCK
 62
     0
 10
185.054378
 20
85.778673
 30
0.0
 40
0.1
  1
0.40
  7
ROMANS
 72
     1
 11
185.221045
 21
85.828673
 31
0.0
 73
     2
  0
POINT
  8
DEFPOINTS
  6
BYBLOCK
 62
     0
 10
184.598088
 20
86.180062
 30
0.0
  0
POINT
  8
DEFPOINTS
  6
BYBLOCK
 62
     0
 10
184.998088
 20
86.180062
 30
0.0
  0
POINT
  8
DEFPOINTS
  6
BYBLOCK
 62
     0
 10
184.998088
 20
85.828673
 30
0.0
  0
ENDBLK
  8
0
  0
BLOCK
  8
0
  2
*D58
 70
    65
 10
0.0
 20
0.0
 30
0.0
  3
*D
  0
LINE
  8
0
  6
BYBLOCK
 62
     0
 10
184.848088
 20
86.030062
 30
0.0
 11
185.800833
 21
86.030062
 31
0.0
  0
LINE
  8
0
  6
BYBLOCK
 62
     0
 10
185.048088
 20
86.180062
 30
0.0
 11
185.800833
 21
86.180062
 31
0.0
  0
LINE
  8
0
  6
BYBLOCK
 62
     0
 10
185.775833
 20
85.992562
 30
0.0
 11
185.775833
 21
86.217562
 31
0.0
  0
LINE
  8
0
  6
BYBLOCK
 62
     0
 10
185.813333
 20
85.992562
 30
0.0
 11
185.738333
 21
86.067562
 31
0.0
  0
LINE
  8
0
  6
BYBLOCK
 62
     0
 10
185.813333
 20
86.142562
 30
0.0
 11
185.738333
 21
86.217562
 31
0.0
  0
TEXT
  8
0
  6
BYBLOCK
 62
     0
 10
185.748932
 20
85.58514
 30
0.0
 40
0.1
  1
0.15
 50
90.0
  7
ROMANS
 72
     1
 11
185.698932
 21
85.751807
 31
0.0
 73
     2
  0
POINT
  8
DEFPOINTS
  6
BYBLOCK
 62
     0
 10
184.798088
 20
86.030062
 30
0.0
  0
POINT
  8
DEFPOINTS
  6
BYBLOCK
 62
     0
 10
184.998088
 20
86.180062
 30
0.0
  0
POINT
  8
DEFPOINTS
  6
BYBLOCK
 62
     0
 10
185.775833
 20
86.180062
 30
0.0
  0
ENDBLK
  8
0
  0
BLOCK
  8
0
  2
*D59
 70
    65
 10
0.0
 20
0.0
 30
0.0
  3
*D
  0
LINE
  8
0
  6
BYBLOCK
 62
     0
 10
184.663088
 20
87.780062
 30
0.0
 11
184.663088
 21
88.095296
 31
0.0
  0
LINE
  8
0
  6
BYBLOCK
 62
     0
 10
184.933088
 20
87.780062
 30
0.0
 11
184.933088
 21
88.095296
 31
0.0
  0
LINE
  8
0
  6
BYBLOCK
 62
     0
 10
184.700588
 20
88.057796
 30
0.0
 11
184.588088
 21
88.057796
 31
0.0
  0
LINE
  8
0
  6
BYBLOCK
 62
     0
 10
184.895588
 20
88.057796
 30
0.0
 11
185.008088
 21
88.057796
 31
0.0
  0
LINE
  8
0
  6
BYBLOCK
 62
     0
 10
184.625588
 20
88.020296
 30
0.0
 11
184.700588
 21
88.095296
 31
0.0
  0
LINE
  8
0
  6
BYBLOCK
 62
     0
 10
184.895588
 20
88.020296
 30
0.0
 11
184.970588
 21
88.095296
 31
0.0
  0
TEXT
  8
0
  6
BYBLOCK
 62
     0
 10
184.996302
 20
88.007796
 30
0.0
 40
0.1
  1
0.27
  7
ROMANS
 72
     1
 11
185.162969
 21
88.057796
 31
0.0
 73
     2
  0
POINT
  8
DEFPOINTS
  6
BYBLOCK
 62
     0
 10
184.663088
 20
87.730062
 30
0.0
  0
POINT
  8
DEFPOINTS
  6
BYBLOCK
 62
     0
 10
184.933088
 20
87.730062
 30
0.0
  0
POINT
  8
DEFPOINTS
  6
BYBLOCK
 62
     0
 10
184.933088
 20
88.057796
 30
0.0
  0
ENDBLK
  8
0
  0
BLOCK
  8
0
  2
*D60
 70
    65
 10
0.0
 20
0.0
 30
0.0
  3
*D
  0
LINE
  8
0
  6
BYBLOCK
 62
     0
 10
184.113259
 20
87.265936
 30
0.0
 11
183.941781
 21
87.442558
 31
0.0
  0
LINE
  8
0
  6
BYBLOCK
 62
     0
 10
184.628259
 20
87.765936
 30
0.0
 11
184.456781
 21
87.942558
 31
0.0
  0
LINE
  8
0
  6
BYBLOCK
 62
     0
 10
183.940997
 20
87.389531
 30
0.0
 11
184.114279
 21
87.557765
 31
0.0
  0
LINE
  8
0
  6
BYBLOCK
 62
     0
 10
184.509808
 20
87.941774
 30
0.0
 11
184.336526
 21
87.77354
 31
0.0
  0
LINE
  8
0
  6
BYBLOCK
 62
     0
 10
183.967119
 20
87.362625
 30
0.0
 11
183.968686
 21
87.46868
 31
0.0
  0
LINE
  8
0
  6
BYBLOCK
 62
     0
 10
184.482119
 20
87.862625
 30
0.0
 11
184.483686
 21
87.96868
 31
0.0
  0
TEXT
  8
0
  6
BYBLOCK
 62
     0
 10
184.140652
 20
87.513682
 30
0.0
 40
0.1
  1
0.72
 50
44.153326
  7
ROMANS
 72
     1
 11
184.225403
 21
87.665652
 31
0.0
 73
     2
  0
POINT
  8
DEFPOINTS
  6
BYBLOCK
 62
     0
 10
184.148088
 20
87.230062
 30
0.0
  0
POINT
  8
DEFPOINTS
  6
BYBLOCK
 62
     0
 10
184.663088
 20
87.730062
 30
0.0
  0
POINT
  8
DEFPOINTS
  6
BYBLOCK
 62
     0
 10
184.482903
 20
87.915652
 30
0.0
  0
ENDBLK
  8
0
  0
BLOCK
  8
0
  2
*D61
 70
    65
 10
0.0
 20
0.0
 30
0.0
  3
*D
  0
LINE
  8
0
  6
BYBLOCK
 62
     0
 10
185.482917
 20
87.265936
 30
0.0
 11
185.658781
 21
87.447076
 31
0.0
  0
LINE
  8
0
  6
BYBLOCK
 62
     0
 10
184.967917
 20
87.765936
 30
0.0
 11
185.143781
 21
87.947076
 31
0.0
  0
LINE
  8
0
  6
BYBLOCK
 62
     0
 10
185.659564
 20
87.394048
 30
0.0
 11
185.486283
 21
87.562283
 31
0.0
  0
LINE
  8
0
  6
BYBLOCK
 62
     0
 10
185.090753
 20
87.946292
 30
0.0
 11
185.264035
 21
87.778057
 31
0.0
  0
LINE
  8
0
  6
BYBLOCK
 62
     0
 10
185.579632
 20
87.419386
 30
0.0
 11
185.685686
 21
87.420954
 31
0.0
  0
LINE
  8
0
  6
BYBLOCK
 62
     0
 10
185.064632
 20
87.919386
 30
0.0
 11
185.170686
 21
87.920954
 31
0.0
  0
TEXT
  8
0
  6
BYBLOCK
 62
     0
 10
185.22075
 20
87.750393
 30
0.0
 40
0.1
  1
0.72
 50
315.846674
  7
ROMANS
 72
     1
 11
185.375159
 21
87.67017
 31
0.0
 73
     2
  0
POINT
  8
DEFPOINTS
  6
BYBLOCK
 62
     0
 10
185.448088
 20
87.230062
 30
0.0
  0
POINT
  8
DEFPOINTS
  6
BYBLOCK
 62
     0
 10
184.933088
 20
87.730062
 30
0.0
  0
POINT
  8
DEFPOINTS
  6
BYBLOCK
 62
     0
 10
185.117659
 20
87.92017
 30
0.0
  0
ENDBLK
  8
0
  0
BLOCK
  8
0
  2
*D62
 70
    65
 10
0.0
 20
0.0
 30
0.0
  3
*D
  0
LINE
  8
0
  6
BYBLOCK
 62
     0
 10
184.848088
 20
86.030062
 30
0.0
 11
186.093474
 21
86.030062
 31
0.0
  0
LINE
  8
0
  6
BYBLOCK
 62
     0
 10
185.567664
 20
87.730062
 30
0.0
 11
186.093474
 21
87.730062
 31
0.0
  0
LINE
  8
0
  6
BYBLOCK
 62
     0
 10
186.055974
 20
85.992562
 30
0.0
 11
186.055974
 21
86.732324
 31
0.0
  0
LINE
  8
0
  6
BYBLOCK
 62
     0
 10
186.055974
 20
87.767562
 30
0.0
 11
186.055974
 21
87.0278
 31
0.0
  0
LINE
  8
0
  6
BYBLOCK
 62
     0
 10
186.093474
 20
85.992562
 30
0.0
 11
186.018474
 21
86.067562
 31
0.0
  0
LINE
  8
0
  6
BYBLOCK
 62
     0
 10
186.093474
 20
87.692562
 30
0.0
 11
186.018474
 21
87.767562
 31
0.0
  0
TEXT
  8
0
  6
BYBLOCK
 62
     0
 10
186.105974
 20
86.706252
 30
0.0
 40
0.1
  1
1.70
 50
90.0
  7
ROMANS
 72
     1
 11
186.055974
 21
86.880062
 31
0.0
 73
     2
  0
POINT
  8
DEFPOINTS
  6
BYBLOCK
 62
     0
 10
184.798088
 20
86.030062
 30
0.0
  0
POINT
  8
DEFPOINTS
  6
BYBLOCK
 62
     0
 10
185.517664
 20
87.730062
 30
0.0
  0
POINT
  8
DEFPOINTS
  6
BYBLOCK
 62
     0
 10
186.055974
 20
87.730062
 30
0.0
  0
ENDBLK
  8
0
  0
BLOCK
  8
0
  2
*D63
 70
    65
 10
0.0
 20
0.0
 30
0.0
  3
*D
  0
LINE
  8
0
  6
BYBLOCK
 62
     0
 10
184.848088
 20
86.030062
 30
0.0
 11
185.813333
 21
86.030062
 31
0.0
  0
LINE
  8
0
  6
BYBLOCK
 62
     0
 10
185.048088
 20
86.180062
 30
0.0
 11
185.813333
 21
86.180062
 31
0.0
  0
LINE
  8
0
  6
BYBLOCK
 62
     0
 10
185.775833
 20
85.992562
 30
0.0
 11
185.775833
 21
86.217562
 31
0.0
  0
LINE
  8
0
  6
BYBLOCK
 62
     0
 10
185.813333
 20
85.992562
 30
0.0
 11
185.738333
 21
86.067562
 31
0.0
  0
LINE
  8
0
  6
BYBLOCK
 62
     0
 10
185.813333
 20
86.142562
 30
0.0
 11
185.738333
 21
86.217562
 31
0.0
  0
TEXT
  8
0
  6
BYBLOCK
 62
     0
 10
185.748932
 20
85.58514
 30
0.0
 40
0.1
  1
0.15
 50
90.0
  7
ROMANS
 72
     1
 11
185.698932
 21
85.751807
 31
0.0
 73
     2
  0
POINT
  8
DEFPOINTS
  6
BYBLOCK
 62
     0
 10
184.798088
 20
86.030062
 30
0.0
  0
POINT
  8
DEFPOINTS
  6
BYBLOCK
 62
     0
 10
184.998088
 20
86.180062
 30
0.0
  0
POINT
  8
DEFPOINTS
  6
BYBLOCK
 62
     0
 10
185.775833
 20
86.180062
 30
0.0
  0
ENDBLK
  8
0
  0
BLOCK
  8
0
  2
*D64
 70
    65
 10
0.0
 20
0.0
 30
0.0
  3
*D
  0
LINE
  8
0
  6
BYBLOCK
 62
     0
 10
185.498088
 20
87.230062
 30
0.0
 11
185.813333
 21
87.230062
 31
0.0
  0
LINE
  8
0
  6
BYBLOCK
 62
     0
 10
185.498088
 20
86.180062
 30
0.0
 11
185.813333
 21
86.180062
 31
0.0
  0
LINE
  8
0
  6
BYBLOCK
 62
     0
 10
185.775833
 20
87.267562
 30
0.0
 11
185.775833
 21
86.8528
 31
0.0
  0
LINE
  8
0
  6
BYBLOCK
 62
     0
 10
185.775833
 20
86.142562
 30
0.0
 11
185.775833
 21
86.557324
 31
0.0
  0
LINE
  8
0
  6
BYBLOCK
 62
     0
 10
185.813333
 20
87.192562
 30
0.0
 11
185.738333
 21
87.267562
 31
0.0
  0
LINE
  8
0
  6
BYBLOCK
 62
     0
 10
185.813333
 20
86.142562
 30
0.0
 11
185.738333
 21
86.217562
 31
0.0
  0
TEXT
  8
0
  6
BYBLOCK
 62
     0
 10
185.825833
 20
86.531252
 30
0.0
 40
0.1
  1
1.05
 50
90.0
  7
ROMANS
 72
     1
 11
185.775833
 21
86.705062
 31
0.0
 73
     2
  0
POINT
  8
DEFPOINTS
  6
BYBLOCK
 62
     0
 10
185.448088
 20
87.230062
 30
0.0
  0
POINT
  8
DEFPOINTS
  6
BYBLOCK
 62
     0
 10
185.448088
 20
86.180062
 30
0.0
  0
POINT
  8
DEFPOINTS
  6
BYBLOCK
 62
     0
 10
185.775833
 20
86.180062
 30
0.0
  0
ENDBLK
  8
0
  0
BLOCK
  8
0
  2
*D65
 70
    65
 10
0.0
 20
0.0
 30
0.0
  3
*D
  0
LINE
  8
0
  6
BYBLOCK
 62
     0
 10
184.598088
 20
86.130062
 30
0.0
 11
184.598088
 21
85.791173
 31
0.0
  0
LINE
  8
0
  6
BYBLOCK
 62
     0
 10
184.998088
 20
86.130062
 30
0.0
 11
184.998088
 21
85.791173
 31
0.0
  0
LINE
  8
0
  6
BYBLOCK
 62
     0
 10
184.560588
 20
85.828673
 30
0.0
 11
185.035588
 21
85.828673
 31
0.0
  0
LINE
  8
0
  6
BYBLOCK
 62
     0
 10
184.560588
 20
85.791173
 30
0.0
 11
184.635588
 21
85.866173
 31
0.0
  0
LINE
  8
0
  6
BYBLOCK
 62
     0
 10
184.960588
 20
85.791173
 30
0.0
 11
185.035588
 21
85.866173
 31
0.0
  0
TEXT
  8
0
  6
BYBLOCK
 62
     0
 10
185.054378
 20
85.778673
 30
0.0
 40
0.1
  1
0.40
  7
ROMANS
 72
     1
 11
185.221045
 21
85.828673
 31
0.0
 73
     2
  0
POINT
  8
DEFPOINTS
  6
BYBLOCK
 62
     0
 10
184.598088
 20
86.180062
 30
0.0
  0
POINT
  8
DEFPOINTS
  6
BYBLOCK
 62
     0
 10
184.998088
 20
86.180062
 30
0.0
  0
POINT
  8
DEFPOINTS
  6
BYBLOCK
 62
     0
 10
184.998088
 20
85.828673
 30
0.0
  0
ENDBLK
  8
0
  0
BLOCK
  8
0
  2
*D66
 70
    65
 10
0.0
 20
0.0
 30
0.0
  3
*D
  0
LINE
  8
0
  6
BYBLOCK
 62
     0
 10
184.148088
 20
86.130062
 30
0.0
 11
184.148088
 21
85.566064
 31
0.0
  0
LINE
  8
0
  6
BYBLOCK
 62
     0
 10
185.448088
 20
86.130062
 30
0.0
 11
185.448088
 21
85.566064
 31
0.0
  0
LINE
  8
0
  6
BYBLOCK
 62
     0
 10
184.110588
 20
85.603564
 30
0.0
 11
184.65035
 21
85.603564
 31
0.0
  0
LINE
  8
0
  6
BYBLOCK
 62
     0
 10
185.485588
 20
85.603564
 30
0.0
 11
184.945826
 21
85.603564
 31
0.0
  0
LINE
  8
0
  6
BYBLOCK
 62
     0
 10
184.110588
 20
85.566064
 30
0.0
 11
184.185588
 21
85.641064
 31
0.0
  0
LINE
  8
0
  6
BYBLOCK
 62
     0
 10
185.410588
 20
85.566064
 30
0.0
 11
185.485588
 21
85.641064
 31
0.0
  0
TEXT
  8
0
  6
BYBLOCK
 62
     0
 10
184.624278
 20
85.553564
 30
0.0
 40
0.1
  1
1.30
  7
ROMANS
 72
     1
 11
184.798088
 21
85.603564
 31
0.0
 73
     2
  0
POINT
  8
DEFPOINTS
  6
BYBLOCK
 62
     0
 10
184.148088
 20
86.180062
 30
0.0
  0
POINT
  8
DEFPOINTS
  6
BYBLOCK
 62
     0
 10
185.448088
 20
86.180062
 30
0.0
  0
POINT
  8
DEFPOINTS
  6
BYBLOCK
 62
     0
 10
185.448088
 20
85.603564
 30
0.0
  0
ENDBLK
  8
0
  0
BLOCK
  8
0
  2
*D67
 70
    65
 10
0.0
 20
0.0
 30
0.0
  3
*D
  0
LINE
  8
0
  6
BYBLOCK
 62
     0
 10
185.030552
 20
86.32641
 30
0.0
 11
185.030552
 21
86.006073
 31
0.0
  0
LINE
  8
0
  6
BYBLOCK
 62
     0
 10
185.430552
 20
86.32641
 30
0.0
 11
185.430552
 21
86.006073
 31
0.0
  0
LINE
  8
0
  6
BYBLOCK
 62
     0
 10
184.993052
 20
86.043573
 30
0.0
 11
185.075671
 21
86.043573
 31
0.0
  0
LINE
  8
0
  6
BYBLOCK
 62
     0
 10
185.468052
 20
86.043573
 30
0.0
 11
185.385433
 21
86.043573
 31
0.0
  0
LINE
  8
0
  6
BYBLOCK
 62
     0
 10
184.993052
 20
86.006073
 30
0.0
 11
185.068052
 21
86.081073
 31
0.0
  0
LINE
  8
0
  6
BYBLOCK
 62
     0
 10
185.393052
 20
86.006073
 30
0.0
 11
185.468052
 21
86.081073
 31
0.0
  0
TEXT
  8
0
  6
BYBLOCK
 62
     0
 10
185.063885
 20
85.993573
 30
0.0
 40
0.1
  1
0.40
  7
ROMANS
 72
     1
 11
185.230552
 21
86.043573
 31
0.0
 73
     2
  0
POINT
  8
DEFPOINTS
  6
BYBLOCK
 62
     0
 10
185.030552
 20
86.37641
 30
0.0
  0
POINT
  8
DEFPOINTS
  6
BYBLOCK
 62
     0
 10
185.430552
 20
86.37641
 30
0.0
  0
POINT
  8
DEFPOINTS
  6
BYBLOCK
 62
     0
 10
185.430552
 20
86.043573
 30
0.0
  0
ENDBLK
  8
0
  0
BLOCK
  8
0
  2
*D68
 70
    65
 10
0.0
 20
0.0
 30
0.0
  3
*D
  0
LINE
  8
0
  6
BYBLOCK
 62
     0
 10
184.580552
 20
86.32641
 30
0.0
 11
184.580552
 21
85.749313
 31
0.0
  0
LINE
  8
0
  6
BYBLOCK
 62
     0
 10
185.880552
 20
86.32641
 30
0.0
 11
185.880552
 21
85.749313
 31
0.0
  0
LINE
  8
0
  6
BYBLOCK
 62
     0
 10
184.543052
 20
85.786813
 30
0.0
 11
185.082814
 21
85.786813
 31
0.0
  0
LINE
  8
0
  6
BYBLOCK
 62
     0
 10
185.918052
 20
85.786813
 30
0.0
 11
185.37829
 21
85.786813
 31
0.0
  0
LINE
  8
0
  6
BYBLOCK
 62
     0
 10
184.543052
 20
85.749313
 30
0.0
 11
184.618052
 21
85.824313
 31
0.0
  0
LINE
  8
0
  6
BYBLOCK
 62
     0
 10
185.843052
 20
85.749313
 30
0.0
 11
185.918052
 21
85.824313
 31
0.0
  0
TEXT
  8
0
  6
BYBLOCK
 62
     0
 10
185.056742
 20
85.736813
 30
0.0
 40
0.1
  1
1.30
  7
ROMANS
 72
     1
 11
185.230552
 21
85.786813
 31
0.0
 73
     2
  0
POINT
  8
DEFPOINTS
  6
BYBLOCK
 62
     0
 10
184.580552
 20
86.37641
 30
0.0
  0
POINT
  8
DEFPOINTS
  6
BYBLOCK
 62
     0
 10
185.880552
 20
86.37641
 30
0.0
  0
POINT
  8
DEFPOINTS
  6
BYBLOCK
 62
     0
 10
185.880552
 20
85.786813
 30
0.0
  0
ENDBLK
  8
0
  0
BLOCK
  8
0
  2
*D69
 70
    65
 10
0.0
 20
0.0
 30
0.0
  3
*D
  0
LINE
  8
0
  6
BYBLOCK
 62
     0
 10
185.280552
 20
86.22641
 30
0.0
 11
186.181392
 21
86.22641
 31
0.0
  0
LINE
  8
0
  6
BYBLOCK
 62
     0
 10
185.480552
 20
86.37641
 30
0.0
 11
186.181392
 21
86.37641
 31
0.0
  0
LINE
  8
0
  6
BYBLOCK
 62
     0
 10
186.143892
 20
86.26391
 30
0.0
 11
186.143892
 21
86.15141
 31
0.0
  0
LINE
  8
0
  6
BYBLOCK
 62
     0
 10
186.143892
 20
86.33891
 30
0.0
 11
186.143892
 21
86.45141
 31
0.0
  0
LINE
  8
0
  6
BYBLOCK
 62
     0
 10
186.181392
 20
86.18891
 30
0.0
 11
186.106392
 21
86.26391
 31
0.0
  0
LINE
  8
0
  6
BYBLOCK
 62
     0
 10
186.181392
 20
86.33891
 30
0.0
 11
186.106392
 21
86.41391
 31
0.0
  0
TEXT
  8
0
  6
BYBLOCK
 62
     0
 10
186.193892
 20
86.439624
 30
0.0
 40
0.1
  1
0.15
 50
90.0
  7
ROMANS
 72
     1
 11
186.143892
 21
86.606291
 31
0.0
 73
     2
  0
POINT
  8
DEFPOINTS
  6
BYBLOCK
 62
     0
 10
185.230552
 20
86.22641
 30
0.0
  0
POINT
  8
DEFPOINTS
  6
BYBLOCK
 62
     0
 10
185.430552
 20
86.37641
 30
0.0
  0
POINT
  8
DEFPOINTS
  6
BYBLOCK
 62
     0
 10
186.143892
 20
86.37641
 30
0.0
  0
ENDBLK
  8
0
  0
BLOCK
  8
0
  2
*D70
 70
    65
 10
0.0
 20
0.0
 30
0.0
  3
*D
  0
LINE
  8
0
  6
BYBLOCK
 62
     0
 10
185.280552
 20
86.22641
 30
0.0
 11
186.462054
 21
86.22641
 31
0.0
  0
LINE
  8
0
  6
BYBLOCK
 62
     0
 10
185.280552
 20
87.52641
 30
0.0
 11
186.462054
 21
87.52641
 31
0.0
  0
LINE
  8
0
  6
BYBLOCK
 62
     0
 10
186.424554
 20
86.18891
 30
0.0
 11
186.424554
 21
86.728672
 31
0.0
  0
LINE
  8
0
  6
BYBLOCK
 62
     0
 10
186.424554
 20
87.56391
 30
0.0
 11
186.424554
 21
87.024148
 31
0.0
  0
LINE
  8
0
  6
BYBLOCK
 62
     0
 10
186.462054
 20
86.18891
 30
0.0
 11
186.387054
 21
86.26391
 31
0.0
  0
LINE
  8
0
  6
BYBLOCK
 62
     0
 10
186.462054
 20
87.48891
 30
0.0
 11
186.387054
 21
87.56391
 31
0.0
  0
TEXT
  8
0
  6
BYBLOCK
 62
     0
 10
186.474554
 20
86.702601
 30
0.0
 40
0.1
  1
1.30
 50
90.0
  7
ROMANS
 72
     1
 11
186.424554
 21
86.87641
 31
0.0
 73
     2
  0
POINT
  8
DEFPOINTS
  6
BYBLOCK
 62
     0
 10
185.230552
 20
86.22641
 30
0.0
  0
POINT
  8
DEFPOINTS
  6
BYBLOCK
 62
     0
 10
185.230552
 20
87.52641
 30
0.0
  0
POINT
  8
DEFPOINTS
  6
BYBLOCK
 62
     0
 10
186.424554
 20
87.52641
 30
0.0
  0
ENDBLK
  8
0
  0
ENDSEC
  0
SECTION
  2
ENTITIES
  0
LINE
  8
0
 10
180.642909
 20
95.784754
 30
0.0
 11
180.642909
 21
80.934754
 31
0.0
  0
LINE
  8
0
 10
191.142909
 20
80.934754
 30
0.0
 11
191.142909
 21
95.784754
 31
0.0
  0
LINE
  8
0
 10
180.642909
 20
80.934754
 30
0.0
 11
191.142909
 21
80.934754
 31
0.0
  0
LINE
  8
0
 10
191.142909
 20
95.784754
 30
0.0
 11
180.642909
 21
95.784754
 31
0.0
  0
TEXT
  8
0
 10
183.172881
 20
92.894898
 30
0.0
 40
0.3
  1
ESCALA  1:50
  7
ROMANC
  0
TEXT
  8
0
 10
183.185975
 20
92.296309
 30
0.0
 40
0.3
  1
S = 154 dm
  7
ROMANC
  0
TEXT
  8
0
 10
183.172881
 20
93.380613
 30
0.0
 40
0.3
  1
TIPUS   NT154
  7
ROMANC
  0
TEXT
  8
0
 10
183.179398
 20
91.743273
 30
0.0
 40
0.3
  1
P = 50,5 dm
  7
ROMANC
  0
TEXT
  8
0
 10
186.57508
 20
92.60962
 30
0.0
 40
0.1
  1
2
  7
ROMANC
  0
LINE
  8
0
 10
185.016428
 20
86.36141
 30
0.0
 11
184.565552
 21
86.36141
 31
0.0
  0
LINE
  8
0
 10
184.565552
 20
86.36141
 30
0.0
 11
184.565552
 21
87.54141
 31
0.0
  0
LINE
  8
0
 10
184.565552
 20
87.54141
 30
0.0
 11
185.895552
 21
87.54141
 31
0.0
  0
LINE
  8
0
 10
185.895552
 20
87.54141
 30
0.0
 11
185.895552
 21
86.36141
 31
0.0
  0
LINE
  8
0
 10
185.895552
 20
86.36141
 30
0.0
 11
185.444675
 21
86.36141
 31
0.0
  0
ARC
  8
0
 10
185.316708
 20
86.37641
 30
0.0
 40
0.128843
 50
331.088799
 51
353.314431
  0
ARC
  8
0
 10
185.275251
 20
86.399306
 30
0.0
 40
0.176203
 50
306.869898
 51
331.088799
  0
ARC
  8
0
 10
185.24821
 20
86.435361
 30
0.0
 40
0.221271
 50
287.257939
 51
306.869898
  0
ARC
  8
0
 10
185.230552
 20
86.492203
 30
0.0
 40
0.280793
 50
270.0
 51
287.257939
  0
ARC
  8
0
 10
185.230552
 20
86.492203
 30
0.0
 40
0.280793
 50
252.742061
 51
270.0
  0
ARC
  8
0
 10
185.212893
 20
86.435361
 30
0.0
 40
0.221271
 50
233.130102
 51
252.742061
  0
ARC
  8
0
 10
185.185852
 20
86.399306
 30
0.0
 40
0.176203
 50
208.911201
 51
233.130102
  0
ARC
  8
0
 10
185.144395
 20
86.37641
 30
0.0
 40
0.128843
 50
186.685569
 51
208.911201
  0
LINE
  8
0
 10
185.023284
 20
86.36891
 30
0.0
 11
184.573052
 21
86.36891
 31
0.0
  0
LINE
  8
0
 10
184.573052
 20
86.36891
 30
0.0
 11
184.573052
 21
87.53391
 31
0.0
  0
LINE
  8
0
 10
184.573052
 20
87.53391
 30
0.0
 11
185.888052
 21
87.53391
 31
0.0
  0
LINE
  8
0
 10
185.888052
 20
87.53391
 30
0.0
 11
185.888052
 21
86.36891
 31
0.0
  0
LINE
  8
0
 10
185.888052
 20
86.36891
 30
0.0
 11
185.43782
 21
86.36891
 31
0.0
  0
ARC
  8
0
 10
185.316708
 20
86.37641
 30
0.0
 40
0.121343
 50
331.088799
 51
356.456395
  0
ARC
  8
0
 10
185.275251
 20
86.399306
 30
0.0
 40
0.168703
 50
306.869898
 51
331.088799
  0
ARC
  8
0
 10
185.24821
 20
86.435361
 30
0.0
 40
0.213771
 50
287.257939
 51
306.869898
  0
ARC
  8
0
 10
185.230552
 20
86.492203
 30
0.0
 40
0.273293
 50
270.0
 51
287.257939
  0
ARC
  8
0
 10
185.230552
 20
86.492203
 30
0.0
 40
0.273293
 50
252.742061
 51
270.0
  0
ARC
  8
0
 10
185.212893
 20
86.435361
 30
0.0
 40
0.213771
 50
233.130102
 51
252.742061
  0
ARC
  8
0
 10
185.185852
 20
86.399306
 30
0.0
 40
0.168703
 50
208.911201
 51
233.130102
  0
ARC
  8
0
 10
185.144395
 20
86.37641
 30
0.0
 40
0.121343
 50
183.543605
 51
208.911201
  0
LINE
  8
0
  6
BYBLOCK
 62
     0
 10
185.280552
 20
86.22641
 30
0.0
 11
186.462054
 21
86.22641
 31
0.0
  0
LINE
  8
0
  6
BYBLOCK
 62
     0
 10
185.280552
 20
87.52641
 30
0.0
 11
186.462054
 21
87.52641
 31
0.0
  0
LINE
  8
0
  6
BYBLOCK
 62
     0
 10
186.424554
 20
86.18891
 30
0.0
 11
186.424554
 21
86.728672
 31
0.0
  0
LINE
  8
0
  6
BYBLOCK
 62
     0
 10
186.424554
 20
87.56391
 30
0.0
 11
186.424554
 21
87.024148
 31
0.0
  0
LINE
  8
0
  6
BYBLOCK
 62
     0
 10
186.462054
 20
86.18891
 30
0.0
 11
186.387054
 21
86.26391
 31
0.0
  0
LINE
  8
0
  6
BYBLOCK
 62
     0
 10
186.462054
 20
87.48891
 30
0.0
 11
186.387054
 21
87.56391
 31
0.0
  0
TEXT
  8
0
  6
BYBLOCK
 62
     0
 10
186.474554
 20
86.702601
 30
0.0
 40
0.1
  1
1.30
 50
90.0
  7
ROMANS
 72
     1
 11
186.424554
 21
86.87641
 31
0.0
 73
     2
  0
POINT
  8
DEFPOINTS
  6
BYBLOCK
 62
     0
 10
185.230552
 20
86.22641
 30
0.0
  0
POINT
  8
DEFPOINTS
  6
BYBLOCK
 62
     0
 10
185.230552
 20
87.52641
 30
0.0
  0
POINT
  8
DEFPOINTS
  6
BYBLOCK
 62
     0
 10
186.424554
 20
87.52641
 30
0.0
  0
LINE
  8
0
  6
BYBLOCK
 62
     0
 10
185.280552
 20
86.22641
 30
0.0
 11
186.181392
 21
86.22641
 31
0.0
  0
LINE
  8
0
  6
BYBLOCK
 62
     0
 10
185.480552
 20
86.37641
 30
0.0
 11
186.181392
 21
86.37641
 31
0.0
  0
LINE
  8
0
  6
BYBLOCK
 62
     0
 10
186.143892
 20
86.26391
 30
0.0
 11
186.143892
 21
86.15141
 31
0.0
  0
LINE
  8
0
  6
BYBLOCK
 62
     0
 10
186.143892
 20
86.33891
 30
0.0
 11
186.143892
 21
86.45141
 31
0.0
  0
LINE
  8
0
  6
BYBLOCK
 62
     0
 10
186.181392
 20
86.18891
 30
0.0
 11
186.106392
 21
86.26391
 31
0.0
  0
LINE
  8
0
  6
BYBLOCK
 62
     0
 10
186.181392
 20
86.33891
 30
0.0
 11
186.106392
 21
86.41391
 31
0.0
  0
TEXT
  8
0
  6
BYBLOCK
 62
     0
 10
186.193892
 20
86.439624
 30
0.0
 40
0.1
  1
0.15
 50
90.0
  7
ROMANS
 72
     1
 11
186.143892
 21
86.606291
 31
0.0
 73
     2
  0
POINT
  8
DEFPOINTS
  6
BYBLOCK
 62
     0
 10
185.230552
 20
86.22641
 30
0.0
  0
POINT
  8
DEFPOINTS
  6
BYBLOCK
 62
     0
 10
185.430552
 20
86.37641
 30
0.0
  0
POINT
  8
DEFPOINTS
  6
BYBLOCK
 62
     0
 10
186.143892
 20
86.37641
 30
0.0
  0
LINE
  8
0
  6
BYBLOCK
 62
     0
 10
184.580552
 20
86.32641
 30
0.0
 11
184.580552
 21
85.749313
 31
0.0
  0
LINE
  8
0
  6
BYBLOCK
 62
     0
 10
185.880552
 20
86.32641
 30
0.0
 11
185.880552
 21
85.749313
 31
0.0
  0
LINE
  8
0
  6
BYBLOCK
 62
     0
 10
184.543052
 20
85.786813
 30
0.0
 11
185.082814
 21
85.786813
 31
0.0
  0
LINE
  8
0
  6
BYBLOCK
 62
     0
 10
185.918052
 20
85.786813
 30
0.0
 11
185.37829
 21
85.786813
 31
0.0
  0
LINE
  8
0
  6
BYBLOCK
 62
     0
 10
184.543052
 20
85.749313
 30
0.0
 11
184.618052
 21
85.824313
 31
0.0
  0
LINE
  8
0
  6
BYBLOCK
 62
     0
 10
185.843052
 20
85.749313
 30
0.0
 11
185.918052
 21
85.824313
 31
0.0
  0
TEXT
  8
0
  6
BYBLOCK
 62
     0
 10
185.056742
 20
85.736813
 30
0.0
 40
0.1
  1
1.30
  7
ROMANS
 72
     1
 11
185.230552
 21
85.786813
 31
0.0
 73
     2
  0
POINT
  8
DEFPOINTS
  6
BYBLOCK
 62
     0
 10
184.580552
 20
86.37641
 30
0.0
  0
POINT
  8
DEFPOINTS
  6
BYBLOCK
 62
     0
 10
185.880552
 20
86.37641
 30
0.0
  0
POINT
  8
DEFPOINTS
  6
BYBLOCK
 62
     0
 10
185.880552
 20
85.786813
 30
0.0
  0
LINE
  8
0
  6
BYBLOCK
 62
     0
 10
185.030552
 20
86.32641
 30
0.0
 11
185.030552
 21
86.006073
 31
0.0
  0
LINE
  8
0
  6
BYBLOCK
 62
     0
 10
185.430552
 20
86.32641
 30
0.0
 11
185.430552
 21
86.006073
 31
0.0
  0
LINE
  8
0
  6
BYBLOCK
 62
     0
 10
184.993052
 20
86.043573
 30
0.0
 11
185.075671
 21
86.043573
 31
0.0
  0
LINE
  8
0
  6
BYBLOCK
 62
     0
 10
185.468052
 20
86.043573
 30
0.0
 11
185.385433
 21
86.043573
 31
0.0
  0
LINE
  8
0
  6
BYBLOCK
 62
     0
 10
184.993052
 20
86.006073
 30
0.0
 11
185.068052
 21
86.081073
 31
0.0
  0
LINE
  8
0
  6
BYBLOCK
 62
     0
 10
185.393052
 20
86.006073
 30
0.0
 11
185.468052
 21
86.081073
 31
0.0
  0
TEXT
  8
0
  6
BYBLOCK
 62
     0
 10
185.063885
 20
85.993573
 30
0.0
 40
0.1
  1
0.40
  7
ROMANS
 72
     1
 11
185.230552
 21
86.043573
 31
0.0
 73
     2
  0
POINT
  8
DEFPOINTS
  6
BYBLOCK
 62
     0
 10
185.030552
 20
86.37641
 30
0.0
  0
POINT
  8
DEFPOINTS
  6
BYBLOCK
 62
     0
 10
185.430552
 20
86.37641
 30
0.0
  0
POINT
  8
DEFPOINTS
  6
BYBLOCK
 62
     0
 10
185.430552
 20
86.043573
 30
0.0
  0
LINE
  8
0
 10
185.030552
 20
86.37641
 30
0.0
 11
184.580552
 21
86.37641
 31
0.0
  0
LINE
  8
0
 10
184.580552
 20
86.37641
 30
0.0
 11
184.580552
 21
87.52641
 31
0.0
  0
LINE
  8
0
 10
184.580552
 20
87.52641
 30
0.0
 11
185.880552
 21
87.52641
 31
0.0
  0
LINE
  8
0
 10
185.880552
 20
87.52641
 30
0.0
 11
185.880552
 21
86.37641
 31
0.0
  0
LINE
  8
0
 10
185.880552
 20
86.37641
 30
0.0
 11
185.430552
 21
86.37641
 31
0.0
  0
ARC
  8
0
 10
185.316708
 20
86.37641
 30
0.0
 40
0.113843
 50
331.088799
 51
0.0
  0
ARC
  8
0
 10
185.275251
 20
86.399306
 30
0.0
 40
0.161203
 50
306.869898
 51
331.088799
  0
ARC
  8
0
 10
185.24821
 20
86.435361
 30
0.0
 40
0.206271
 50
287.257939
 51
306.869898
  0
ARC
  8
0
 10
185.230552
 20
86.492203
 30
0.0
 40
0.265793
 50
270.0
 51
287.257939
  0
ARC
  8
0
 10
185.230552
 20
86.492203
 30
0.0
 40
0.265793
 50
252.742061
 51
270.0
  0
ARC
  8
0
 10
185.212893
 20
86.435361
 30
0.0
 40
0.206271
 50
233.130102
 51
252.742061
  0
ARC
  8
0
 10
185.185852
 20
86.399306
 30
0.0
 40
0.161203
 50
208.911201
 51
233.130102
  0
ARC
  8
0
 10
185.144395
 20
86.37641
 30
0.0
 40
0.113843
 50
180.0
 51
208.911201
  0
ENDSEC
  0
EOF
