  0
SECTION
  2
HEADER
  9
$ACADVER
  1
AC1009
  9
$INSBASE
 10
105.464027
 20
-4.528761
 30
0.0
  9
$EXTMIN
 10
281.395795
 20
29.897444
 30
0.0
  9
$EXTMAX
 10
291.895795
 20
44.747444
 30
0.0
  9
$LIMMIN
 10
0.0
 20
0.0
  9
$LIMMAX
 10
410.0
 20
287.0
  9
$ORTHOMODE
 70
     1
  9
$REGENMODE
 70
     1
  9
$FILLMODE
 70
     1
  9
$QTEXTMODE
 70
     0
  9
$MIRRTEXT
 70
     1
  9
$DRAGMODE
 70
     2
  9
$LTSCALE
 40
25.0
  9
$OSMODE
 70
     0
  9
$ATTMODE
 70
     1
  9
$TEXTSIZE
 40
0.1
  9
$TRACEWID
 40
1.0
  9
$TEXTSTYLE
  7
ROMANC
  9
$CLAYER
  8
0
  9
$CELTYPE
  6
BYLAYER
  9
$CECOLOR
 62
   256
  9
$DIMSCALE
 40
1.5
  9
$DIMASZ
 40
0.1
  9
$DIMEXO
 40
0.01
  9
$DIMDLI
 40
7.0
  9
$DIMRND
 40
0.0
  9
$DIMDLE
 40
0.0
  9
$DIMEXE
 40
0.01
  9
$DIMTP
 40
0.0
  9
$DIMTM
 40
0.0
  9
$DIMTXT
 40
0.05
  9
$DIMCEN
 40
0.1
  9
$DIMTSZ
 40
0.0
  9
$DIMTOL
 70
     0
  9
$DIMLIM
 70
     0
  9
$DIMTIH
 70
     0
  9
$DIMTOH
 70
     0
  9
$DIMSE1
 70
     0
  9
$DIMSE2
 70
     0
  9
$DIMTAD
 70
     1
  9
$DIMZIN
 70
     0
  9
$DIMBLK
  1

  9
$DIMASO
 70
     1
  9
$DIMSHO
 70
     0
  9
$DIMPOST
  1

  9
$DIMAPOST
  1

  9
$DIMALT
 70
     0
  9
$DIMALTD
 70
     2
  9
$DIMALTF
 40
25.4
  9
$DIMLFAC
 40
1.0
  9
$DIMTOFL
 70
     1
  9
$DIMTVP
 40
0.0
  9
$DIMTIX
 70
     1
  9
$DIMSOXD
 70
     0
  9
$DIMSAH
 70
     0
  9
$DIMBLK1
  1

  9
$DIMBLK2
  1

  9
$DIMSTYLE
  2
*UNNAMED
  9
$DIMCLRD
 70
     0
  9
$DIMCLRE
 70
     0
  9
$DIMCLRT
 70
     0
  9
$DIMTFAC
 40
70.0
  9
$DIMGAP
 40
0.09
  9
$LUNITS
 70
     2
  9
$LUPREC
 70
     2
  9
$SKETCHINC
 40
1.0
  9
$FILLETRAD
 40
0.0
  9
$AUNITS
 70
     0
  9
$AUPREC
 70
     0
  9
$MENU
  1
acad
  9
$ELEVATION
 40
0.0
  9
$PELEVATION
 40
0.0
  9
$THICKNESS
 40
0.0
  9
$LIMCHECK
 70
     0
  9
$BLIPMODE
 70
     0
  9
$CHAMFERA
 40
0.0
  9
$CHAMFERB
 40
0.0
  9
$SKPOLY
 70
     0
  9
$TDCREATE
 40
2450305.554557986
  9
$TDUPDATE
 40
2450871.491845023
  9
$TDINDWG
 40
0.1530666667
  9
$TDUSRTIMER
 40
0.1530666667
  9
$USRTIMER
 70
     1
  9
$ANGBASE
 50
0.0
  9
$ANGDIR
 70
     0
  9
$PDMODE
 70
     0
  9
$PDSIZE
 40
0.0
  9
$PLINEWID
 40
0.0
  9
$COORDS
 70
     2
  9
$SPLFRAME
 70
     0
  9
$SPLINETYPE
 70
     6
  9
$SPLINESEGS
 70
     8
  9
$ATTDIA
 70
     0
  9
$ATTREQ
 70
     1
  9
$HANDLING
 70
     0
  9
$HANDSEED
  5
0
  9
$SURFTAB1
 70
     6
  9
$SURFTAB2
 70
     6
  9
$SURFTYPE
 70
     6
  9
$SURFU
 70
     6
  9
$SURFV
 70
     6
  9
$UCSNAME
  2

  9
$UCSORG
 10
0.0
 20
0.0
 30
0.0
  9
$UCSXDIR
 10
1.0
 20
0.0
 30
0.0
  9
$UCSYDIR
 10
0.0
 20
1.0
 30
0.0
  9
$PUCSNAME
  2

  9
$PUCSORG
 10
0.0
 20
0.0
 30
0.0
  9
$PUCSXDIR
 10
1.0
 20
0.0
 30
0.0
  9
$PUCSYDIR
 10
0.0
 20
1.0
 30
0.0
  9
$USERI1
 70
     0
  9
$USERI2
 70
     0
  9
$USERI3
 70
     0
  9
$USERI4
 70
     0
  9
$USERI5
 70
     0
  9
$USERR1
 40
0.0
  9
$USERR2
 40
0.0
  9
$USERR3
 40
0.0
  9
$USERR4
 40
0.0
  9
$USERR5
 40
0.0
  9
$WORLDVIEW
 70
     1
  9
$SHADEDGE
 70
     3
  9
$SHADEDIF
 70
    70
  9
$TILEMODE
 70
     1
  9
$MAXACTVP
 70
    16
  9
$PINSBASE
 10
0.0
 20
0.0
 30
0.0
  9
$PLIMCHECK
 70
     0
  9
$PEXTMIN
 10
1.000000E+20
 20
1.000000E+20
 30
1.000000E+20
  9
$PEXTMAX
 10
-1.000000E+20
 20
-1.000000E+20
 30
-1.000000E+20
  9
$PLIMMIN
 10
0.0
 20
0.0
  9
$PLIMMAX
 10
12.0
 20
9.0
  9
$UNITMODE
 70
     0
  9
$VISRETAIN
 70
     0
  9
$PLINEGEN
 70
     0
  9
$PSLTSCALE
 70
     0
  9
$TREEDEPTH
 70
  3020
  9
$DWGCODEPAGE
  3
iso8859-1
  0
ENDSEC
  0
SECTION
  2
TABLES
  0
TABLE
  2
VPORT
 70
     2
  0
VPORT
  2
*ACTIVE
 70
     0
 10
0.0
 20
0.0
 11
1.0
 21
1.0
 12
292.922009
 22
37.322444
 13
0.0
 23
0.0
 14
1.0
 24
1.0
 15
10.0
 25
10.0
 16
0.0
 26
0.0
 36
1.0
 17
0.0
 27
0.0
 37
0.0
 40
14.85
 41
1.552352
 42
50.0
 43
0.0
 44
0.0
 50
0.0
 51
0.0
 71
     0
 72
   100
 73
     1
 74
     0
 75
     0
 76
     0
 77
     0
 78
     1
  0
ENDTAB
  0
TABLE
  2
LTYPE
 70
     1
  0
LTYPE
  2
CONTINUOUS
 70
    64
  3
Solid line
 72
    65
 73
     0
 40
0.0
  0
ENDTAB
  0
TABLE
  2
LAYER
 70
     2
  0
LAYER
  2
0
 70
    64
 62
     7
  6
CONTINUOUS
  0
LAYER
  2
DEFPOINTS
 70
    64
 62
     7
  6
CONTINUOUS
  0
ENDTAB
  0
TABLE
  2
STYLE
 70
     2
  0
STYLE
  2
STANDARD
 70
     0
 40
0.0
 41
1.0
 50
0.0
 71
     0
 42
0.1
  3
txt
  4

  0
STYLE
  2
ROMANC
 70
    64
 40
0.0
 41
1.0
 50
0.0
 71
     0
 42
0.1
  3
romanc
  4

  0
ENDTAB
  0
TABLE
  2
VIEW
 70
     0
  0
ENDTAB
  0
TABLE
  2
UCS
 70
     0
  0
ENDTAB
  0
TABLE
  2
APPID
 70
     1
  0
APPID
  2
ACAD
 70
    64
  0
ENDTAB
  0
TABLE
  2
DIMSTYLE
 70
     0
  0
ENDTAB
  0
ENDSEC
  0
SECTION
  2
BLOCKS
  0
BLOCK
  8
0
  2
*D0
 70
    65
 10
0.0
 20
0.0
 30
0.0
  3
*D
  0
LINE
  8
0
  6
BYBLOCK
 62
     0
 10
285.056608
 20
35.789381
 30
0.0
 11
285.056608
 21
35.789381
 31
0.0
  0
LINE
  8
0
  6
BYBLOCK
 62
     0
 10
286.206608
 20
35.789381
 30
0.0
 11
286.206608
 21
35.789381
 31
0.0
  0
LINE
  8
0
  6
BYBLOCK
 62
     0
 10
285.206608
 20
35.774381
 30
0.0
 11
286.056608
 21
35.774381
 31
0.0
  0
SOLID
  8
0
  6
BYBLOCK
 62
     0
 10
285.206608
 20
35.799381
 30
0.0
 11
285.206608
 21
35.749381
 31
0.0
 12
285.056608
 22
35.774381
 32
0.0
 13
285.056608
 23
35.774381
 33
0.0
  0
SOLID
  8
0
  6
BYBLOCK
 62
     0
 10
286.056608
 20
35.799381
 30
0.0
 11
286.056608
 21
35.749381
 31
0.0
 12
286.206608
 22
35.774381
 32
0.0
 13
286.206608
 23
35.774381
 33
0.0
  0
TEXT
  8
0
  6
BYBLOCK
 62
     0
 10
285.50125
 20
35.811881
 30
0.0
 40
0.075
  1
1.15
  7
ROMANC
 72
     1
 11
285.631608
 21
35.849381
 31
0.0
 73
     2
  0
POINT
  8
DEFPOINTS
  6
BYBLOCK
 62
     0
 10
285.056608
 20
35.774381
 30
0.0
  0
POINT
  8
DEFPOINTS
  6
BYBLOCK
 62
     0
 10
286.206608
 20
35.774381
 30
0.0
  0
POINT
  8
DEFPOINTS
  6
BYBLOCK
 62
     0
 10
286.206608
 20
35.774381
 30
0.0
  0
ENDBLK
  8
0
  0
BLOCK
  8
0
  2
*D1
 70
    65
 10
0.0
 20
0.0
 30
0.0
  3
*D
  0
LINE
  8
0
  6
BYBLOCK
 62
     0
 10
285.181608
 20
34.809381
 30
0.0
 11
285.181608
 21
34.545262
 31
0.0
  0
LINE
  8
0
  6
BYBLOCK
 62
     0
 10
286.081608
 20
34.809381
 30
0.0
 11
286.081608
 21
34.545262
 31
0.0
  0
LINE
  8
0
  6
BYBLOCK
 62
     0
 10
285.331608
 20
34.560262
 30
0.0
 11
285.931608
 21
34.560262
 31
0.0
  0
SOLID
  8
0
  6
BYBLOCK
 62
     0
 10
285.331608
 20
34.585262
 30
0.0
 11
285.331608
 21
34.535262
 31
0.0
 12
285.181608
 22
34.560262
 32
0.0
 13
285.181608
 23
34.560262
 33
0.0
  0
SOLID
  8
0
  6
BYBLOCK
 62
     0
 10
285.931608
 20
34.585262
 30
0.0
 11
285.931608
 21
34.535262
 31
0.0
 12
286.081608
 22
34.560262
 32
0.0
 13
286.081608
 23
34.560262
 33
0.0
  0
TEXT
  8
0
  6
BYBLOCK
 62
     0
 10
285.506608
 20
34.597762
 30
0.0
 40
0.075
  1
0.90
  7
ROMANC
 72
     1
 11
285.631608
 21
34.635262
 31
0.0
 73
     2
  0
POINT
  8
DEFPOINTS
  6
BYBLOCK
 62
     0
 10
285.181608
 20
34.824381
 30
0.0
  0
POINT
  8
DEFPOINTS
  6
BYBLOCK
 62
     0
 10
286.081608
 20
34.824381
 30
0.0
  0
POINT
  8
DEFPOINTS
  6
BYBLOCK
 62
     0
 10
286.081608
 20
34.560262
 30
0.0
  0
ENDBLK
  8
0
  0
BLOCK
  8
0
  2
*D2
 70
    65
 10
0.0
 20
0.0
 30
0.0
  3
*D
  0
LINE
  8
0
  6
BYBLOCK
 62
     0
 10
286.221608
 20
35.774381
 30
0.0
 11
286.467567
 21
35.774381
 31
0.0
  0
LINE
  8
0
  6
BYBLOCK
 62
     0
 10
286.096608
 20
34.824381
 30
0.0
 11
286.467567
 21
34.824381
 31
0.0
  0
LINE
  8
0
  6
BYBLOCK
 62
     0
 10
286.452567
 20
35.624381
 30
0.0
 11
286.452567
 21
34.974381
 31
0.0
  0
SOLID
  8
0
  6
BYBLOCK
 62
     0
 10
286.427567
 20
35.624381
 30
0.0
 11
286.477567
 21
35.624381
 31
0.0
 12
286.452567
 22
35.774381
 32
0.0
 13
286.452567
 23
35.774381
 33
0.0
  0
SOLID
  8
0
  6
BYBLOCK
 62
     0
 10
286.427567
 20
34.974381
 30
0.0
 11
286.477567
 21
34.974381
 31
0.0
 12
286.452567
 22
34.824381
 32
0.0
 13
286.452567
 23
34.824381
 33
0.0
  0
TEXT
  8
0
  6
BYBLOCK
 62
     0
 10
286.415067
 20
35.174381
 30
0.0
 40
0.075
  1
0.95
 50
90.0
  7
ROMANC
 72
     1
 11
286.377567
 21
35.299381
 31
0.0
 73
     2
  0
POINT
  8
DEFPOINTS
  6
BYBLOCK
 62
     0
 10
286.206608
 20
35.774381
 30
0.0
  0
POINT
  8
DEFPOINTS
  6
BYBLOCK
 62
     0
 10
286.081608
 20
34.824381
 30
0.0
  0
POINT
  8
DEFPOINTS
  6
BYBLOCK
 62
     0
 10
286.452567
 20
34.824381
 30
0.0
  0
ENDBLK
  8
0
  0
BLOCK
  8
0
  2
*D3
 70
    65
 10
0.0
 20
0.0
 30
0.0
  3
*D
  0
LINE
  8
0
  6
BYBLOCK
 62
     0
 10
285.646608
 20
36.349381
 30
0.0
 11
286.744535
 21
36.349381
 31
0.0
  0
LINE
  8
0
  6
BYBLOCK
 62
     0
 10
285.646608
 20
34.824381
 30
0.0
 11
286.744535
 21
34.824381
 31
0.0
  0
LINE
  8
0
  6
BYBLOCK
 62
     0
 10
286.729535
 20
36.199381
 30
0.0
 11
286.729535
 21
34.974381
 31
0.0
  0
SOLID
  8
0
  6
BYBLOCK
 62
     0
 10
286.704535
 20
36.199381
 30
0.0
 11
286.754535
 21
36.199381
 31
0.0
 12
286.729535
 22
36.349381
 32
0.0
 13
286.729535
 23
36.349381
 33
0.0
  0
SOLID
  8
0
  6
BYBLOCK
 62
     0
 10
286.704535
 20
34.974381
 30
0.0
 11
286.754535
 21
34.974381
 31
0.0
 12
286.729535
 22
34.824381
 32
0.0
 13
286.729535
 23
34.824381
 33
0.0
  0
TEXT
  8
0
  6
BYBLOCK
 62
     0
 10
286.692035
 20
35.456524
 30
0.0
 40
0.075
  1
1.52
 50
90.0
  7
ROMANC
 72
     1
 11
286.654535
 21
35.586881
 31
0.0
 73
     2
  0
POINT
  8
DEFPOINTS
  6
BYBLOCK
 62
     0
 10
285.631608
 20
36.349381
 30
0.0
  0
POINT
  8
DEFPOINTS
  6
BYBLOCK
 62
     0
 10
285.631608
 20
34.824381
 30
0.0
  0
POINT
  8
DEFPOINTS
  6
BYBLOCK
 62
     0
 10
286.729535
 20
34.824381
 30
0.0
  0
ENDBLK
  8
0
  0
BLOCK
  8
0
  2
*D4
 70
    65
 10
0.0
 20
0.0
 30
0.0
  3
*D
  0
LINE
  8
0
  6
BYBLOCK
 62
     0
 10
285.646608
 20
36.349381
 30
0.0
 11
286.744535
 21
36.349381
 31
0.0
  0
LINE
  8
0
  6
BYBLOCK
 62
     0
 10
285.646608
 20
34.874381
 30
0.0
 11
286.744535
 21
34.874381
 31
0.0
  0
LINE
  8
0
  6
BYBLOCK
 62
     0
 10
286.729535
 20
36.199381
 30
0.0
 11
286.729535
 21
35.024381
 31
0.0
  0
SOLID
  8
0
  6
BYBLOCK
 62
     0
 10
286.704535
 20
36.199381
 30
0.0
 11
286.754535
 21
36.199381
 31
0.0
 12
286.729535
 22
36.349381
 32
0.0
 13
286.729535
 23
36.349381
 33
0.0
  0
SOLID
  8
0
  6
BYBLOCK
 62
     0
 10
286.704535
 20
35.024381
 30
0.0
 11
286.754535
 21
35.024381
 31
0.0
 12
286.729535
 22
34.874381
 32
0.0
 13
286.729535
 23
34.874381
 33
0.0
  0
TEXT
  8
0
  6
BYBLOCK
 62
     0
 10
286.692035
 20
35.481524
 30
0.0
 40
0.075
  1
1.47
 50
90.0
  7
ROMANC
 72
     1
 11
286.654535
 21
35.611881
 31
0.0
 73
     2
  0
POINT
  8
DEFPOINTS
  6
BYBLOCK
 62
     0
 10
285.631608
 20
36.349381
 30
0.0
  0
POINT
  8
DEFPOINTS
  6
BYBLOCK
 62
     0
 10
285.631608
 20
34.874381
 30
0.0
  0
POINT
  8
DEFPOINTS
  6
BYBLOCK
 62
     0
 10
286.729535
 20
34.874381
 30
0.0
  0
ENDBLK
  8
0
  0
BLOCK
  8
0
  2
*D5
 70
    65
 10
0.0
 20
0.0
 30
0.0
  3
*D
  0
LINE
  8
0
  6
BYBLOCK
 62
     0
 10
286.221608
 20
35.774381
 30
0.0
 11
286.467567
 21
35.774381
 31
0.0
  0
LINE
  8
0
  6
BYBLOCK
 62
     0
 10
286.096608
 20
34.874381
 30
0.0
 11
286.467567
 21
34.874381
 31
0.0
  0
LINE
  8
0
  6
BYBLOCK
 62
     0
 10
286.452567
 20
35.624381
 30
0.0
 11
286.452567
 21
35.024381
 31
0.0
  0
SOLID
  8
0
  6
BYBLOCK
 62
     0
 10
286.427567
 20
35.624381
 30
0.0
 11
286.477567
 21
35.624381
 31
0.0
 12
286.452567
 22
35.774381
 32
0.0
 13
286.452567
 23
35.774381
 33
0.0
  0
SOLID
  8
0
  6
BYBLOCK
 62
     0
 10
286.427567
 20
35.024381
 30
0.0
 11
286.477567
 21
35.024381
 31
0.0
 12
286.452567
 22
34.874381
 32
0.0
 13
286.452567
 23
34.874381
 33
0.0
  0
TEXT
  8
0
  6
BYBLOCK
 62
     0
 10
286.415067
 20
35.199381
 30
0.0
 40
0.075
  1
0.90
 50
90.0
  7
ROMANC
 72
     1
 11
286.377567
 21
35.324381
 31
0.0
 73
     2
  0
POINT
  8
DEFPOINTS
  6
BYBLOCK
 62
     0
 10
286.206608
 20
35.774381
 30
0.0
  0
POINT
  8
DEFPOINTS
  6
BYBLOCK
 62
     0
 10
286.081608
 20
34.874381
 30
0.0
  0
POINT
  8
DEFPOINTS
  6
BYBLOCK
 62
     0
 10
286.452567
 20
34.874381
 30
0.0
  0
ENDBLK
  8
0
  0
BLOCK
  8
0
  2
*D6
 70
    65
 10
0.0
 20
0.0
 30
0.0
  3
*D
  0
LINE
  8
0
  6
BYBLOCK
 62
     0
 10
285.082101
 20
34.856617
 30
0.0
 11
285.082101
 21
34.592498
 31
0.0
  0
LINE
  8
0
  6
BYBLOCK
 62
     0
 10
286.081608
 20
34.859381
 30
0.0
 11
286.081608
 21
34.592498
 31
0.0
  0
LINE
  8
0
  6
BYBLOCK
 62
     0
 10
285.232101
 20
34.607498
 30
0.0
 11
285.931608
 21
34.607498
 31
0.0
  0
SOLID
  8
0
  6
BYBLOCK
 62
     0
 10
285.232101
 20
34.632498
 30
0.0
 11
285.232101
 21
34.582498
 31
0.0
 12
285.082101
 22
34.607498
 32
0.0
 13
285.082101
 23
34.607498
 33
0.0
  0
SOLID
  8
0
  6
BYBLOCK
 62
     0
 10
285.931608
 20
34.632498
 30
0.0
 11
285.931608
 21
34.582498
 31
0.0
 12
286.081608
 22
34.607498
 32
0.0
 13
286.081608
 23
34.607498
 33
0.0
  0
TEXT
  8
0
  6
BYBLOCK
 62
     0
 10
285.451497
 20
34.644998
 30
0.0
 40
0.075
  1
1.00
  7
ROMANC
 72
     1
 11
285.581854
 21
34.682498
 31
0.0
 73
     2
  0
POINT
  8
DEFPOINTS
  6
BYBLOCK
 62
     0
 10
285.082101
 20
34.871617
 30
0.0
  0
POINT
  8
DEFPOINTS
  6
BYBLOCK
 62
     0
 10
286.081608
 20
34.874381
 30
0.0
  0
POINT
  8
DEFPOINTS
  6
BYBLOCK
 62
     0
 10
286.081608
 20
34.607498
 30
0.0
  0
ENDBLK
  8
0
  0
BLOCK
  8
0
  2
*D7
 70
    65
 10
0.0
 20
0.0
 30
0.0
  3
*D
  0
LINE
  8
0
  6
BYBLOCK
 62
     0
 10
285.082101
 20
34.856617
 30
0.0
 11
285.082101
 21
34.589734
 31
0.0
  0
LINE
  8
0
  6
BYBLOCK
 62
     0
 10
286.181114
 20
34.856617
 30
0.0
 11
286.181114
 21
34.589734
 31
0.0
  0
LINE
  8
0
  6
BYBLOCK
 62
     0
 10
285.232101
 20
34.604734
 30
0.0
 11
286.031114
 21
34.604734
 31
0.0
  0
SOLID
  8
0
  6
BYBLOCK
 62
     0
 10
285.232101
 20
34.629734
 30
0.0
 11
285.232101
 21
34.579734
 31
0.0
 12
285.082101
 22
34.604734
 32
0.0
 13
285.082101
 23
34.604734
 33
0.0
  0
SOLID
  8
0
  6
BYBLOCK
 62
     0
 10
286.031114
 20
34.629734
 30
0.0
 11
286.031114
 21
34.579734
 31
0.0
 12
286.181114
 22
34.604734
 32
0.0
 13
286.181114
 23
34.604734
 33
0.0
  0
TEXT
  8
0
  6
BYBLOCK
 62
     0
 10
285.50125
 20
34.642234
 30
0.0
 40
0.075
  1
1.10
  7
ROMANC
 72
     1
 11
285.631608
 21
34.679734
 31
0.0
 73
     2
  0
POINT
  8
DEFPOINTS
  6
BYBLOCK
 62
     0
 10
285.082101
 20
34.871617
 30
0.0
  0
POINT
  8
DEFPOINTS
  6
BYBLOCK
 62
     0
 10
286.181114
 20
34.871617
 30
0.0
  0
POINT
  8
DEFPOINTS
  6
BYBLOCK
 62
     0
 10
286.181114
 20
34.604734
 30
0.0
  0
ENDBLK
  8
0
  0
BLOCK
  8
0
  2
*D8
 70
    65
 10
0.0
 20
0.0
 30
0.0
  3
*D
  0
LINE
  8
0
  6
BYBLOCK
 62
     0
 10
286.221608
 20
35.774381
 30
0.0
 11
286.467567
 21
35.774381
 31
0.0
  0
LINE
  8
0
  6
BYBLOCK
 62
     0
 10
286.196114
 20
34.871617
 30
0.0
 11
286.467567
 21
34.871617
 31
0.0
  0
LINE
  8
0
  6
BYBLOCK
 62
     0
 10
286.452567
 20
35.624381
 30
0.0
 11
286.452567
 21
35.021617
 31
0.0
  0
SOLID
  8
0
  6
BYBLOCK
 62
     0
 10
286.427567
 20
35.624381
 30
0.0
 11
286.477567
 21
35.624381
 31
0.0
 12
286.452567
 22
35.774381
 32
0.0
 13
286.452567
 23
35.774381
 33
0.0
  0
SOLID
  8
0
  6
BYBLOCK
 62
     0
 10
286.427567
 20
35.021617
 30
0.0
 11
286.477567
 21
35.021617
 31
0.0
 12
286.452567
 22
34.871617
 32
0.0
 13
286.452567
 23
34.871617
 33
0.0
  0
TEXT
  8
0
  6
BYBLOCK
 62
     0
 10
286.415067
 20
35.197999
 30
0.0
 40
0.075
  1
0.90
 50
90.0
  7
ROMANC
 72
     1
 11
286.377567
 21
35.322999
 31
0.0
 73
     2
  0
POINT
  8
DEFPOINTS
  6
BYBLOCK
 62
     0
 10
286.206608
 20
35.774381
 30
0.0
  0
POINT
  8
DEFPOINTS
  6
BYBLOCK
 62
     0
 10
286.181114
 20
34.871617
 30
0.0
  0
POINT
  8
DEFPOINTS
  6
BYBLOCK
 62
     0
 10
286.452567
 20
34.871617
 30
0.0
  0
ENDBLK
  8
0
  0
BLOCK
  8
0
  2
*D9
 70
    65
 10
0.0
 20
0.0
 30
0.0
  3
*D
  0
LINE
  8
0
  6
BYBLOCK
 62
     0
 10
286.221608
 20
35.774381
 30
0.0
 11
286.467567
 21
35.774381
 31
0.0
  0
LINE
  8
0
  6
BYBLOCK
 62
     0
 10
286.196608
 20
34.874381
 30
0.0
 11
286.467567
 21
34.874381
 31
0.0
  0
LINE
  8
0
  6
BYBLOCK
 62
     0
 10
286.452567
 20
35.624381
 30
0.0
 11
286.452567
 21
35.024381
 31
0.0
  0
SOLID
  8
0
  6
BYBLOCK
 62
     0
 10
286.427567
 20
35.624381
 30
0.0
 11
286.477567
 21
35.624381
 31
0.0
 12
286.452567
 22
35.774381
 32
0.0
 13
286.452567
 23
35.774381
 33
0.0
  0
SOLID
  8
0
  6
BYBLOCK
 62
     0
 10
286.427567
 20
35.024381
 30
0.0
 11
286.477567
 21
35.024381
 31
0.0
 12
286.452567
 22
34.874381
 32
0.0
 13
286.452567
 23
34.874381
 33
0.0
  0
TEXT
  8
0
  6
BYBLOCK
 62
     0
 10
286.415067
 20
35.199381
 30
0.0
 40
0.075
  1
0.90
 50
90.0
  7
ROMANC
 72
     1
 11
286.377567
 21
35.324381
 31
0.0
 73
     2
  0
POINT
  8
DEFPOINTS
  6
BYBLOCK
 62
     0
 10
286.206608
 20
35.774381
 30
0.0
  0
POINT
  8
DEFPOINTS
  6
BYBLOCK
 62
     0
 10
286.181608
 20
34.874381
 30
0.0
  0
POINT
  8
DEFPOINTS
  6
BYBLOCK
 62
     0
 10
286.452567
 20
34.874381
 30
0.0
  0
ENDBLK
  8
0
  0
BLOCK
  8
0
  2
*D10
 70
    65
 10
0.0
 20
0.0
 30
0.0
  3
*D
  0
LINE
  8
0
  6
BYBLOCK
 62
     0
 10
286.221608
 20
35.774381
 30
0.0
 11
286.467567
 21
35.774381
 31
0.0
  0
LINE
  8
0
  6
BYBLOCK
 62
     0
 10
286.214994
 20
34.874381
 30
0.0
 11
286.467567
 21
34.874381
 31
0.0
  0
LINE
  8
0
  6
BYBLOCK
 62
     0
 10
286.452567
 20
35.624381
 30
0.0
 11
286.452567
 21
35.024381
 31
0.0
  0
SOLID
  8
0
  6
BYBLOCK
 62
     0
 10
286.427567
 20
35.624381
 30
0.0
 11
286.477567
 21
35.624381
 31
0.0
 12
286.452567
 22
35.774381
 32
0.0
 13
286.452567
 23
35.774381
 33
0.0
  0
SOLID
  8
0
  6
BYBLOCK
 62
     0
 10
286.427567
 20
35.024381
 30
0.0
 11
286.477567
 21
35.024381
 31
0.0
 12
286.452567
 22
34.874381
 32
0.0
 13
286.452567
 23
34.874381
 33
0.0
  0
TEXT
  8
0
  6
BYBLOCK
 62
     0
 10
286.415067
 20
35.199381
 30
0.0
 40
0.075
  1
0.90
 50
90.0
  7
ROMANC
 72
     1
 11
286.377567
 21
35.324381
 31
0.0
 73
     2
  0
POINT
  8
DEFPOINTS
  6
BYBLOCK
 62
     0
 10
286.206608
 20
35.774381
 30
0.0
  0
POINT
  8
DEFPOINTS
  6
BYBLOCK
 62
     0
 10
286.199994
 20
34.874381
 30
0.0
  0
POINT
  8
DEFPOINTS
  6
BYBLOCK
 62
     0
 10
286.452567
 20
34.874381
 30
0.0
  0
ENDBLK
  8
0
  0
BLOCK
  8
0
  2
*D11
 70
    65
 10
0.0
 20
0.0
 30
0.0
  3
*D
  0
LINE
  8
0
  6
BYBLOCK
 62
     0
 10
285.646608
 20
36.349381
 30
0.0
 11
286.744535
 21
36.349381
 31
0.0
  0
LINE
  8
0
  6
BYBLOCK
 62
     0
 10
286.211301
 20
34.874381
 30
0.0
 11
286.744535
 21
34.874381
 31
0.0
  0
LINE
  8
0
  6
BYBLOCK
 62
     0
 10
286.729535
 20
36.199381
 30
0.0
 11
286.729535
 21
35.024381
 31
0.0
  0
SOLID
  8
0
  6
BYBLOCK
 62
     0
 10
286.704535
 20
36.199381
 30
0.0
 11
286.754535
 21
36.199381
 31
0.0
 12
286.729535
 22
36.349381
 32
0.0
 13
286.729535
 23
36.349381
 33
0.0
  0
SOLID
  8
0
  6
BYBLOCK
 62
     0
 10
286.704535
 20
35.024381
 30
0.0
 11
286.754535
 21
35.024381
 31
0.0
 12
286.729535
 22
34.874381
 32
0.0
 13
286.729535
 23
34.874381
 33
0.0
  0
TEXT
  8
0
  6
BYBLOCK
 62
     0
 10
286.692035
 20
35.481524
 30
0.0
 40
0.075
  1
1.47
 50
90.0
  7
ROMANC
 72
     1
 11
286.654535
 21
35.611881
 31
0.0
 73
     2
  0
POINT
  8
DEFPOINTS
  6
BYBLOCK
 62
     0
 10
285.631608
 20
36.349381
 30
0.0
  0
POINT
  8
DEFPOINTS
  6
BYBLOCK
 62
     0
 10
286.196301
 20
34.874381
 30
0.0
  0
POINT
  8
DEFPOINTS
  6
BYBLOCK
 62
     0
 10
286.729535
 20
34.874381
 30
0.0
  0
ENDBLK
  8
0
  0
BLOCK
  8
0
  2
*D12
 70
    65
 10
0.0
 20
0.0
 30
0.0
  3
*D
  0
LINE
  8
0
  6
BYBLOCK
 62
     0
 10
286.221608
 20
35.774381
 30
0.0
 11
286.467567
 21
35.774381
 31
0.0
  0
LINE
  8
0
  6
BYBLOCK
 62
     0
 10
286.211301
 20
34.874381
 30
0.0
 11
286.467567
 21
34.874381
 31
0.0
  0
LINE
  8
0
  6
BYBLOCK
 62
     0
 10
286.452567
 20
35.624381
 30
0.0
 11
286.452567
 21
35.024381
 31
0.0
  0
SOLID
  8
0
  6
BYBLOCK
 62
     0
 10
286.427567
 20
35.624381
 30
0.0
 11
286.477567
 21
35.624381
 31
0.0
 12
286.452567
 22
35.774381
 32
0.0
 13
286.452567
 23
35.774381
 33
0.0
  0
SOLID
  8
0
  6
BYBLOCK
 62
     0
 10
286.427567
 20
35.024381
 30
0.0
 11
286.477567
 21
35.024381
 31
0.0
 12
286.452567
 22
34.874381
 32
0.0
 13
286.452567
 23
34.874381
 33
0.0
  0
TEXT
  8
0
  6
BYBLOCK
 62
     0
 10
286.415067
 20
35.199381
 30
0.0
 40
0.075
  1
0.90
 50
90.0
  7
ROMANC
 72
     1
 11
286.377567
 21
35.324381
 31
0.0
 73
     2
  0
POINT
  8
DEFPOINTS
  6
BYBLOCK
 62
     0
 10
286.206608
 20
35.774381
 30
0.0
  0
POINT
  8
DEFPOINTS
  6
BYBLOCK
 62
     0
 10
286.196301
 20
34.874381
 30
0.0
  0
POINT
  8
DEFPOINTS
  6
BYBLOCK
 62
     0
 10
286.452567
 20
34.874381
 30
0.0
  0
ENDBLK
  8
0
  0
ENDSEC
  0
SECTION
  2
ENTITIES
  0
TEXT
  8
0
 10
283.887846
 20
40.56142
 30
0.0
 40
0.3
  1
P = 47.1 dm
  7
ROMANC
  0
TEXT
  8
0
 10
287.122271
 20
41.564915
 30
0.0
 40
0.1
  1
2
  7
ROMANC
  0
TEXT
  8
0
 10
283.925768
 20
41.857589
 30
0.0
 40
0.3
  1
ESCALA  1:50
  7
ROMANC
  0
TEXT
  8
0
 10
283.925768
 20
42.343303
 30
0.0
 40
0.3
  1
TIPUS   NT153
  7
ROMANC
  0
TEXT
  8
0
 10
283.938862
 20
41.258999
 30
0.0
 40
0.3
  1
S = 153 dm
  7
ROMANC
  0
LINE
  8
0
 10
286.196197
 20
34.859381
 30
0.0
 11
286.221607
 21
35.774171
 31
0.0
  0
ARC
  8
0
 10
285.631608
 20
35.774381
 30
0.0
 40
0.59
 50
359.979642
 51
180.020358
  0
LINE
  8
0
 10
285.041608
 20
35.774171
 30
0.0
 11
285.067018
 21
34.859381
 31
0.0
  0
LINE
  8
0
 10
285.067018
 20
34.859381
 30
0.0
 11
286.196197
 21
34.859381
 31
0.0
  0
LINE
  8
0
 10
286.188902
 20
34.866881
 30
0.0
 11
286.214108
 21
35.774277
 31
0.0
  0
ARC
  8
0
 10
285.631608
 20
35.774381
 30
0.0
 40
0.5825
 50
359.989721
 51
180.010279
  0
LINE
  8
0
 10
285.049108
 20
35.774277
 30
0.0
 11
285.074313
 21
34.866881
 31
0.0
  0
LINE
  8
0
 10
285.074313
 20
34.866881
 30
0.0
 11
286.188902
 21
34.866881
 31
0.0
  0
LINE
  8
0
 10
286.181608
 20
34.874381
 30
0.0
 11
286.206608
 21
35.774381
 31
0.0
  0
ARC
  8
0
 10
285.631608
 20
35.774381
 30
0.0
 40
0.575
 50
0.0
 51
180.0
  0
LINE
  8
0
 10
285.056608
 20
35.774381
 30
0.0
 11
285.081608
 21
34.874381
 31
0.0
  0
LINE
  8
0
 10
285.081608
 20
34.874381
 30
0.0
 11
286.181608
 21
34.874381
 31
0.0
  0
LINE
  8
0
  6
BYBLOCK
 62
     0
 10
285.646608
 20
36.349381
 30
0.0
 11
286.744535
 21
36.349381
 31
0.0
  0
LINE
  8
0
  6
BYBLOCK
 62
     0
 10
286.211301
 20
34.874381
 30
0.0
 11
286.744535
 21
34.874381
 31
0.0
  0
LINE
  8
0
  6
BYBLOCK
 62
     0
 10
286.729535
 20
36.199381
 30
0.0
 11
286.729535
 21
35.024381
 31
0.0
  0
SOLID
  8
0
  6
BYBLOCK
 62
     0
 10
286.704535
 20
36.199381
 30
0.0
 11
286.754535
 21
36.199381
 31
0.0
 12
286.729535
 22
36.349381
 32
0.0
 13
286.729535
 23
36.349381
 33
0.0
  0
SOLID
  8
0
  6
BYBLOCK
 62
     0
 10
286.704535
 20
35.024381
 30
0.0
 11
286.754535
 21
35.024381
 31
0.0
 12
286.729535
 22
34.874381
 32
0.0
 13
286.729535
 23
34.874381
 33
0.0
  0
TEXT
  8
0
  6
BYBLOCK
 62
     0
 10
286.692035
 20
35.481524
 30
0.0
 40
0.075
  1
1.47
 50
90.0
  7
ROMANC
 72
     1
 11
286.654535
 21
35.611881
 31
0.0
 73
     2
  0
POINT
  8
DEFPOINTS
  6
BYBLOCK
 62
     0
 10
285.631608
 20
36.349381
 30
0.0
  0
POINT
  8
DEFPOINTS
  6
BYBLOCK
 62
     0
 10
286.196301
 20
34.874381
 30
0.0
  0
POINT
  8
DEFPOINTS
  6
BYBLOCK
 62
     0
 10
286.729535
 20
34.874381
 30
0.0
  0
LINE
  8
0
  6
BYBLOCK
 62
     0
 10
286.221608
 20
35.774381
 30
0.0
 11
286.467567
 21
35.774381
 31
0.0
  0
LINE
  8
0
  6
BYBLOCK
 62
     0
 10
286.211301
 20
34.874381
 30
0.0
 11
286.467567
 21
34.874381
 31
0.0
  0
LINE
  8
0
  6
BYBLOCK
 62
     0
 10
286.452567
 20
35.624381
 30
0.0
 11
286.452567
 21
35.024381
 31
0.0
  0
SOLID
  8
0
  6
BYBLOCK
 62
     0
 10
286.427567
 20
35.624381
 30
0.0
 11
286.477567
 21
35.624381
 31
0.0
 12
286.452567
 22
35.774381
 32
0.0
 13
286.452567
 23
35.774381
 33
0.0
  0
SOLID
  8
0
  6
BYBLOCK
 62
     0
 10
286.427567
 20
35.024381
 30
0.0
 11
286.477567
 21
35.024381
 31
0.0
 12
286.452567
 22
34.874381
 32
0.0
 13
286.452567
 23
34.874381
 33
0.0
  0
TEXT
  8
0
  6
BYBLOCK
 62
     0
 10
286.415067
 20
35.199381
 30
0.0
 40
0.075
  1
0.90
 50
90.0
  7
ROMANC
 72
     1
 11
286.377567
 21
35.324381
 31
0.0
 73
     2
  0
POINT
  8
DEFPOINTS
  6
BYBLOCK
 62
     0
 10
286.206608
 20
35.774381
 30
0.0
  0
POINT
  8
DEFPOINTS
  6
BYBLOCK
 62
     0
 10
286.196301
 20
34.874381
 30
0.0
  0
POINT
  8
DEFPOINTS
  6
BYBLOCK
 62
     0
 10
286.452567
 20
34.874381
 30
0.0
  0
LINE
  8
0
  6
BYBLOCK
 62
     0
 10
285.082101
 20
34.856617
 30
0.0
 11
285.082101
 21
34.589734
 31
0.0
  0
LINE
  8
0
  6
BYBLOCK
 62
     0
 10
286.181114
 20
34.856617
 30
0.0
 11
286.181114
 21
34.589734
 31
0.0
  0
LINE
  8
0
  6
BYBLOCK
 62
     0
 10
285.232101
 20
34.604734
 30
0.0
 11
286.031114
 21
34.604734
 31
0.0
  0
SOLID
  8
0
  6
BYBLOCK
 62
     0
 10
285.232101
 20
34.629734
 30
0.0
 11
285.232101
 21
34.579734
 31
0.0
 12
285.082101
 22
34.604734
 32
0.0
 13
285.082101
 23
34.604734
 33
0.0
  0
SOLID
  8
0
  6
BYBLOCK
 62
     0
 10
286.031114
 20
34.629734
 30
0.0
 11
286.031114
 21
34.579734
 31
0.0
 12
286.181114
 22
34.604734
 32
0.0
 13
286.181114
 23
34.604734
 33
0.0
  0
TEXT
  8
0
  6
BYBLOCK
 62
     0
 10
285.50125
 20
34.642234
 30
0.0
 40
0.075
  1
1.10
  7
ROMANC
 72
     1
 11
285.631608
 21
34.679734
 31
0.0
 73
     2
  0
POINT
  8
DEFPOINTS
  6
BYBLOCK
 62
     0
 10
285.082101
 20
34.871617
 30
0.0
  0
POINT
  8
DEFPOINTS
  6
BYBLOCK
 62
     0
 10
286.181114
 20
34.871617
 30
0.0
  0
POINT
  8
DEFPOINTS
  6
BYBLOCK
 62
     0
 10
286.181114
 20
34.604734
 30
0.0
  0
LINE
  8
0
 10
281.395795
 20
29.897444
 30
0.0
 11
281.395795
 21
44.747444
 31
0.0
  0
LINE
  8
0
 10
281.395795
 20
44.747444
 30
0.0
 11
291.895795
 21
44.747444
 31
0.0
  0
LINE
  8
0
 10
291.895795
 20
44.747444
 30
0.0
 11
291.895795
 21
29.897444
 31
0.0
  0
LINE
  8
0
 10
291.895795
 20
29.897444
 30
0.0
 11
281.395795
 21
29.897444
 31
0.0
  0
LINE
  8
0
  6
BYBLOCK
 62
     0
 10
285.056608
 20
35.789381
 30
0.0
 11
285.056608
 21
35.789381
 31
0.0
  0
LINE
  8
0
  6
BYBLOCK
 62
     0
 10
286.206608
 20
35.789381
 30
0.0
 11
286.206608
 21
35.789381
 31
0.0
  0
LINE
  8
0
  6
BYBLOCK
 62
     0
 10
285.206608
 20
35.774381
 30
0.0
 11
286.056608
 21
35.774381
 31
0.0
  0
SOLID
  8
0
  6
BYBLOCK
 62
     0
 10
285.206608
 20
35.799381
 30
0.0
 11
285.206608
 21
35.749381
 31
0.0
 12
285.056608
 22
35.774381
 32
0.0
 13
285.056608
 23
35.774381
 33
0.0
  0
SOLID
  8
0
  6
BYBLOCK
 62
     0
 10
286.056608
 20
35.799381
 30
0.0
 11
286.056608
 21
35.749381
 31
0.0
 12
286.206608
 22
35.774381
 32
0.0
 13
286.206608
 23
35.774381
 33
0.0
  0
TEXT
  8
0
  6
BYBLOCK
 62
     0
 10
285.50125
 20
35.811881
 30
0.0
 40
0.075
  1
1.15
  7
ROMANC
 72
     1
 11
285.631608
 21
35.849381
 31
0.0
 73
     2
  0
POINT
  8
DEFPOINTS
  6
BYBLOCK
 62
     0
 10
285.056608
 20
35.774381
 30
0.0
  0
POINT
  8
DEFPOINTS
  6
BYBLOCK
 62
     0
 10
286.206608
 20
35.774381
 30
0.0
  0
POINT
  8
DEFPOINTS
  6
BYBLOCK
 62
     0
 10
286.206608
 20
35.774381
 30
0.0
  0
ENDSEC
  0
EOF
