  0
SECTION
  2
HEADER
  9
$ACADVER
  1
AC1009
  9
$INSBASE
 10
105.464027
 20
-4.528761
 30
0.0
  9
$EXTMIN
 10
281.395795
 20
29.897444
 30
0.0
  9
$EXTMAX
 10
291.895795
 20
44.747444
 30
0.0
  9
$LIMMIN
 10
0.0
 20
0.0
  9
$LIMMAX
 10
410.0
 20
287.0
  9
$ORTHOMODE
 70
     1
  9
$REGENMODE
 70
     1
  9
$FILLMODE
 70
     1
  9
$QTEXTMODE
 70
     0
  9
$MIRRTEXT
 70
     1
  9
$DRAGMODE
 70
     2
  9
$LTSCALE
 40
25.0
  9
$OSMODE
 70
    32
  9
$ATTMODE
 70
     1
  9
$TEXTSIZE
 40
0.1
  9
$TRACEWID
 40
1.0
  9
$TEXTSTYLE
  7
ROMANC
  9
$CLAYER
  8
0
  9
$CELTYPE
  6
BYLAYER
  9
$CECOLOR
 62
   256
  9
$DIMSCALE
 40
1.5
  9
$DIMASZ
 40
0.1
  9
$DIMEXO
 40
0.01
  9
$DIMDLI
 40
7.0
  9
$DIMRND
 40
0.0
  9
$DIMDLE
 40
0.0
  9
$DIMEXE
 40
0.01
  9
$DIMTP
 40
0.0
  9
$DIMTM
 40
0.0
  9
$DIMTXT
 40
0.05
  9
$DIMCEN
 40
0.1
  9
$DIMTSZ
 40
0.0
  9
$DIMTOL
 70
     0
  9
$DIMLIM
 70
     0
  9
$DIMTIH
 70
     0
  9
$DIMTOH
 70
     0
  9
$DIMSE1
 70
     0
  9
$DIMSE2
 70
     0
  9
$DIMTAD
 70
     1
  9
$DIMZIN
 70
     0
  9
$DIMBLK
  1

  9
$DIMASO
 70
     1
  9
$DIMSHO
 70
     0
  9
$DIMPOST
  1

  9
$DIMAPOST
  1

  9
$DIMALT
 70
     0
  9
$DIMALTD
 70
     2
  9
$DIMALTF
 40
25.4
  9
$DIMLFAC
 40
1.0
  9
$DIMTOFL
 70
     1
  9
$DIMTVP
 40
0.0
  9
$DIMTIX
 70
     1
  9
$DIMSOXD
 70
     0
  9
$DIMSAH
 70
     0
  9
$DIMBLK1
  1

  9
$DIMBLK2
  1

  9
$DIMSTYLE
  2
*UNNAMED
  9
$DIMCLRD
 70
     0
  9
$DIMCLRE
 70
     0
  9
$DIMCLRT
 70
     0
  9
$DIMTFAC
 40
70.0
  9
$DIMGAP
 40
0.09
  9
$LUNITS
 70
     2
  9
$LUPREC
 70
     2
  9
$SKETCHINC
 40
1.0
  9
$FILLETRAD
 40
0.0
  9
$AUNITS
 70
     0
  9
$AUPREC
 70
     0
  9
$MENU
  1
acad
  9
$ELEVATION
 40
0.0
  9
$PELEVATION
 40
0.0
  9
$THICKNESS
 40
0.0
  9
$LIMCHECK
 70
     0
  9
$BLIPMODE
 70
     0
  9
$CHAMFERA
 40
0.0
  9
$CHAMFERB
 40
0.0
  9
$SKPOLY
 70
     0
  9
$TDCREATE
 40
2450305.554557986
  9
$TDUPDATE
 40
2450730.772142360
  9
$TDINDWG
 40
0.0563672454
  9
$TDUSRTIMER
 40
0.0563672454
  9
$USRTIMER
 70
     1
  9
$ANGBASE
 50
0.0
  9
$ANGDIR
 70
     0
  9
$PDMODE
 70
     0
  9
$PDSIZE
 40
0.0
  9
$PLINEWID
 40
0.0
  9
$COORDS
 70
     2
  9
$SPLFRAME
 70
     0
  9
$SPLINETYPE
 70
     6
  9
$SPLINESEGS
 70
     8
  9
$ATTDIA
 70
     0
  9
$ATTREQ
 70
     1
  9
$HANDLING
 70
     0
  9
$HANDSEED
  5
0
  9
$SURFTAB1
 70
     6
  9
$SURFTAB2
 70
     6
  9
$SURFTYPE
 70
     6
  9
$SURFU
 70
     6
  9
$SURFV
 70
     6
  9
$UCSNAME
  2

  9
$UCSORG
 10
0.0
 20
0.0
 30
0.0
  9
$UCSXDIR
 10
1.0
 20
0.0
 30
0.0
  9
$UCSYDIR
 10
0.0
 20
1.0
 30
0.0
  9
$PUCSNAME
  2

  9
$PUCSORG
 10
0.0
 20
0.0
 30
0.0
  9
$PUCSXDIR
 10
1.0
 20
0.0
 30
0.0
  9
$PUCSYDIR
 10
0.0
 20
1.0
 30
0.0
  9
$USERI1
 70
     0
  9
$USERI2
 70
     0
  9
$USERI3
 70
     0
  9
$USERI4
 70
     0
  9
$USERI5
 70
     0
  9
$USERR1
 40
0.0
  9
$USERR2
 40
0.0
  9
$USERR3
 40
0.0
  9
$USERR4
 40
0.0
  9
$USERR5
 40
0.0
  9
$WORLDVIEW
 70
     1
  9
$SHADEDGE
 70
     3
  9
$SHADEDIF
 70
    70
  9
$TILEMODE
 70
     1
  9
$MAXACTVP
 70
    16
  9
$PINSBASE
 10
0.0
 20
0.0
 30
0.0
  9
$PLIMCHECK
 70
     0
  9
$PEXTMIN
 10
1.000000E+20
 20
1.000000E+20
 30
1.000000E+20
  9
$PEXTMAX
 10
-1.000000E+20
 20
-1.000000E+20
 30
-1.000000E+20
  9
$PLIMMIN
 10
0.0
 20
0.0
  9
$PLIMMAX
 10
12.0
 20
9.0
  9
$UNITMODE
 70
     0
  9
$VISRETAIN
 70
     0
  9
$PLINEGEN
 70
     0
  9
$PSLTSCALE
 70
     0
  9
$TREEDEPTH
 70
  3020
  9
$DWGCODEPAGE
  3
iso8859-1
  0
ENDSEC
  0
SECTION
  2
TABLES
  0
TABLE
  2
VPORT
 70
     2
  0
VPORT
  2
*ACTIVE
 70
     0
 10
0.0
 20
0.0
 11
1.0
 21
1.0
 12
293.610342
 22
37.479298
 13
0.0
 23
0.0
 14
1.0
 24
1.0
 15
10.0
 25
10.0
 16
0.0
 26
0.0
 36
1.0
 17
0.0
 27
0.0
 37
0.0
 40
15.163708
 41
1.611024
 42
50.0
 43
0.0
 44
0.0
 50
0.0
 51
0.0
 71
     0
 72
   100
 73
     1
 74
     0
 75
     0
 76
     0
 77
     0
 78
     1
  0
ENDTAB
  0
TABLE
  2
LTYPE
 70
     1
  0
LTYPE
  2
CONTINUOUS
 70
    64
  3
Solid line
 72
    65
 73
     0
 40
0.0
  0
ENDTAB
  0
TABLE
  2
LAYER
 70
     3
  0
LAYER
  2
0
 70
    64
 62
     7
  6
CONTINUOUS
  0
LAYER
  2
MESURA
 70
     0
 62
     7
  6
CONTINUOUS
  0
LAYER
  2
DEFPOINTS
 70
     0
 62
     7
  6
CONTINUOUS
  0
ENDTAB
  0
TABLE
  2
STYLE
 70
     2
  0
STYLE
  2
STANDARD
 70
     0
 40
0.0
 41
1.0
 50
0.0
 71
     0
 42
0.1
  3
txt
  4

  0
STYLE
  2
ROMANC
 70
    64
 40
0.0
 41
1.0
 50
0.0
 71
     0
 42
0.1
  3
romanc
  4

  0
ENDTAB
  0
TABLE
  2
VIEW
 70
     0
  0
ENDTAB
  0
TABLE
  2
UCS
 70
     0
  0
ENDTAB
  0
TABLE
  2
APPID
 70
     1
  0
APPID
  2
ACAD
 70
    64
  0
ENDTAB
  0
TABLE
  2
DIMSTYLE
 70
     1
  0
DIMSTYLE
  2
SILVIA
 70
     0
  3

  4

  5

  6

  7

 40
1.5
 41
0.1
 42
0.01
 43
7.0
 44
0.01
 45
0.0
 46
0.0
 47
0.0
 48
0.0
140
0.05
141
0.1
142
0.0
143
25.4
144
1.0
145
0.0
146
70.0
147
0.09
 71
     0
 72
     0
 73
     0
 74
     0
 75
     0
 76
     0
 77
     1
 78
     0
170
     0
171
     2
172
     1
173
     0
174
     1
175
     0
176
     0
177
     0
178
     0
  0
ENDTAB
  0
ENDSEC
  0
SECTION
  2
BLOCKS
  0
BLOCK
  8
0
  2
*D0
 70
    65
 10
0.0
 20
0.0
 30
0.0
  3
*D
  0
LINE
  8
0
  6
BYBLOCK
 62
     0
 10
285.821183
 20
35.187357
 30
0.0
 11
285.821183
 21
34.162138
 31
0.0
  0
LINE
  8
0
  6
BYBLOCK
 62
     0
 10
287.021183
 20
35.187357
 30
0.0
 11
287.021183
 21
34.162138
 31
0.0
  0
LINE
  8
0
  6
BYBLOCK
 62
     0
 10
285.971183
 20
34.177138
 30
0.0
 11
286.871183
 21
34.177138
 31
0.0
  0
SOLID
  8
0
  6
BYBLOCK
 62
     0
 10
285.971183
 20
34.202138
 30
0.0
 11
285.971183
 21
34.152138
 31
0.0
 12
285.821183
 22
34.177138
 32
0.0
 13
285.821183
 23
34.177138
 33
0.0
  0
SOLID
  8
0
  6
BYBLOCK
 62
     0
 10
286.871183
 20
34.202138
 30
0.0
 11
286.871183
 21
34.152138
 31
0.0
 12
287.021183
 22
34.177138
 32
0.0
 13
287.021183
 23
34.177138
 33
0.0
  0
TEXT
  8
0
  6
BYBLOCK
 62
     0
 10
286.290826
 20
34.214638
 30
0.0
 40
0.075
  1
1.20
  7
ROMANC
 72
     1
 11
286.421183
 21
34.252138
 31
0.0
 73
     2
  0
POINT
  8
DEFPOINTS
  6
BYBLOCK
 62
     0
 10
285.821183
 20
35.202357
 30
0.0
  0
POINT
  8
DEFPOINTS
  6
BYBLOCK
 62
     0
 10
287.021183
 20
35.202357
 30
0.0
  0
POINT
  8
DEFPOINTS
  6
BYBLOCK
 62
     0
 10
287.021183
 20
34.177138
 30
0.0
  0
ENDBLK
  8
0
  0
BLOCK
  8
0
  2
*D1
 70
    65
 10
0.0
 20
0.0
 30
0.0
  3
*D
  0
LINE
  8
0
  6
BYBLOCK
 62
     0
 10
286.421183
 20
36.637357
 30
0.0
 11
286.421183
 21
35.8311
 31
0.0
  0
LINE
  8
0
  6
BYBLOCK
 62
     0
 10
287.021183
 20
35.217357
 30
0.0
 11
287.021183
 21
35.8611
 31
0.0
  0
LINE
  8
0
  6
BYBLOCK
 62
     0
 10
286.271183
 20
35.8461
 30
0.0
 11
286.121183
 21
35.8461
 31
0.0
  0
LINE
  8
0
  6
BYBLOCK
 62
     0
 10
287.171183
 20
35.8461
 30
0.0
 11
287.321183
 21
35.8461
 31
0.0
  0
SOLID
  8
0
  6
BYBLOCK
 62
     0
 10
286.271183
 20
35.8711
 30
0.0
 11
286.271183
 21
35.8211
 31
0.0
 12
286.421183
 22
35.8461
 32
0.0
 13
286.421183
 23
35.8461
 33
0.0
  0
SOLID
  8
0
  6
BYBLOCK
 62
     0
 10
287.171183
 20
35.8711
 30
0.0
 11
287.171183
 21
35.8211
 31
0.0
 12
287.021183
 22
35.8461
 32
0.0
 13
287.021183
 23
35.8461
 33
0.0
  0
LINE
  8
0
  6
BYBLOCK
 62
     0
 10
286.421183
 20
35.8461
 30
0.0
 11
287.021183
 21
35.8461
 31
0.0
  0
TEXT
  8
0
  6
BYBLOCK
 62
     0
 10
286.596183
 20
35.8836
 30
0.0
 40
0.075
  1
0.60
  7
ROMANC
 72
     1
 11
286.721183
 21
35.9211
 31
0.0
 73
     2
  0
POINT
  8
DEFPOINTS
  6
BYBLOCK
 62
     0
 10
286.421183
 20
36.652357
 30
0.0
  0
POINT
  8
DEFPOINTS
  6
BYBLOCK
 62
     0
 10
287.021183
 20
35.202357
 30
0.0
  0
POINT
  8
DEFPOINTS
  6
BYBLOCK
 62
     0
 10
287.021183
 20
35.8461
 30
0.0
  0
ENDBLK
  8
0
  0
BLOCK
  8
0
  2
*D2
 70
    65
 10
0.0
 20
0.0
 30
0.0
  3
*D
  0
LINE
  8
0
  6
BYBLOCK
 62
     0
 10
286.436183
 20
36.652357
 30
0.0
 11
287.840132
 21
36.652357
 31
0.0
  0
LINE
  8
0
  6
BYBLOCK
 62
     0
 10
287.036183
 20
35.202357
 30
0.0
 11
287.840132
 21
35.202357
 31
0.0
  0
LINE
  8
0
  6
BYBLOCK
 62
     0
 10
287.825132
 20
36.502357
 30
0.0
 11
287.825132
 21
35.352357
 31
0.0
  0
SOLID
  8
0
  6
BYBLOCK
 62
     0
 10
287.800132
 20
36.502357
 30
0.0
 11
287.850132
 21
36.502357
 31
0.0
 12
287.825132
 22
36.652357
 32
0.0
 13
287.825132
 23
36.652357
 33
0.0
  0
SOLID
  8
0
  6
BYBLOCK
 62
     0
 10
287.800132
 20
35.352357
 30
0.0
 11
287.850132
 21
35.352357
 31
0.0
 12
287.825132
 22
35.202357
 32
0.0
 13
287.825132
 23
35.202357
 33
0.0
  0
TEXT
  8
0
  6
BYBLOCK
 62
     0
 10
287.787632
 20
35.797
 30
0.0
 40
0.075
  1
1.45
 50
90.0
  7
ROMANC
 72
     1
 11
287.750132
 21
35.927357
 31
0.0
 73
     2
  0
POINT
  8
DEFPOINTS
  6
BYBLOCK
 62
     0
 10
286.421183
 20
36.652357
 30
0.0
  0
POINT
  8
DEFPOINTS
  6
BYBLOCK
 62
     0
 10
287.021183
 20
35.202357
 30
0.0
  0
POINT
  8
DEFPOINTS
  6
BYBLOCK
 62
     0
 10
287.825132
 20
35.202357
 30
0.0
  0
ENDBLK
  8
0
  0
BLOCK
  8
0
  2
*D3
 70
    65
 10
0.0
 20
0.0
 30
0.0
  3
*D
  0
LINE
  8
0
  6
BYBLOCK
 62
     0
 10
286.436183
 20
35.202357
 30
0.0
 11
287.397548
 21
35.202357
 31
0.0
  0
LINE
  8
0
  6
BYBLOCK
 62
     0
 10
287.036183
 20
35.802357
 30
0.0
 11
287.397548
 21
35.802357
 31
0.0
  0
LINE
  8
0
  6
BYBLOCK
 62
     0
 10
287.382548
 20
35.052357
 30
0.0
 11
287.382548
 21
34.902357
 31
0.0
  0
LINE
  8
0
  6
BYBLOCK
 62
     0
 10
287.382548
 20
35.952357
 30
0.0
 11
287.382548
 21
36.102357
 31
0.0
  0
SOLID
  8
0
  6
BYBLOCK
 62
     0
 10
287.357548
 20
35.052357
 30
0.0
 11
287.407548
 21
35.052357
 31
0.0
 12
287.382548
 22
35.202357
 32
0.0
 13
287.382548
 23
35.202357
 33
0.0
  0
SOLID
  8
0
  6
BYBLOCK
 62
     0
 10
287.357548
 20
35.952357
 30
0.0
 11
287.407548
 21
35.952357
 31
0.0
 12
287.382548
 22
35.802357
 32
0.0
 13
287.382548
 23
35.802357
 33
0.0
  0
LINE
  8
0
  6
BYBLOCK
 62
     0
 10
287.382548
 20
35.202357
 30
0.0
 11
287.382548
 21
35.802357
 31
0.0
  0
TEXT
  8
0
  6
BYBLOCK
 62
     0
 10
287.345048
 20
35.377357
 30
0.0
 40
0.075
  1
0.60
 50
90.0
  7
ROMANC
 72
     1
 11
287.307548
 21
35.502357
 31
0.0
 73
     2
  0
POINT
  8
DEFPOINTS
  6
BYBLOCK
 62
     0
 10
286.421183
 20
35.202357
 30
0.0
  0
POINT
  8
DEFPOINTS
  6
BYBLOCK
 62
     0
 10
287.021183
 20
35.802357
 30
0.0
  0
POINT
  8
DEFPOINTS
  6
BYBLOCK
 62
     0
 10
287.382548
 20
35.802357
 30
0.0
  0
ENDBLK
  8
0
  0
BLOCK
  8
0
  2
*D4
 70
    65
 10
0.0
 20
0.0
 30
0.0
  3
*D
  0
LINE
  8
0
  6
BYBLOCK
 62
     0
 10
287.036183
 20
35.802357
 30
0.0
 11
287.397548
 21
35.802357
 31
0.0
  0
LINE
  8
0
  6
BYBLOCK
 62
     0
 10
286.436183
 20
36.652357
 30
0.0
 11
287.397548
 21
36.652357
 31
0.0
  0
LINE
  8
0
  6
BYBLOCK
 62
     0
 10
287.382548
 20
35.952357
 30
0.0
 11
287.382548
 21
36.502357
 31
0.0
  0
SOLID
  8
0
  6
BYBLOCK
 62
     0
 10
287.357548
 20
35.952357
 30
0.0
 11
287.407548
 21
35.952357
 31
0.0
 12
287.382548
 22
35.802357
 32
0.0
 13
287.382548
 23
35.802357
 33
0.0
  0
SOLID
  8
0
  6
BYBLOCK
 62
     0
 10
287.357548
 20
36.502357
 30
0.0
 11
287.407548
 21
36.502357
 31
0.0
 12
287.382548
 22
36.652357
 32
0.0
 13
287.382548
 23
36.652357
 33
0.0
  0
TEXT
  8
0
  6
BYBLOCK
 62
     0
 10
287.345048
 20
36.102357
 30
0.0
 40
0.075
  1
0.85
 50
90.0
  7
ROMANC
 72
     1
 11
287.307548
 21
36.227357
 31
0.0
 73
     2
  0
POINT
  8
DEFPOINTS
  6
BYBLOCK
 62
     0
 10
287.021183
 20
35.802357
 30
0.0
  0
POINT
  8
DEFPOINTS
  6
BYBLOCK
 62
     0
 10
286.421183
 20
36.652357
 30
0.0
  0
POINT
  8
DEFPOINTS
  6
BYBLOCK
 62
     0
 10
287.382548
 20
36.652357
 30
0.0
  0
ENDBLK
  8
0
  0
ENDSEC
  0
SECTION
  2
ENTITIES
  0
POLYLINE
  8
0
 66
     1
 10
0.0
 20
0.0
 30
0.0
  0
VERTEX
  8
0
 10
108.040631
 20
-16.548467
 30
0.0
 42
0.063415
  0
SEQEND
  8
0
  0
POLYLINE
  8
0
 66
     1
 10
0.0
 20
0.0
 30
0.0
  0
VERTEX
  8
0
 10
86.286488
 20
-15.036857
 30
0.0
 42
0.22708
  0
SEQEND
  8
0
  0
POLYLINE
  8
0
 66
     1
 10
0.0
 20
0.0
 30
0.0
  0
VERTEX
  8
0
 10
72.351426
 20
-14.976331
 30
0.0
 42
0.089446
  0
SEQEND
  8
0
  0
POLYLINE
  8
0
 66
     1
 10
0.0
 20
0.0
 30
0.0
  0
VERTEX
  8
0
 10
97.210524
 20
16.938509
 30
0.0
 42
0.05817
  0
SEQEND
  8
0
  0
POLYLINE
  8
0
 66
     1
 10
0.0
 20
0.0
 30
0.0
  0
VERTEX
  8
0
 10
121.196188
 20
17.602271
 30
0.0
 42
0.156162
  0
SEQEND
  8
0
  0
POLYLINE
  8
0
 66
     1
 10
0.0
 20
0.0
 30
0.0
  0
VERTEX
  8
0
 10
119.340696
 20
34.532686
 30
0.0
 42
0.283046
  0
SEQEND
  8
0
  0
POLYLINE
  8
0
 66
     1
 10
0.0
 20
0.0
 30
0.0
  0
VERTEX
  8
0
 10
157.359637
 20
32.54887
 30
0.0
 42
0.269827
  0
SEQEND
  8
0
  0
POLYLINE
  8
0
 66
     1
 10
0.0
 20
0.0
 30
0.0
  0
VERTEX
  8
0
 10
156.169702
 20
18.299763
 30
0.0
 42
0.066056
  0
SEQEND
  8
0
  0
POLYLINE
  8
0
 66
     1
 10
0.0
 20
0.0
 30
0.0
  0
VERTEX
  8
0
 10
168.512554
 20
1.430566
 30
0.0
 42
0.148501
  0
SEQEND
  8
0
  0
POLYLINE
  8
0
 66
     1
 10
0.0
 20
0.0
 30
0.0
  0
VERTEX
  8
0
 10
168.689549
 20
33.579487
 30
0.0
 42
0.08626
  0
SEQEND
  8
0
  0
POLYLINE
  8
0
 66
     1
 10
0.0
 20
0.0
 30
0.0
  0
VERTEX
  8
0
 10
180.209617
 20
34.197499
 30
0.0
 42
0.059446
  0
SEQEND
  8
0
  0
POLYLINE
  8
0
 66
     1
 10
0.0
 20
0.0
 30
0.0
  0
VERTEX
  8
0
 10
168.213495
 20
14.734069
 30
0.0
 42
0.06661
  0
SEQEND
  8
0
  0
POLYLINE
  8
0
 66
     1
 10
0.0
 20
0.0
 30
0.0
  0
VERTEX
  8
0
 10
180.09759
 20
16.643931
 30
0.0
 42
0.165716
  0
SEQEND
  8
0
  0
POLYLINE
  8
0
 66
     1
 10
0.0
 20
0.0
 30
0.0
  0
VERTEX
  8
0
 10
180.349774
 20
-12.199421
 30
0.0
 42
0.098491
  0
SEQEND
  8
0
  0
POLYLINE
  8
0
 66
     1
 10
0.0
 20
0.0
 30
0.0
  0
VERTEX
  8
0
 10
194.593929
 20
-14.402211
 30
0.0
 42
0.098491
  0
SEQEND
  8
0
  0
POLYLINE
  8
0
 66
     1
 10
0.0
 20
0.0
 30
0.0
  0
VERTEX
  8
0
 10
192.091391
 20
16.821986
 30
0.0
 42
0.129253
  0
SEQEND
  8
0
  0
LINE
  8
0
 10
291.895795
 20
29.897444
 30
0.0
 11
291.895795
 21
44.747444
 31
0.0
  0
TEXT
  8
0
 10
283.887846
 20
40.56142
 30
0.0
 40
0.3
  1
P = 46.9 dm
  7
ROMANC
  0
LINE
  8
0
 10
281.395795
 20
44.747444
 30
0.0
 11
281.395795
 21
29.897444
 31
0.0
  0
LINE
  8
0
 10
281.395795
 20
29.897444
 30
0.0
 11
291.895795
 21
29.897444
 31
0.0
  0
LINE
  8
0
 10
291.895795
 20
44.747444
 30
0.0
 11
281.395795
 21
44.747444
 31
0.0
  0
TEXT
  8
0
 10
287.122271
 20
41.564915
 30
0.0
 40
0.1
  1
2
  7
ROMANC
  0
TEXT
  8
0
 10
283.925768
 20
41.857589
 30
0.0
 40
0.3
  1
ESCALA  1:50
  7
ROMANC
  0
TEXT
  8
0
 10
283.925768
 20
42.343303
 30
0.0
 40
0.3
  1
TIPUS   NT152
  7
ROMANC
  0
TEXT
  8
0
 10
283.938862
 20
41.258999
 30
0.0
 40
0.3
  1
S=  152 dm
  7
ROMANC
  0
POLYLINE
  8
0
 66
     1
 10
0.0
 20
0.0
 30
0.0
  0
VERTEX
  8
0
 10
285.562002
 20
36.153868
 30
0.0
 42
0.113017
  0
SEQEND
  8
0
  0
POLYLINE
  8
0
 66
     1
 10
0.0
 20
0.0
 30
0.0
  0
VERTEX
  8
0
 10
285.562002
 20
36.153868
 30
0.0
 42
0.098491
  0
SEQEND
  8
0
  0
POLYLINE
  8
0
 66
     1
 10
0.0
 20
0.0
 30
0.0
  0
VERTEX
  8
0
 10
284.801631
 20
36.566408
 30
0.0
 42
0.13263
  0
SEQEND
  8
0
  0
POLYLINE
  8
0
 66
     1
 10
0.0
 20
0.0
 30
0.0
  0
VERTEX
  8
0
 10
285.821183
 20
35.802357
 30
0.0
 42
0.071234
  0
SEQEND
  8
0
  0
ARC
  8
0
 10
285.82114
 20
35.802357
 30
0.0
 40
1.210043
 50
360.0
 51
16.298183
  0
ARC
  8
0
 10
286.116184
 20
35.888624
 30
0.0
 40
0.902646
 50
16.298183
 51
35.217593
  0
ARC
  8
0
 10
286.302993
 20
36.020489
 30
0.0
 40
0.673984
 50
35.217593
 51
59.595481
  0
ARC
  8
0
 10
286.421183
 20
36.221903
 30
0.0
 40
0.440455
 50
59.595481
 51
90.0
  0
ARC
  8
0
 10
286.421183
 20
36.221903
 30
0.0
 40
0.440455
 50
90.0
 51
120.404519
  0
ARC
  8
0
 10
286.539373
 20
36.020489
 30
0.0
 40
0.673984
 50
120.404519
 51
144.782407
  0
ARC
  8
0
 10
286.726182
 20
35.888624
 30
0.0
 40
0.902646
 50
144.782407
 51
163.701817
  0
ARC
  8
0
 10
287.021226
 20
35.802357
 30
0.0
 40
1.210043
 50
163.701817
 51
180.0
  0
LINE
  8
0
 10
285.811183
 20
35.802357
 30
0.0
 11
285.811183
 21
35.192357
 31
0.0
  0
LINE
  8
0
 10
285.811183
 20
35.192357
 30
0.0
 11
287.031183
 21
35.192357
 31
0.0
  0
LINE
  8
0
 10
287.031183
 20
35.192357
 30
0.0
 11
287.031183
 21
35.802357
 31
0.0
  0
ARC
  8
0
 10
285.82114
 20
35.802357
 30
0.0
 40
1.190043
 50
360.0
 51
16.298183
  0
ARC
  8
0
 10
286.116184
 20
35.888624
 30
0.0
 40
0.882646
 50
16.298183
 51
35.217593
  0
ARC
  8
0
 10
286.302993
 20
36.020489
 30
0.0
 40
0.653984
 50
35.217593
 51
59.595481
  0
ARC
  8
0
 10
286.421183
 20
36.221903
 30
0.0
 40
0.420455
 50
59.595481
 51
90.0
  0
ARC
  8
0
 10
286.421183
 20
36.221903
 30
0.0
 40
0.420455
 50
90.0
 51
120.404519
  0
ARC
  8
0
 10
286.539373
 20
36.020489
 30
0.0
 40
0.653984
 50
120.404519
 51
144.782407
  0
ARC
  8
0
 10
286.726182
 20
35.888624
 30
0.0
 40
0.882646
 50
144.782407
 51
163.701817
  0
ARC
  8
0
 10
287.021226
 20
35.802357
 30
0.0
 40
1.190043
 50
163.701817
 51
180.0
  0
LINE
  8
0
 10
285.831183
 20
35.802357
 30
0.0
 11
285.831183
 21
35.212357
 31
0.0
  0
LINE
  8
0
 10
285.831183
 20
35.212357
 30
0.0
 11
287.011183
 21
35.212357
 31
0.0
  0
LINE
  8
0
 10
287.011183
 20
35.212357
 30
0.0
 11
287.011183
 21
35.802357
 31
0.0
  0
ARC
  8
0
 10
285.82114
 20
35.802357
 30
0.0
 40
1.200043
 50
0.0
 51
16.298183
  0
ARC
  8
0
 10
286.116184
 20
35.888624
 30
0.0
 40
0.892646
 50
16.298183
 51
35.217593
  0
ARC
  8
0
 10
286.302993
 20
36.020489
 30
0.0
 40
0.663984
 50
35.217593
 51
59.595481
  0
ARC
  8
0
 10
286.421183
 20
36.221903
 30
0.0
 40
0.430455
 50
59.595481
 51
90.0
  0
ARC
  8
0
 10
286.421183
 20
36.221903
 30
0.0
 40
0.430455
 50
90.0
 51
120.404519
  0
ARC
  8
0
 10
286.539373
 20
36.020489
 30
0.0
 40
0.663984
 50
120.404519
 51
144.782407
  0
ARC
  8
0
 10
286.726182
 20
35.888624
 30
0.0
 40
0.892646
 50
144.782407
 51
163.701817
  0
ARC
  8
0
 10
287.021226
 20
35.802357
 30
0.0
 40
1.200043
 50
163.701817
 51
180.0
  0
LINE
  8
0
 10
285.821183
 20
35.802357
 30
0.0
 11
285.821183
 21
35.202357
 31
0.0
  0
LINE
  8
0
 10
285.821183
 20
35.202357
 30
0.0
 11
287.021183
 21
35.202357
 31
0.0
  0
LINE
  8
0
 10
287.021183
 20
35.202357
 30
0.0
 11
287.021183
 21
35.802357
 31
0.0
  0
LINE
  8
0
  6
BYBLOCK
 62
     0
 10
287.036183
 20
35.802357
 30
0.0
 11
287.397548
 21
35.802357
 31
0.0
  0
LINE
  8
0
  6
BYBLOCK
 62
     0
 10
286.436183
 20
36.652357
 30
0.0
 11
287.397548
 21
36.652357
 31
0.0
  0
LINE
  8
0
  6
BYBLOCK
 62
     0
 10
287.382548
 20
35.952357
 30
0.0
 11
287.382548
 21
36.502357
 31
0.0
  0
SOLID
  8
0
  6
BYBLOCK
 62
     0
 10
287.357548
 20
35.952357
 30
0.0
 11
287.407548
 21
35.952357
 31
0.0
 12
287.382548
 22
35.802357
 32
0.0
 13
287.382548
 23
35.802357
 33
0.0
  0
SOLID
  8
0
  6
BYBLOCK
 62
     0
 10
287.357548
 20
36.502357
 30
0.0
 11
287.407548
 21
36.502357
 31
0.0
 12
287.382548
 22
36.652357
 32
0.0
 13
287.382548
 23
36.652357
 33
0.0
  0
TEXT
  8
0
  6
BYBLOCK
 62
     0
 10
287.345048
 20
36.102357
 30
0.0
 40
0.075
  1
0.85
 50
90.0
  7
ROMANC
 72
     1
 11
287.307548
 21
36.227357
 31
0.0
 73
     2
  0
POINT
  8
DEFPOINTS
  6
BYBLOCK
 62
     0
 10
287.021183
 20
35.802357
 30
0.0
  0
POINT
  8
DEFPOINTS
  6
BYBLOCK
 62
     0
 10
286.421183
 20
36.652357
 30
0.0
  0
POINT
  8
DEFPOINTS
  6
BYBLOCK
 62
     0
 10
287.382548
 20
36.652357
 30
0.0
  0
LINE
  8
0
  6
BYBLOCK
 62
     0
 10
286.436183
 20
35.202357
 30
0.0
 11
287.397548
 21
35.202357
 31
0.0
  0
LINE
  8
0
  6
BYBLOCK
 62
     0
 10
287.036183
 20
35.802357
 30
0.0
 11
287.397548
 21
35.802357
 31
0.0
  0
LINE
  8
0
  6
BYBLOCK
 62
     0
 10
287.382548
 20
35.052357
 30
0.0
 11
287.382548
 21
34.902357
 31
0.0
  0
LINE
  8
0
  6
BYBLOCK
 62
     0
 10
287.382548
 20
35.952357
 30
0.0
 11
287.382548
 21
36.102357
 31
0.0
  0
SOLID
  8
0
  6
BYBLOCK
 62
     0
 10
287.357548
 20
35.052357
 30
0.0
 11
287.407548
 21
35.052357
 31
0.0
 12
287.382548
 22
35.202357
 32
0.0
 13
287.382548
 23
35.202357
 33
0.0
  0
SOLID
  8
0
  6
BYBLOCK
 62
     0
 10
287.357548
 20
35.952357
 30
0.0
 11
287.407548
 21
35.952357
 31
0.0
 12
287.382548
 22
35.802357
 32
0.0
 13
287.382548
 23
35.802357
 33
0.0
  0
LINE
  8
0
  6
BYBLOCK
 62
     0
 10
287.382548
 20
35.202357
 30
0.0
 11
287.382548
 21
35.802357
 31
0.0
  0
TEXT
  8
0
  6
BYBLOCK
 62
     0
 10
287.345048
 20
35.377357
 30
0.0
 40
0.075
  1
0.60
 50
90.0
  7
ROMANC
 72
     1
 11
287.307548
 21
35.502357
 31
0.0
 73
     2
  0
POINT
  8
DEFPOINTS
  6
BYBLOCK
 62
     0
 10
286.421183
 20
35.202357
 30
0.0
  0
POINT
  8
DEFPOINTS
  6
BYBLOCK
 62
     0
 10
287.021183
 20
35.802357
 30
0.0
  0
POINT
  8
DEFPOINTS
  6
BYBLOCK
 62
     0
 10
287.382548
 20
35.802357
 30
0.0
  0
LINE
  8
0
  6
BYBLOCK
 62
     0
 10
286.436183
 20
36.652357
 30
0.0
 11
287.840132
 21
36.652357
 31
0.0
  0
LINE
  8
0
  6
BYBLOCK
 62
     0
 10
287.036183
 20
35.202357
 30
0.0
 11
287.840132
 21
35.202357
 31
0.0
  0
LINE
  8
0
  6
BYBLOCK
 62
     0
 10
287.825132
 20
36.502357
 30
0.0
 11
287.825132
 21
35.352357
 31
0.0
  0
SOLID
  8
0
  6
BYBLOCK
 62
     0
 10
287.800132
 20
36.502357
 30
0.0
 11
287.850132
 21
36.502357
 31
0.0
 12
287.825132
 22
36.652357
 32
0.0
 13
287.825132
 23
36.652357
 33
0.0
  0
SOLID
  8
0
  6
BYBLOCK
 62
     0
 10
287.800132
 20
35.352357
 30
0.0
 11
287.850132
 21
35.352357
 31
0.0
 12
287.825132
 22
35.202357
 32
0.0
 13
287.825132
 23
35.202357
 33
0.0
  0
TEXT
  8
0
  6
BYBLOCK
 62
     0
 10
287.787632
 20
35.797
 30
0.0
 40
0.075
  1
1.45
 50
90.0
  7
ROMANC
 72
     1
 11
287.750132
 21
35.927357
 31
0.0
 73
     2
  0
POINT
  8
DEFPOINTS
  6
BYBLOCK
 62
     0
 10
286.421183
 20
36.652357
 30
0.0
  0
POINT
  8
DEFPOINTS
  6
BYBLOCK
 62
     0
 10
287.021183
 20
35.202357
 30
0.0
  0
POINT
  8
DEFPOINTS
  6
BYBLOCK
 62
     0
 10
287.825132
 20
35.202357
 30
0.0
  0
LINE
  8
0
  6
BYBLOCK
 62
     0
 10
285.821183
 20
35.187357
 30
0.0
 11
285.821183
 21
34.162138
 31
0.0
  0
LINE
  8
0
  6
BYBLOCK
 62
     0
 10
287.021183
 20
35.187357
 30
0.0
 11
287.021183
 21
34.162138
 31
0.0
  0
LINE
  8
0
  6
BYBLOCK
 62
     0
 10
285.971183
 20
34.177138
 30
0.0
 11
286.871183
 21
34.177138
 31
0.0
  0
SOLID
  8
0
  6
BYBLOCK
 62
     0
 10
285.971183
 20
34.202138
 30
0.0
 11
285.971183
 21
34.152138
 31
0.0
 12
285.821183
 22
34.177138
 32
0.0
 13
285.821183
 23
34.177138
 33
0.0
  0
SOLID
  8
0
  6
BYBLOCK
 62
     0
 10
286.871183
 20
34.202138
 30
0.0
 11
286.871183
 21
34.152138
 31
0.0
 12
287.021183
 22
34.177138
 32
0.0
 13
287.021183
 23
34.177138
 33
0.0
  0
TEXT
  8
0
  6
BYBLOCK
 62
     0
 10
286.290826
 20
34.214638
 30
0.0
 40
0.075
  1
1.20
  7
ROMANC
 72
     1
 11
286.421183
 21
34.252138
 31
0.0
 73
     2
  0
POINT
  8
DEFPOINTS
  6
BYBLOCK
 62
     0
 10
285.821183
 20
35.202357
 30
0.0
  0
POINT
  8
DEFPOINTS
  6
BYBLOCK
 62
     0
 10
287.021183
 20
35.202357
 30
0.0
  0
POINT
  8
DEFPOINTS
  6
BYBLOCK
 62
     0
 10
287.021183
 20
34.177138
 30
0.0
  0
ENDSEC
  0
EOF
