  0
SECTION
  2
HEADER
  9
$ACADVER
  1
AC1009
  9
$INSBASE
 10
0.0
 20
0.0
 30
0.0
  9
$EXTMIN
 10
281.396000
 20
29.897000
 30
-2147483.648000
  9
$EXTMAX
 10
291.896000
 20
44.747000
 30
0.000000
  9
$LIMMIN
 10
280.396000
 20
28.897000
  9
$LIMMAX
 10
292.896000
 20
43.747000
  9
$ORTHOMODE
 70
     0
  9
$REGENMODE
 70
     1
  9
$FILLMODE
 70
     1
  9
$QTEXTMODE
 70
     0
  9
$MIRRTEXT
 70
     1
  9
$DRAGMODE
 70
     2
  9
$LTSCALE
 40
1.0
  9
$OSMODE
 70
     0
  9
$ATTMODE
 70
     1
  9
$TEXTSIZE
 40
0.2
  9
$TRACEWID
 40
0.05
  9
$TEXTSTYLE
  7
STANDARD
  9
$CLAYER
  8
0
  9
$CELTYPE
  6
BYLAYER
  9
$CECOLOR
 62
   256
  9
$DIMSCALE
 40
1.0
  9
$DIMASZ
 40
0.18
  9
$DIMEXO
 40
0.0625
  9
$DIMDLI
 40
0.38
  9
$DIMRND
 40
0.0
  9
$DIMDLE
 40
0.0
  9
$DIMEXE
 40
0.18
  9
$DIMTP
 40
0.0
  9
$DIMTM
 40
0.0
  9
$DIMTXT
 40
0.18
  9
$DIMCEN
 40
0.09
  9
$DIMTSZ
 40
0.0
  9
$DIMTOL
 70
     0
  9
$DIMLIM
 70
     0
  9
$DIMTIH
 70
     1
  9
$DIMTOH
 70
     1
  9
$DIMSE1
 70
     0
  9
$DIMSE2
 70
     0
  9
$DIMTAD
 70
     0
  9
$DIMZIN
 70
     0
  9
$DIMBLK
  1

  9
$DIMASO
 70
     1
  9
$DIMSHO
 70
     1
  9
$DIMPOST
  1

  9
$DIMAPOST
  1

  9
$DIMALT
 70
     0
  9
$DIMALTD
 70
     2
  9
$DIMALTF
 40
25.4
  9
$DIMLFAC
 40
1.0
  9
$DIMTOFL
 70
     0
  9
$DIMTVP
 40
0.0
  9
$DIMTIX
 70
     0
  9
$DIMSOXD
 70
     0
  9
$DIMSAH
 70
     0
  9
$DIMBLK1
  1

  9
$DIMBLK2
  1

  9
$DIMSTYLE
  2
*UNNAMED
  9
$DIMCLRD
 70
     0
  9
$DIMCLRE
 70
     0
  9
$DIMCLRT
 70
     0
  9
$DIMTFAC
 40
1.0
  9
$DIMGAP
 40
0.09
  9
$LUNITS
 70
     2
  9
$LUPREC
 70
     4
  9
$AXISMODE
 70
     0
  9
$AXISUNIT
 10
0.0
 20
0.0
  9
$SKETCHINC
 40
0.1
  9
$FILLETRAD
 40
0.0
  9
$AUNITS
 70
     0
  9
$AUPREC
 70
     0
  9
$MENU
  1
acad
  9
$ELEVATION
 40
0.0
  9
$PELEVATION
 40
0.0
  9
$THICKNESS
 40
0.0
  9
$LIMCHECK
 70
     0
  9
$BLIPMODE
 70
     1
  9
$CHAMFERA
 40
0.0
  9
$CHAMFERB
 40
0.0
  9
$SKPOLY
 70
     0
  9
$TDCREATE
 40
2448315.373408102
  9
$TDUPDATE
 40
2448315.373408102
  9
$TDINDWG
 40
0.0000000000
  9
$TDUSRTIMER
 40
0.0000000000
  9
$USRTIMER
 70
     1
  9
$ANGBASE
 50
0.0
  9
$ANGDIR
 70
     0
  9
$PDMODE
 70
     0
  9
$PDSIZE
 40
0.0
  9
$PLINEWID
 40
0.0
  9
$COORDS
 70
     0
  9
$SPLFRAME
 70
     0
  9
$SPLINETYPE
 70
     6
  9
$SPLINESEGS
 70
     8
  9
$ATTDIA
 70
     0
  9
$ATTREQ
 70
     1
  9
$HANDLING
 70
     0
  9
$HANDSEED
  5
0
  9
$SURFTAB1
 70
     6
  9
$SURFTAB2
 70
     6
  9
$SURFTYPE
 70
     6
  9
$SURFU
 70
     6
  9
$SURFV
 70
     6
  9
$UCSNAME
  2

  9
$UCSORG
 10
0.0
 20
0.0
 30
0.0
  9
$UCSXDIR
 10
1.0
 20
0.0
 30
0.0
  9
$UCSYDIR
 10
0.0
 20
1.0
 30
0.0
  9
$PUCSNAME
  2

  9
$PUCSORG
 10
0.0
 20
0.0
 30
0.0
  9
$PUCSXDIR
 10
1.0
 20
0.0
 30
0.0
  9
$PUCSYDIR
 10
0.0
 20
1.0
 30
0.0
  9
$USERI1
 70
     0
  9
$USERI2
 70
     0
  9
$USERI3
 70
     0
  9
$USERI4
 70
     0
  9
$USERI5
 70
     0
  9
$USERR1
 40
0.0
  9
$USERR2
 40
0.0
  9
$USERR3
 40
0.0
  9
$USERR4
 40
0.0
  9
$USERR5
 40
0.0
  9
$WORLDVIEW
 70
     1
  9
$SHADEDGE
 70
     3
  9
$SHADEDIF
 70
    70
  9
$TILEMODE
 70
     1
  9
$MAXACTVP
 70
    16
  9
$PINSBASE
 10
0.0
 20
0.0
 30
0.0
  9
$PLIMCHECK
 70
     0
  9
$PEXTMIN
 10
1.000000E+20
 20
1.000000E+20
 30
1.000000E+20
  9
$PEXTMAX
 10
-1.000000E+20
 20
-1.000000E+20
 30
-1.000000E+20
  9
$PLIMMIN
 10
0.0
 20
0.0
  9
$PLIMMAX
 10
12.0
 20
9.0
  9
$UNITMODE
 70
     0
  9
$VISRETAIN
 70
     0
  0
ENDSEC
  0
SECTION
  2
TABLES
  0
TABLE
  2
LTYPE
 70
    1
  0
LTYPE
  2
CONTINUOUS
 70
    64
  3
Solid Line
 72
    65
 73
0
 40
0.0
  0
ENDTAB
  0
TABLE
  2
LAYER
 70
    8
  0
LAYER
  2
0
 70
    64
 62
7
  6
CONTINUOUS
  0
LAYER
  2
1
 70
    64
 62
7
  6
CONTINUOUS
  0
LAYER
  2
7
 70
    64
 62
7
  6
CONTINUOUS
  0
LAYER
  2
8
 70
    64
 62
7
  6
CONTINUOUS
  0
LAYER
  2
9
 70
    64
 62
7
  6
CONTINUOUS
  0
LAYER
  2
22
 70
    64
 62
7
  6
CONTINUOUS
  0
LAYER
  2
25
 70
    64
 62
7
  6
CONTINUOUS
  0
LAYER
  2
0
 70
    64
 62
7
  6
CONTINUOUS
  0
ENDTAB
  0
TABLE
  2
STYLE
 70
    1
  0
STYLE
  2
ROMANC
70
     0
 40
0.0
 41
1.0
 50
0.0
 71
     0
 42
0.2
  3
ROMANC
  4

  0
ENDTAB
  0
ENDSEC
  0
SECTION
  2
BLOCKS
  0
ENDSEC
  0
SECTION
  2
ENTITIES
  0
TEXT
  8
0
  6
*CONTINUOUS,SOLID
 40
0.100000
 10
287.008000
 20
41.338000
  1
2
  7
ROMANC
  0
TEXT
  8
0
  6
*CONTINUOUS,SOLID
 40
0.300000
 10
283.926000
 20
41.768000
  1
ESCALA  1:50
  7
ROMANC
  0
POLYLINE
  8
0
  6
*CONTINUOUS,SOLID
 66
     1
 70
     1
  0
VERTEX
  8
0
  6
*CONTINUOUS,SOLID
 10
281.396000
 20
44.747000
  0
VERTEX
  8
0
  6
*CONTINUOUS,SOLID
 10
291.896000
 20
44.747000
  0
VERTEX
  8
0
  6
*CONTINUOUS,SOLID
 10
291.896000
 20
29.897000
  0
VERTEX
  8
0
  6
*CONTINUOUS,SOLID
 10
281.396000
 20
29.897000
  0
SEQEND
  8
0
  0
TEXT
  8
0
  6
*CONTINUOUS,SOLID
 40
0.300000
 10
283.945000
 20
41.099000
  1
S = 150 dm
  7
ROMANC
  0
TEXT
  8
0
  6
*CONTINUOUS,SOLID
 40
0.300000
 10
283.922000
 20
40.529000
  1
P = 49 dm
  7
ROMANC
  0
TEXT
  8
0
  6
*CONTINUOUS,SOLID
 40
0.300000
 10
283.926000
 20
42.381000
  1
TIPUS   NT150B
  7
ROMANC
  0
LINE
  8
1
  6
*CONTINUOUS,SOLID
 10
286.248000
 20
35.911000
 11
286.098000
 21
35.911000
  0
LINE
  8
1
  6
*CONTINUOUS,SOLID
 10
286.090000
 20
35.901000
 11
285.888000
 21
36.959000
  0
LINE
  8
1
  6
*CONTINUOUS,SOLID
 10
286.081000
 20
35.891000
 11
285.878000
 21
36.957000
  0
ARC
  8
1
  6
*CONTINUOUS,SOLID
 10
286.448000
 20
36.961000
 40
0.560000
 50
0.000000
 51
180.000000
  0
ARC
  8
1
  6
*CONTINUOUS,SOLID
 10
286.448000
 20
36.961000
 40
0.570000
 50
0.000000
 51
180.000000
  0
LINE
  8
1
  6
*CONTINUOUS,SOLID
 10
287.007000
 20
36.959000
 11
286.805000
 21
35.901000
  0
LINE
  8
1
  6
*CONTINUOUS,SOLID
 10
287.017000
 20
36.957000
 11
286.814000
 21
35.891000
  0
LINE
  8
1
  6
*CONTINUOUS,SOLID
 10
286.805000
 20
35.901000
 11
286.658000
 21
35.901000
  0
LINE
  8
1
  6
*CONTINUOUS,SOLID
 10
286.814000
 20
35.891000
 11
286.667000
 21
35.891000
  0
LINE
  8
1
  6
*CONTINUOUS,SOLID
 10
286.238000
 20
35.901000
 11
286.090000
 21
35.901000
  0
LINE
  8
1
  6
*CONTINUOUS,SOLID
 10
286.229000
 20
35.891000
 11
286.081000
 21
35.891000
  0
POLYLINE
  8
1
  6
*CONTINUOUS,SOLID
 66
     1
 70
     0
  0
VERTEX
  8
1
  6
*CONTINUOUS,SOLID
 10
286.238155
 20
35.901000
 42
0.028122
  0
VERTEX
  8
1
  6
*CONTINUOUS,SOLID
 10
286.241291
 20
35.865172
 42
0.028849
  0
VERTEX
  8
1
  6
*CONTINUOUS,SOLID
 10
286.248468
 20
35.829935
 42
0.029281
  0
VERTEX
  8
1
  6
*CONTINUOUS,SOLID
 10
286.259366
 20
35.796748
 42
0.031135
  0
VERTEX
  8
1
  6
*CONTINUOUS,SOLID
 10
286.274169
 20
35.765121
 42
0.031940
  0
VERTEX
  8
1
  6
*CONTINUOUS,SOLID
 10
286.291944
 20
35.737031
 42
0.034780
  0
VERTEX
  8
1
  6
*CONTINUOUS,SOLID
 10
286.313275
 20
35.711558
 42
0.035868
  0
VERTEX
  8
1
  6
*CONTINUOUS,SOLID
 10
286.336604
 20
35.690611
 42
0.039097
  0
VERTEX
  8
1
  6
*CONTINUOUS,SOLID
 10
286.362772
 20
35.673375
 42
0.040150
  0
VERTEX
  8
1
  6
*CONTINUOUS,SOLID
 10
286.389996
 20
35.661137
 42
0.042458
  0
VERTEX
  8
1
  6
*CONTINUOUS,SOLID
 10
286.418841
 20
35.653519
 42
0.042918
  0
VERTEX
  8
1
  6
*CONTINUOUS,SOLID
 10
286.448000
 20
35.651025
 42
0.042918
  0
VERTEX
  8
1
  6
*CONTINUOUS,SOLID
 10
286.477159
 20
35.653519
 42
0.042458
  0
VERTEX
  8
1
  6
*CONTINUOUS,SOLID
 10
286.506004
 20
35.661137
 42
0.040150
  0
VERTEX
  8
1
  6
*CONTINUOUS,SOLID
 10
286.533228
 20
35.673375
 42
0.039097
  0
VERTEX
  8
1
  6
*CONTINUOUS,SOLID
 10
286.559396
 20
35.690611
 42
0.035868
  0
VERTEX
  8
1
  6
*CONTINUOUS,SOLID
 10
286.582725
 20
35.711558
 42
0.034780
  0
VERTEX
  8
1
  6
*CONTINUOUS,SOLID
 10
286.604056
 20
35.737031
 42
0.031940
  0
VERTEX
  8
1
  6
*CONTINUOUS,SOLID
 10
286.621831
 20
35.765121
 42
0.031135
  0
VERTEX
  8
1
  6
*CONTINUOUS,SOLID
 10
286.636634
 20
35.796748
 42
0.029281
  0
VERTEX
  8
1
  6
*CONTINUOUS,SOLID
 10
286.647532
 20
35.829935
 42
0.028849
  0
VERTEX
  8
1
  6
*CONTINUOUS,SOLID
 10
286.654709
 20
35.865172
 42
0.028122
  0
VERTEX
  8
1
  6
*CONTINUOUS,SOLID
 10
286.657845
 20
35.901000
  0
SEQEND
  8
0
  0
POLYLINE
  8
1
  6
*CONTINUOUS,SOLID
 66
     1
 70
     0
  0
VERTEX
  8
1
  6
*CONTINUOUS,SOLID
 10
286.228604
 20
35.891000
 42
0.027771
  0
VERTEX
  8
1
  6
*CONTINUOUS,SOLID
 10
286.232817
 20
35.854831
 42
0.028569
  0
VERTEX
  8
1
  6
*CONTINUOUS,SOLID
 10
286.241057
 20
35.819367
 42
0.029007
  0
VERTEX
  8
1
  6
*CONTINUOUS,SOLID
 10
286.252963
 20
35.786090
 42
0.030818
  0
VERTEX
  8
1
  6
*CONTINUOUS,SOLID
 10
286.268740
 20
35.754477
 42
0.031587
  0
VERTEX
  8
1
  6
*CONTINUOUS,SOLID
 10
286.287429
 20
35.726443
 42
0.034245
  0
VERTEX
  8
1
  6
*CONTINUOUS,SOLID
 10
286.309615
 20
35.701106
 42
0.035247
  0
VERTEX
  8
1
  6
*CONTINUOUS,SOLID
 10
286.333763
 20
35.680269
 42
0.038179
  0
VERTEX
  8
1
  6
*CONTINUOUS,SOLID
 10
286.360674
 20
35.663182
 42
0.039119
  0
VERTEX
  8
1
  6
*CONTINUOUS,SOLID
 10
286.388635
 20
35.651036
 42
0.041166
  0
VERTEX
  8
1
  6
*CONTINUOUS,SOLID
 10
286.418159
 20
35.643495
 42
0.041569
  0
VERTEX
  8
1
  6
*CONTINUOUS,SOLID
 10
286.448000
 20
35.641023
 42
0.041569
  0
VERTEX
  8
1
  6
*CONTINUOUS,SOLID
 10
286.477841
 20
35.643495
 42
0.041166
  0
VERTEX
  8
1
  6
*CONTINUOUS,SOLID
 10
286.507365
 20
35.651036
 42
0.039119
  0
VERTEX
  8
1
  6
*CONTINUOUS,SOLID
 10
286.535326
 20
35.663182
 42
0.038179
  0
VERTEX
  8
1
  6
*CONTINUOUS,SOLID
 10
286.562237
 20
35.680269
 42
0.035247
  0
VERTEX
  8
1
  6
*CONTINUOUS,SOLID
 10
286.586385
 20
35.701106
 42
0.034245
  0
VERTEX
  8
1
  6
*CONTINUOUS,SOLID
 10
286.608571
 20
35.726443
 42
0.031587
  0
VERTEX
  8
1
  6
*CONTINUOUS,SOLID
 10
286.627260
 20
35.754477
 42
0.030818
  0
VERTEX
  8
1
  6
*CONTINUOUS,SOLID
 10
286.643037
 20
35.786090
 42
0.029007
  0
VERTEX
  8
1
  6
*CONTINUOUS,SOLID
 10
286.654943
 20
35.819367
 42
0.028569
  0
VERTEX
  8
1
  6
*CONTINUOUS,SOLID
 10
286.663183
 20
35.854831
 42
0.027771
  0
VERTEX
  8
1
  6
*CONTINUOUS,SOLID
 10
286.667396
 20
35.891000
  0
SEQEND
  8
0
  0
POLYLINE
  8
1
  6
*CONTINUOUS,SOLID
 66
     1
 70
     0
  0
VERTEX
  8
1
  6
*CONTINUOUS,SOLID
 10
286.248000
 20
35.911000
 42
0.026141
  0
VERTEX
  8
1
  6
*CONTINUOUS,SOLID
 10
286.249703
 20
35.878467
 42
0.026626
  0
VERTEX
  8
1
  6
*CONTINUOUS,SOLID
 10
286.254815
 20
35.846295
 42
0.026949
  0
VERTEX
  8
1
  6
*CONTINUOUS,SOLID
 10
286.263140
 20
35.815592
 42
0.028405
  0
VERTEX
  8
1
  6
*CONTINUOUS,SOLID
 10
286.274795
 20
35.786000
 42
0.029053
  0
VERTEX
  8
1
  6
*CONTINUOUS,SOLID
 10
286.289127
 20
35.759147
 42
0.031424
  0
VERTEX
  8
1
  6
*CONTINUOUS,SOLID
 10
286.306579
 20
35.734223
 42
0.032357
  0
VERTEX
  8
1
  6
*CONTINUOUS,SOLID
 10
286.325954
 20
35.712955
 42
0.035323
  0
VERTEX
  8
1
  6
*CONTINUOUS,SOLID
 10
286.348000
 20
35.694494
 42
0.036361
  0
VERTEX
  8
1
  6
*CONTINUOUS,SOLID
 10
286.371186
 20
35.680189
 42
0.039053
  0
VERTEX
  8
1
  6
*CONTINUOUS,SOLID
 10
286.396236
 20
35.669519
 42
0.039791
  0
VERTEX
  8
1
  6
*CONTINUOUS,SOLID
 10
286.421779
 20
35.663177
 42
0.040919
  0
VERTEX
  8
1
  6
*CONTINUOUS,SOLID
 10
286.448000
 20
35.661000
 42
0.040919
  0
VERTEX
  8
1
  6
*CONTINUOUS,SOLID
 10
286.474221
 20
35.663177
 42
0.039791
  0
VERTEX
  8
1
  6
*CONTINUOUS,SOLID
 10
286.499764
 20
35.669519
 42
0.039053
  0
VERTEX
  8
1
  6
*CONTINUOUS,SOLID
 10
286.524814
 20
35.680189
 42
0.036361
  0
VERTEX
  8
1
  6
*CONTINUOUS,SOLID
 10
286.548000
 20
35.694494
 42
0.035323
  0
VERTEX
  8
1
  6
*CONTINUOUS,SOLID
 10
286.570046
 20
35.712955
 42
0.032357
  0
VERTEX
  8
1
  6
*CONTINUOUS,SOLID
 10
286.589421
 20
35.734223
 42
0.031424
  0
VERTEX
  8
1
  6
*CONTINUOUS,SOLID
 10
286.606873
 20
35.759147
 42
0.029053
  0
VERTEX
  8
1
  6
*CONTINUOUS,SOLID
 10
286.621205
 20
35.786000
 42
0.028405
  0
VERTEX
  8
1
  6
*CONTINUOUS,SOLID
 10
286.632860
 20
35.815592
 42
0.026949
  0
VERTEX
  8
1
  6
*CONTINUOUS,SOLID
 10
286.641185
 20
35.846295
 42
0.026626
  0
VERTEX
  8
1
  6
*CONTINUOUS,SOLID
 10
286.646297
 20
35.878467
 42
0.026141
  0
VERTEX
  8
1
  6
*CONTINUOUS,SOLID
 10
286.648000
 20
35.911000
  0
SEQEND
  8
0
  0
TEXT
  8
1
  6
*CONTINUOUS,SOLID
 40
0.075000
 10
286.326000
 20
35.346000
  1
0.40
  7
ROMANC
  0
LINE
  8
1
  6
*CONTINUOUS,SOLID
 10
286.098000
 20
35.383000
 11
286.248000
 21
35.383000
  0
LINE
  8
1
  6
*CONTINUOUS,SOLID
 10
286.798000
 20
35.383000
 11
286.648000
 21
35.383000
  0
LINE
  8
1
  6
*CONTINUOUS,SOLID
 10
286.286000
 20
35.402000
 11
286.210000
 21
35.364000
  0
LINE
  8
1
  6
*CONTINUOUS,SOLID
 10
286.610000
 20
35.364000
 11
286.686000
 21
35.402000
  0
LINE
  8
1
  6
*CONTINUOUS,SOLID
 10
286.248000
 20
35.873000
 11
286.248000
 21
35.345000
  0
LINE
  8
1
  6
*CONTINUOUS,SOLID
 10
286.648000
 20
35.873000
 11
286.648000
 21
35.345000
  0
LINE
  8
1
  6
*CONTINUOUS,SOLID
 10
286.098000
 20
35.911000
 11
285.898000
 21
36.961000
  0
LINE
  8
1
  6
*CONTINUOUS,SOLID
 10
286.998000
 20
36.961000
 11
286.798000
 21
35.911000
  0
TEXT
  8
1
  6
*CONTINUOUS,SOLID
 40
0.075000
 10
286.329000
 20
35.066000
  1
0.70
  7
ROMANC
  0
LINE
  8
1
  6
*CONTINUOUS,SOLID
 10
286.291000
 20
35.103000
 11
286.098000
 21
35.103000
  0
LINE
  8
1
  6
*CONTINUOUS,SOLID
 10
286.603000
 20
35.103000
 11
286.798000
 21
35.103000
  0
LINE
  8
1
  6
*CONTINUOUS,SOLID
 10
286.060000
 20
35.084000
 11
286.136000
 21
35.122000
  0
LINE
  8
1
  6
*CONTINUOUS,SOLID
 10
286.836000
 20
35.122000
 11
286.760000
 21
35.084000
  0
LINE
  8
1
  6
*CONTINUOUS,SOLID
 10
286.098000
 20
35.873000
 11
286.098000
 21
35.065000
  0
LINE
  8
1
  6
*CONTINUOUS,SOLID
 10
286.798000
 20
35.873000
 11
286.798000
 21
35.065000
  0
LINE
  8
1
  6
*CONTINUOUS,SOLID
 10
286.798000
 20
35.911000
 11
286.648000
 21
35.911000
  0
TEXT
  8
1
  6
*CONTINUOUS,SOLID
 40
0.075000
 10
287.152000
 20
36.099000
  1
0.25
 50
90.000000
  7
ROMANC
  0
LINE
  8
1
  6
*CONTINUOUS,SOLID
 10
287.115000
 20
35.985000
 11
287.115000
 21
35.911000
  0
LINE
  8
1
  6
*CONTINUOUS,SOLID
 10
287.115000
 20
35.511000
 11
287.115000
 21
35.661000
  0
LINE
  8
1
  6
*CONTINUOUS,SOLID
 10
287.134000
 20
35.874000
 11
287.096000
 21
35.948000
  0
LINE
  8
1
  6
*CONTINUOUS,SOLID
 10
287.096000
 20
35.698000
 11
287.134000
 21
35.624000
  0
LINE
  8
1
  6
*CONTINUOUS,SOLID
 10
286.686000
 20
35.911000
 11
287.153000
 21
35.911000
  0
LINE
  8
1
  6
*CONTINUOUS,SOLID
 10
286.486000
 20
35.661000
 11
287.153000
 21
35.661000
  0
TEXT
  8
1
  6
*CONTINUOUS,SOLID
 40
0.075000
 10
287.520000
 20
36.326000
  1
1.05
 50
90.000000
  7
ROMANC
  0
LINE
  8
1
  6
*CONTINUOUS,SOLID
 10
287.482000
 20
36.288000
 11
287.482000
 21
35.911000
  0
LINE
  8
1
  6
*CONTINUOUS,SOLID
 10
287.482000
 20
36.583000
 11
287.482000
 21
36.961000
  0
LINE
  8
1
  6
*CONTINUOUS,SOLID
 10
287.501000
 20
35.874000
 11
287.463000
 21
35.948000
  0
LINE
  8
1
  6
*CONTINUOUS,SOLID
 10
287.463000
 20
36.998000
 11
287.501000
 21
36.924000
  0
LINE
  8
1
  6
*CONTINUOUS,SOLID
 10
286.836000
 20
35.911000
 11
287.520000
 21
35.911000
  0
LINE
  8
1
  6
*CONTINUOUS,SOLID
 10
287.036000
 20
36.961000
 11
287.520000
 21
36.961000
  0
ARC
  8
1
  6
*CONTINUOUS,SOLID
 10
286.448000
 20
36.961000
 40
0.550000
 50
0.000000
 51
180.000000
  0
TEXT
  8
1
  6
*CONTINUOUS,SOLID
 40
0.075000
 10
286.347000
 20
37.818000
  1
1.10
  7
ROMANC
  0
LINE
  8
1
  6
*CONTINUOUS,SOLID
 10
286.309000
 20
37.855000
 11
285.898000
 21
37.855000
  0
LINE
  8
1
  6
*CONTINUOUS,SOLID
 10
286.586000
 20
37.855000
 11
286.998000
 21
37.855000
  0
LINE
  8
1
  6
*CONTINUOUS,SOLID
 10
285.860000
 20
37.836000
 11
285.936000
 21
37.874000
  0
LINE
  8
1
  6
*CONTINUOUS,SOLID
 10
287.036000
 20
37.874000
 11
286.960000
 21
37.836000
  0
LINE
  8
1
  6
*CONTINUOUS,SOLID
 10
285.898000
 20
36.999000
 11
285.898000
 21
37.893000
  0
LINE
  8
1
  6
*CONTINUOUS,SOLID
 10
286.998000
 20
36.999000
 11
286.998000
 21
37.893000
  0
TEXT
  8
1
  6
*CONTINUOUS,SOLID
 40
0.075000
 10
285.398000
 20
36.476000
  1
1.85
 50
90.000000
  7
ROMANC
  0
LINE
  8
1
  6
*CONTINUOUS,SOLID
 10
285.360000
 20
36.438000
 11
285.360000
 21
35.661000
  0
LINE
  8
1
  6
*CONTINUOUS,SOLID
 10
285.360000
 20
36.733000
 11
285.360000
 21
37.511000
  0
LINE
  8
1
  6
*CONTINUOUS,SOLID
 10
285.379000
 20
35.624000
 11
285.341000
 21
35.698000
  0
LINE
  8
1
  6
*CONTINUOUS,SOLID
 10
285.341000
 20
37.548000
 11
285.379000
 21
37.474000
  0
LINE
  8
1
  6
*CONTINUOUS,SOLID
 10
286.448000
 20
35.661000
 11
285.322000
 21
35.661000
  0
LINE
  8
1
  6
*CONTINUOUS,SOLID
 10
286.410000
 20
37.511000
 11
285.322000
 21
37.511000
  0
ENDSEC
  0
EOF
