  0
SECTION
  2
HEADER
  9
$ACADVER
  1
AC1009
  9
$INSBASE
 10
105.464027
 20
-4.528761
 30
0.0
  9
$EXTMIN
 10
281.395795
 20
29.897444
 30
0.0
  9
$EXTMAX
 10
291.895795
 20
44.747444
 30
0.0
  9
$LIMMIN
 10
0.0
 20
0.0
  9
$LIMMAX
 10
410.0
 20
287.0
  9
$ORTHOMODE
 70
     1
  9
$REGENMODE
 70
     1
  9
$FILLMODE
 70
     1
  9
$QTEXTMODE
 70
     0
  9
$MIRRTEXT
 70
     1
  9
$DRAGMODE
 70
     2
  9
$LTSCALE
 40
25.0
  9
$OSMODE
 70
     0
  9
$ATTMODE
 70
     1
  9
$TEXTSIZE
 40
0.1
  9
$TRACEWID
 40
1.0
  9
$TEXTSTYLE
  7
ROMANC
  9
$CLAYER
  8
0
  9
$CELTYPE
  6
BYLAYER
  9
$CECOLOR
 62
   256
  9
$DIMSCALE
 40
1.5
  9
$DIMASZ
 40
0.1
  9
$DIMEXO
 40
0.01
  9
$DIMDLI
 40
7.0
  9
$DIMRND
 40
0.0
  9
$DIMDLE
 40
0.0
  9
$DIMEXE
 40
0.01
  9
$DIMTP
 40
0.0
  9
$DIMTM
 40
0.0
  9
$DIMTXT
 40
0.05
  9
$DIMCEN
 40
0.1
  9
$DIMTSZ
 40
0.0
  9
$DIMTOL
 70
     0
  9
$DIMLIM
 70
     0
  9
$DIMTIH
 70
     0
  9
$DIMTOH
 70
     0
  9
$DIMSE1
 70
     0
  9
$DIMSE2
 70
     0
  9
$DIMTAD
 70
     1
  9
$DIMZIN
 70
     0
  9
$DIMBLK
  1

  9
$DIMASO
 70
     1
  9
$DIMSHO
 70
     0
  9
$DIMPOST
  1

  9
$DIMAPOST
  1

  9
$DIMALT
 70
     0
  9
$DIMALTD
 70
     2
  9
$DIMALTF
 40
25.4
  9
$DIMLFAC
 40
1.0
  9
$DIMTOFL
 70
     1
  9
$DIMTVP
 40
0.0
  9
$DIMTIX
 70
     1
  9
$DIMSOXD
 70
     0
  9
$DIMSAH
 70
     0
  9
$DIMBLK1
  1

  9
$DIMBLK2
  1

  9
$DIMSTYLE
  2
*UNNAMED
  9
$DIMCLRD
 70
     0
  9
$DIMCLRE
 70
     0
  9
$DIMCLRT
 70
     0
  9
$DIMTFAC
 40
70.0
  9
$DIMGAP
 40
0.09
  9
$LUNITS
 70
     2
  9
$LUPREC
 70
     2
  9
$SKETCHINC
 40
1.0
  9
$FILLETRAD
 40
0.0
  9
$AUNITS
 70
     0
  9
$AUPREC
 70
     0
  9
$MENU
  1
acad
  9
$ELEVATION
 40
0.0
  9
$PELEVATION
 40
0.0
  9
$THICKNESS
 40
0.0
  9
$LIMCHECK
 70
     0
  9
$BLIPMODE
 70
     0
  9
$CHAMFERA
 40
0.0
  9
$CHAMFERB
 40
0.0
  9
$SKPOLY
 70
     0
  9
$TDCREATE
 40
2450877.742483912
  9
$TDUPDATE
 40
2450877.776879051
  9
$TDINDWG
 40
0.0177761574
  9
$TDUSRTIMER
 40
0.0177761574
  9
$USRTIMER
 70
     1
  9
$ANGBASE
 50
0.0
  9
$ANGDIR
 70
     0
  9
$PDMODE
 70
     0
  9
$PDSIZE
 40
0.0
  9
$PLINEWID
 40
0.0
  9
$COORDS
 70
     2
  9
$SPLFRAME
 70
     0
  9
$SPLINETYPE
 70
     6
  9
$SPLINESEGS
 70
     8
  9
$ATTDIA
 70
     0
  9
$ATTREQ
 70
     1
  9
$HANDLING
 70
     0
  9
$HANDSEED
  5
0
  9
$SURFTAB1
 70
     6
  9
$SURFTAB2
 70
     6
  9
$SURFTYPE
 70
     6
  9
$SURFU
 70
     6
  9
$SURFV
 70
     6
  9
$UCSNAME
  2

  9
$UCSORG
 10
0.0
 20
0.0
 30
0.0
  9
$UCSXDIR
 10
1.0
 20
0.0
 30
0.0
  9
$UCSYDIR
 10
0.0
 20
1.0
 30
0.0
  9
$PUCSNAME
  2

  9
$PUCSORG
 10
0.0
 20
0.0
 30
0.0
  9
$PUCSXDIR
 10
1.0
 20
0.0
 30
0.0
  9
$PUCSYDIR
 10
0.0
 20
1.0
 30
0.0
  9
$USERI1
 70
     0
  9
$USERI2
 70
     0
  9
$USERI3
 70
     0
  9
$USERI4
 70
     0
  9
$USERI5
 70
     0
  9
$USERR1
 40
0.0
  9
$USERR2
 40
0.0
  9
$USERR3
 40
0.0
  9
$USERR4
 40
0.0
  9
$USERR5
 40
0.0
  9
$WORLDVIEW
 70
     1
  9
$SHADEDGE
 70
     3
  9
$SHADEDIF
 70
    70
  9
$TILEMODE
 70
     1
  9
$MAXACTVP
 70
    16
  9
$PINSBASE
 10
0.0
 20
0.0
 30
0.0
  9
$PLIMCHECK
 70
     0
  9
$PEXTMIN
 10
1.000000E+20
 20
1.000000E+20
 30
1.000000E+20
  9
$PEXTMAX
 10
-1.000000E+20
 20
-1.000000E+20
 30
-1.000000E+20
  9
$PLIMMIN
 10
0.0
 20
0.0
  9
$PLIMMAX
 10
12.0
 20
9.0
  9
$UNITMODE
 70
     0
  9
$VISRETAIN
 70
     0
  9
$PLINEGEN
 70
     0
  9
$PSLTSCALE
 70
     0
  9
$TREEDEPTH
 70
  3020
  9
$DWGCODEPAGE
  3
iso8859-1
  0
ENDSEC
  0
SECTION
  2
TABLES
  0
TABLE
  2
VPORT
 70
     2
  0
VPORT
  2
*ACTIVE
 70
     0
 10
0.0
 20
0.0
 11
1.0
 21
1.0
 12
292.922009
 22
37.322444
 13
0.0
 23
0.0
 14
1.0
 24
1.0
 15
10.0
 25
10.0
 16
0.0
 26
0.0
 36
1.0
 17
0.0
 27
0.0
 37
0.0
 40
14.85
 41
1.552352
 42
50.0
 43
0.0
 44
0.0
 50
0.0
 51
0.0
 71
     0
 72
   100
 73
     1
 74
     0
 75
     0
 76
     0
 77
     0
 78
     1
  0
ENDTAB
  0
TABLE
  2
LTYPE
 70
     1
  0
LTYPE
  2
CONTINUOUS
 70
    64
  3
Solid line
 72
    65
 73
     0
 40
0.0
  0
ENDTAB
  0
TABLE
  2
LAYER
 70
     3
  0
LAYER
  2
0
 70
    64
 62
     7
  6
CONTINUOUS
  0
LAYER
  2
MESURA
 70
     0
 62
     7
  6
CONTINUOUS
  0
LAYER
  2
DEFPOINTS
 70
    64
 62
     7
  6
CONTINUOUS
  0
ENDTAB
  0
TABLE
  2
STYLE
 70
     2
  0
STYLE
  2
STANDARD
 70
     0
 40
0.0
 41
1.0
 50
0.0
 71
     0
 42
0.1
  3
txt
  4

  0
STYLE
  2
ROMANC
 70
    64
 40
0.0
 41
1.0
 50
0.0
 71
     0
 42
0.1
  3
romanc
  4

  0
ENDTAB
  0
TABLE
  2
VIEW
 70
     0
  0
ENDTAB
  0
TABLE
  2
UCS
 70
     0
  0
ENDTAB
  0
TABLE
  2
APPID
 70
     1
  0
APPID
  2
ACAD
 70
    64
  0
ENDTAB
  0
TABLE
  2
DIMSTYLE
 70
     1
  0
DIMSTYLE
  2
SILVIA
 70
     0
  3

  4

  5

  6

  7

 40
1.5
 41
0.1
 42
0.01
 43
7.0
 44
0.01
 45
0.0
 46
0.0
 47
0.0
 48
0.0
140
0.05
141
0.1
142
0.0
143
25.4
144
1.0
145
0.0
146
70.0
147
0.09
 71
     0
 72
     0
 73
     0
 74
     0
 75
     0
 76
     0
 77
     1
 78
     0
170
     0
171
     2
172
     1
173
     0
174
     1
175
     0
176
     0
177
     0
178
     0
  0
ENDTAB
  0
ENDSEC
  0
SECTION
  2
BLOCKS
  0
BLOCK
  8
0
  2
*D2
 70
    65
 10
0.0
 20
0.0
 30
0.0
  3
*D
  0
LINE
  8
0
  6
BYBLOCK
 62
     0
 10
286.709932
 20
34.594847
 30
0.0
 11
287.007705
 21
34.594847
 31
0.0
  0
LINE
  8
0
  6
BYBLOCK
 62
     0
 10
286.709932
 20
36.094847
 30
0.0
 11
287.007705
 21
36.094847
 31
0.0
  0
LINE
  8
0
  6
BYBLOCK
 62
     0
 10
286.992705
 20
34.744847
 30
0.0
 11
286.992705
 21
35.944847
 31
0.0
  0
SOLID
  8
0
  6
BYBLOCK
 62
     0
 10
286.967705
 20
34.744847
 30
0.0
 11
287.017705
 21
34.744847
 31
0.0
 12
286.992705
 22
34.594847
 32
0.0
 13
286.992705
 23
34.594847
 33
0.0
  0
SOLID
  8
0
  6
BYBLOCK
 62
     0
 10
286.967705
 20
35.944847
 30
0.0
 11
287.017705
 21
35.944847
 31
0.0
 12
286.992705
 22
36.094847
 32
0.0
 13
286.992705
 23
36.094847
 33
0.0
  0
TEXT
  8
0
  6
BYBLOCK
 62
     0
 10
286.955205
 20
35.21449
 30
0.0
 40
0.075
  1
1.50
 50
90.0
  7
ROMANC
 72
     1
 11
286.917705
 21
35.344847
 31
0.0
 73
     2
  0
POINT
  8
DEFPOINTS
  6
BYBLOCK
 62
     0
 10
286.694932
 20
34.594847
 30
0.0
  0
POINT
  8
DEFPOINTS
  6
BYBLOCK
 62
     0
 10
286.694932
 20
36.094847
 30
0.0
  0
POINT
  8
DEFPOINTS
  6
BYBLOCK
 62
     0
 10
286.992705
 20
36.094847
 30
0.0
  0
ENDBLK
  8
0
  0
BLOCK
  8
0
  2
*D3
 70
    65
 10
0.0
 20
0.0
 30
0.0
  3
*D
  0
LINE
  8
0
  6
BYBLOCK
 62
     0
 10
286.694932
 20
34.579847
 30
0.0
 11
286.694932
 21
34.286392
 31
0.0
  0
LINE
  8
0
  6
BYBLOCK
 62
     0
 10
285.194932
 20
34.579847
 30
0.0
 11
285.194932
 21
34.286392
 31
0.0
  0
LINE
  8
0
  6
BYBLOCK
 62
     0
 10
286.544932
 20
34.301392
 30
0.0
 11
285.344932
 21
34.301392
 31
0.0
  0
SOLID
  8
0
  6
BYBLOCK
 62
     0
 10
286.544932
 20
34.326392
 30
0.0
 11
286.544932
 21
34.276392
 31
0.0
 12
286.694932
 22
34.301392
 32
0.0
 13
286.694932
 23
34.301392
 33
0.0
  0
SOLID
  8
0
  6
BYBLOCK
 62
     0
 10
285.344932
 20
34.326392
 30
0.0
 11
285.344932
 21
34.276392
 31
0.0
 12
285.194932
 22
34.301392
 32
0.0
 13
285.194932
 23
34.301392
 33
0.0
  0
TEXT
  8
0
  6
BYBLOCK
 62
     0
 10
285.814575
 20
34.338892
 30
0.0
 40
0.075
  1
1.50
  7
ROMANC
 72
     1
 11
285.944932
 21
34.376392
 31
0.0
 73
     2
  0
POINT
  8
DEFPOINTS
  6
BYBLOCK
 62
     0
 10
286.694932
 20
34.594847
 30
0.0
  0
POINT
  8
DEFPOINTS
  6
BYBLOCK
 62
     0
 10
285.194932
 20
34.594847
 30
0.0
  0
POINT
  8
DEFPOINTS
  6
BYBLOCK
 62
     0
 10
285.194932
 20
34.301392
 30
0.0
  0
ENDBLK
  8
0
  0
BLOCK
  8
0
  2
*D4
 70
    65
 10
0.0
 20
0.0
 30
0.0
  3
*D
  0
LINE
  8
0
  6
BYBLOCK
 62
     0
 10
286.694932
 20
34.579847
 30
0.0
 11
286.694932
 21
34.286392
 31
0.0
  0
LINE
  8
0
  6
BYBLOCK
 62
     0
 10
285.694932
 20
34.579847
 30
0.0
 11
285.694932
 21
34.286392
 31
0.0
  0
LINE
  8
0
  6
BYBLOCK
 62
     0
 10
286.544932
 20
34.301392
 30
0.0
 11
285.844932
 21
34.301392
 31
0.0
  0
SOLID
  8
0
  6
BYBLOCK
 62
     0
 10
286.544932
 20
34.326392
 30
0.0
 11
286.544932
 21
34.276392
 31
0.0
 12
286.694932
 22
34.301392
 32
0.0
 13
286.694932
 23
34.301392
 33
0.0
  0
SOLID
  8
0
  6
BYBLOCK
 62
     0
 10
285.844932
 20
34.326392
 30
0.0
 11
285.844932
 21
34.276392
 31
0.0
 12
285.694932
 22
34.301392
 32
0.0
 13
285.694932
 23
34.301392
 33
0.0
  0
TEXT
  8
0
  6
BYBLOCK
 62
     0
 10
286.064575
 20
34.338892
 30
0.0
 40
0.075
  1
1.00
  7
ROMANC
 72
     1
 11
286.194932
 21
34.376392
 31
0.0
 73
     2
  0
POINT
  8
DEFPOINTS
  6
BYBLOCK
 62
     0
 10
286.694932
 20
34.594847
 30
0.0
  0
POINT
  8
DEFPOINTS
  6
BYBLOCK
 62
     0
 10
285.694932
 20
34.594847
 30
0.0
  0
POINT
  8
DEFPOINTS
  6
BYBLOCK
 62
     0
 10
285.694932
 20
34.301392
 30
0.0
  0
ENDBLK
  8
0
  0
ENDSEC
  0
SECTION
  2
ENTITIES
  0
LINE
  8
0
 10
291.895795
 20
29.897444
 30
0.0
 11
291.895795
 21
44.747444
 31
0.0
  0
TEXT
  8
0
 10
283.887846
 20
40.56142
 30
0.0
 40
0.3
  1
P = 50 dm
  7
ROMANC
  0
LINE
  8
0
 10
281.395795
 20
44.747444
 30
0.0
 11
281.395795
 21
29.897444
 31
0.0
  0
LINE
  8
0
 10
281.395795
 20
29.897444
 30
0.0
 11
291.895795
 21
29.897444
 31
0.0
  0
LINE
  8
0
 10
291.895795
 20
44.747444
 30
0.0
 11
281.395795
 21
44.747444
 31
0.0
  0
TEXT
  8
0
 10
287.122271
 20
41.564915
 30
0.0
 40
0.1
  1
2
  7
ROMANC
  0
TEXT
  8
0
 10
283.925768
 20
41.857589
 30
0.0
 40
0.3
  1
ESCALA  1:50
  7
ROMANC
  0
TEXT
  8
0
 10
283.925768
 20
42.343303
 30
0.0
 40
0.3
  1
TIPUS   NT150A
  7
ROMANC
  0
TEXT
  8
0
 10
283.938862
 20
41.258999
 30
0.0
 40
0.3
  1
S = 150 dm
  7
ROMANC
  0
LINE
  8
0
 10
284.959544
 20
34.579847
 30
0.0
 11
284.959544
 21
36.109847
 31
0.0
  0
LINE
  8
0
 10
284.959544
 20
36.109847
 30
0.0
 11
285.989544
 21
36.109847
 31
0.0
  0
LINE
  8
0
 10
285.989544
 20
36.109847
 30
0.0
 11
285.989544
 21
34.579847
 31
0.0
  0
LINE
  8
0
 10
285.989544
 20
34.579847
 30
0.0
 11
284.959544
 21
34.579847
 31
0.0
  0
LINE
  8
0
 10
284.967044
 20
34.587347
 30
0.0
 11
284.967044
 21
36.102347
 31
0.0
  0
LINE
  8
0
 10
284.967044
 20
36.102347
 30
0.0
 11
285.982044
 21
36.102347
 31
0.0
  0
LINE
  8
0
 10
285.982044
 20
36.102347
 30
0.0
 11
285.982044
 21
34.587347
 31
0.0
  0
LINE
  8
0
 10
285.982044
 20
34.587347
 30
0.0
 11
284.967044
 21
34.587347
 31
0.0
  0
LINE
  8
0
  6
BYBLOCK
 62
     0
 10
285.989544
 20
34.594847
 30
0.0
 11
286.287317
 21
34.594847
 31
0.0
  0
LINE
  8
0
  6
BYBLOCK
 62
     0
 10
285.989544
 20
36.094847
 30
0.0
 11
286.287317
 21
36.094847
 31
0.0
  0
LINE
  8
0
  6
BYBLOCK
 62
     0
 10
286.272317
 20
34.744847
 30
0.0
 11
286.272317
 21
35.944847
 31
0.0
  0
SOLID
  8
0
  6
BYBLOCK
 62
     0
 10
286.247317
 20
34.744847
 30
0.0
 11
286.297317
 21
34.744847
 31
0.0
 12
286.272317
 22
34.594847
 32
0.0
 13
286.272317
 23
34.594847
 33
0.0
  0
SOLID
  8
0
  6
BYBLOCK
 62
     0
 10
286.247317
 20
35.944847
 30
0.0
 11
286.297317
 21
35.944847
 31
0.0
 12
286.272317
 22
36.094847
 32
0.0
 13
286.272317
 23
36.094847
 33
0.0
  0
TEXT
  8
0
  6
BYBLOCK
 62
     0
 10
286.234817
 20
35.21449
 30
0.0
 40
0.075
  1
1.50
 50
90.0
  7
ROMANC
 72
     1
 11
286.197317
 21
35.344847
 31
0.0
 73
     2
  0
POINT
  8
DEFPOINTS
  6
BYBLOCK
 62
     0
 10
285.974544
 20
34.594847
 30
0.0
  0
POINT
  8
DEFPOINTS
  6
BYBLOCK
 62
     0
 10
285.974544
 20
36.094847
 30
0.0
  0
POINT
  8
DEFPOINTS
  6
BYBLOCK
 62
     0
 10
286.272317
 20
36.094847
 30
0.0
  0
LINE
  8
0
  6
BYBLOCK
 62
     0
 10
285.974544
 20
34.579847
 30
0.0
 11
285.974544
 21
34.286392
 31
0.0
  0
LINE
  8
0
  6
BYBLOCK
 62
     0
 10
284.974544
 20
34.579847
 30
0.0
 11
284.974544
 21
34.286392
 31
0.0
  0
LINE
  8
0
  6
BYBLOCK
 62
     0
 10
285.824544
 20
34.301392
 30
0.0
 11
285.124544
 21
34.301392
 31
0.0
  0
SOLID
  8
0
  6
BYBLOCK
 62
     0
 10
285.824544
 20
34.326392
 30
0.0
 11
285.824544
 21
34.276392
 31
0.0
 12
285.974544
 22
34.301392
 32
0.0
 13
285.974544
 23
34.301392
 33
0.0
  0
SOLID
  8
0
  6
BYBLOCK
 62
     0
 10
285.124544
 20
34.326392
 30
0.0
 11
285.124544
 21
34.276392
 31
0.0
 12
284.974544
 22
34.301392
 32
0.0
 13
284.974544
 23
34.301392
 33
0.0
  0
TEXT
  8
0
  6
BYBLOCK
 62
     0
 10
285.344186
 20
34.338892
 30
0.0
 40
0.075
  1
1.00
  7
ROMANC
 72
     1
 11
285.474544
 21
34.376392
 31
0.0
 73
     2
  0
POINT
  8
DEFPOINTS
  6
BYBLOCK
 62
     0
 10
285.974544
 20
34.594847
 30
0.0
  0
POINT
  8
DEFPOINTS
  6
BYBLOCK
 62
     0
 10
284.974544
 20
34.594847
 30
0.0
  0
POINT
  8
DEFPOINTS
  6
BYBLOCK
 62
     0
 10
284.974544
 20
34.301392
 30
0.0
  0
LINE
  8
0
 10
284.974544
 20
34.594847
 30
0.0
 11
284.974544
 21
36.094847
 31
0.0
  0
LINE
  8
0
 10
284.974544
 20
36.094847
 30
0.0
 11
285.974544
 21
36.094847
 31
0.0
  0
LINE
  8
0
 10
285.974544
 20
36.094847
 30
0.0
 11
285.974544
 21
34.594847
 31
0.0
  0
LINE
  8
0
 10
285.974544
 20
34.594847
 30
0.0
 11
284.974544
 21
34.594847
 31
0.0
  0
ENDSEC
  0
EOF
