  0
SECTION
  2
HEADER
  9
$ACADVER
  1
AC1009
  9
$INSBASE
 10
105.464027
 20
-4.528761
 30
0.0
  9
$EXTMIN
 10
281.395795
 20
29.897444
 30
0.0
  9
$EXTMAX
 10
291.895795
 20
44.747444
 30
0.0
  9
$LIMMIN
 10
0.0
 20
0.0
  9
$LIMMAX
 10
410.0
 20
287.0
  9
$ORTHOMODE
 70
     0
  9
$REGENMODE
 70
     1
  9
$FILLMODE
 70
     1
  9
$QTEXTMODE
 70
     0
  9
$MIRRTEXT
 70
     1
  9
$DRAGMODE
 70
     2
  9
$LTSCALE
 40
25.0
  9
$OSMODE
 70
    32
  9
$ATTMODE
 70
     1
  9
$TEXTSIZE
 40
0.1
  9
$TRACEWID
 40
1.0
  9
$TEXTSTYLE
  7
ROMANC
  9
$CLAYER
  8
0
  9
$CELTYPE
  6
BYLAYER
  9
$CECOLOR
 62
   256
  9
$DIMSCALE
 40
1.5
  9
$DIMASZ
 40
0.1
  9
$DIMEXO
 40
0.01
  9
$DIMDLI
 40
7.0
  9
$DIMRND
 40
0.0
  9
$DIMDLE
 40
0.0
  9
$DIMEXE
 40
0.01
  9
$DIMTP
 40
0.0
  9
$DIMTM
 40
0.0
  9
$DIMTXT
 40
0.05
  9
$DIMCEN
 40
0.1
  9
$DIMTSZ
 40
0.0
  9
$DIMTOL
 70
     0
  9
$DIMLIM
 70
     0
  9
$DIMTIH
 70
     0
  9
$DIMTOH
 70
     0
  9
$DIMSE1
 70
     0
  9
$DIMSE2
 70
     0
  9
$DIMTAD
 70
     1
  9
$DIMZIN
 70
     0
  9
$DIMBLK
  1

  9
$DIMASO
 70
     1
  9
$DIMSHO
 70
     0
  9
$DIMPOST
  1

  9
$DIMAPOST
  1

  9
$DIMALT
 70
     0
  9
$DIMALTD
 70
     2
  9
$DIMALTF
 40
25.4
  9
$DIMLFAC
 40
1.0
  9
$DIMTOFL
 70
     1
  9
$DIMTVP
 40
0.0
  9
$DIMTIX
 70
     1
  9
$DIMSOXD
 70
     0
  9
$DIMSAH
 70
     0
  9
$DIMBLK1
  1

  9
$DIMBLK2
  1

  9
$DIMSTYLE
  2
SILVIA
  9
$DIMCLRD
 70
     0
  9
$DIMCLRE
 70
     0
  9
$DIMCLRT
 70
     0
  9
$DIMTFAC
 40
70.0
  9
$DIMGAP
 40
0.09
  9
$LUNITS
 70
     2
  9
$LUPREC
 70
     2
  9
$SKETCHINC
 40
1.0
  9
$FILLETRAD
 40
0.0
  9
$AUNITS
 70
     0
  9
$AUPREC
 70
     0
  9
$MENU
  1
acad
  9
$ELEVATION
 40
0.0
  9
$PELEVATION
 40
0.0
  9
$THICKNESS
 40
0.0
  9
$LIMCHECK
 70
     0
  9
$BLIPMODE
 70
     0
  9
$CHAMFERA
 40
0.0
  9
$CHAMFERB
 40
0.0
  9
$SKPOLY
 70
     0
  9
$TDCREATE
 40
2449791.694787731
  9
$TDUPDATE
 40
2450207.426481134
  9
$TDINDWG
 40
1.4385361111
  9
$TDUSRTIMER
 40
1.4385361111
  9
$USRTIMER
 70
     1
  9
$ANGBASE
 50
0.0
  9
$ANGDIR
 70
     0
  9
$PDMODE
 70
     0
  9
$PDSIZE
 40
0.0
  9
$PLINEWID
 40
0.0
  9
$COORDS
 70
     2
  9
$SPLFRAME
 70
     0
  9
$SPLINETYPE
 70
     6
  9
$SPLINESEGS
 70
     8
  9
$ATTDIA
 70
     0
  9
$ATTREQ
 70
     1
  9
$HANDLING
 70
     0
  9
$HANDSEED
  5
0
  9
$SURFTAB1
 70
     6
  9
$SURFTAB2
 70
     6
  9
$SURFTYPE
 70
     6
  9
$SURFU
 70
     6
  9
$SURFV
 70
     6
  9
$UCSNAME
  2

  9
$UCSORG
 10
0.0
 20
0.0
 30
0.0
  9
$UCSXDIR
 10
1.0
 20
0.0
 30
0.0
  9
$UCSYDIR
 10
0.0
 20
1.0
 30
0.0
  9
$PUCSNAME
  2

  9
$PUCSORG
 10
0.0
 20
0.0
 30
0.0
  9
$PUCSXDIR
 10
1.0
 20
0.0
 30
0.0
  9
$PUCSYDIR
 10
0.0
 20
1.0
 30
0.0
  9
$USERI1
 70
     0
  9
$USERI2
 70
     0
  9
$USERI3
 70
     0
  9
$USERI4
 70
     0
  9
$USERI5
 70
     0
  9
$USERR1
 40
0.0
  9
$USERR2
 40
0.0
  9
$USERR3
 40
0.0
  9
$USERR4
 40
0.0
  9
$USERR5
 40
0.0
  9
$WORLDVIEW
 70
     1
  9
$SHADEDGE
 70
     3
  9
$SHADEDIF
 70
    70
  9
$TILEMODE
 70
     1
  9
$MAXACTVP
 70
    16
  9
$PINSBASE
 10
0.0
 20
0.0
 30
0.0
  9
$PLIMCHECK
 70
     0
  9
$PEXTMIN
 10
1.000000E+20
 20
1.000000E+20
 30
1.000000E+20
  9
$PEXTMAX
 10
-1.000000E+20
 20
-1.000000E+20
 30
-1.000000E+20
  9
$PLIMMIN
 10
0.0
 20
0.0
  9
$PLIMMAX
 10
12.0
 20
9.0
  9
$UNITMODE
 70
     0
  9
$VISRETAIN
 70
     0
  9
$PLINEGEN
 70
     0
  9
$PSLTSCALE
 70
     0
  9
$TREEDEPTH
 70
  3020
  9
$DWGCODEPAGE
  3
iso8859-1
  0
ENDSEC
  0
SECTION
  2
TABLES
  0
TABLE
  2
VPORT
 70
     2
  0
VPORT
  2
*ACTIVE
 70
     0
 10
0.0
 20
0.0
 11
1.0
 21
1.0
 12
293.647045
 22
37.322444
 13
0.0
 23
0.0
 14
1.0
 24
1.0
 15
10.0
 25
10.0
 16
0.0
 26
0.0
 36
1.0
 17
0.0
 27
0.0
 37
0.0
 40
14.85
 41
1.65
 42
50.0
 43
0.0
 44
0.0
 50
0.0
 51
0.0
 71
     0
 72
   100
 73
     1
 74
     0
 75
     0
 76
     0
 77
     0
 78
     1
  0
ENDTAB
  0
TABLE
  2
LTYPE
 70
     1
  0
LTYPE
  2
CONTINUOUS
 70
    64
  3
Solid line
 72
    65
 73
     0
 40
0.0
  0
ENDTAB
  0
TABLE
  2
LAYER
 70
     3
  0
LAYER
  2
0
 70
    64
 62
     7
  6
CONTINUOUS
  0
LAYER
  2
MESURA
 70
     0
 62
     7
  6
CONTINUOUS
  0
LAYER
  2
DEFPOINTS
 70
    64
 62
     7
  6
CONTINUOUS
  0
ENDTAB
  0
TABLE
  2
STYLE
 70
     2
  0
STYLE
  2
STANDARD
 70
     0
 40
0.0
 41
1.0
 50
0.0
 71
     0
 42
0.1
  3
txt
  4

  0
STYLE
  2
ROMANC
 70
    64
 40
0.0
 41
1.0
 50
0.0
 71
     0
 42
0.1
  3
romanc
  4

  0
ENDTAB
  0
TABLE
  2
VIEW
 70
     0
  0
ENDTAB
  0
TABLE
  2
UCS
 70
     0
  0
ENDTAB
  0
TABLE
  2
APPID
 70
     1
  0
APPID
  2
ACAD
 70
    64
  0
ENDTAB
  0
TABLE
  2
DIMSTYLE
 70
     1
  0
DIMSTYLE
  2
SILVIA
 70
    64
  3

  4

  5

  6

  7

 40
1.5
 41
0.1
 42
0.01
 43
7.0
 44
0.01
 45
0.0
 46
0.0
 47
0.0
 48
0.0
140
0.05
141
0.1
142
0.0
143
25.4
144
1.0
145
0.0
146
70.0
147
0.09
 71
     0
 72
     0
 73
     0
 74
     0
 75
     0
 76
     0
 77
     1
 78
     0
170
     0
171
     2
172
     1
173
     0
174
     1
175
     0
176
     0
177
     0
178
     0
  0
ENDTAB
  0
ENDSEC
  0
SECTION
  2
BLOCKS
  0
BLOCK
  8
0
  2
*D0
 70
    65
 10
0.0
 20
0.0
 30
0.0
  3
*D
  0
LINE
  8
0
  6
BYBLOCK
 62
     0
 10
286.052896
 20
34.137741
 30
0.0
 11
286.052896
 21
33.450436
 31
0.0
  0
LINE
  8
0
  6
BYBLOCK
 62
     0
 10
286.952896
 20
34.137741
 30
0.0
 11
286.952896
 21
33.450436
 31
0.0
  0
LINE
  8
0
  6
BYBLOCK
 62
     0
 10
286.202896
 20
33.465436
 30
0.0
 11
286.802896
 21
33.465436
 31
0.0
  0
SOLID
  8
0
  6
BYBLOCK
 62
     0
 10
286.202896
 20
33.490436
 30
0.0
 11
286.202896
 21
33.440436
 31
0.0
 12
286.052896
 22
33.465436
 32
0.0
 13
286.052896
 23
33.465436
 33
0.0
  0
SOLID
  8
0
  6
BYBLOCK
 62
     0
 10
286.802896
 20
33.490436
 30
0.0
 11
286.802896
 21
33.440436
 31
0.0
 12
286.952896
 22
33.465436
 32
0.0
 13
286.952896
 23
33.465436
 33
0.0
  0
TEXT
  8
0
  6
BYBLOCK
 62
     0
 10
286.377896
 20
33.502936
 30
0.0
 40
0.075
  1
0.90
  7
ROMANC
 72
     1
 11
286.502896
 21
33.540436
 31
0.0
 73
     2
  0
POINT
  8
DEFPOINTS
  6
BYBLOCK
 62
     0
 10
286.052896
 20
34.152741
 30
0.0
  0
POINT
  8
DEFPOINTS
  6
BYBLOCK
 62
     0
 10
286.952896
 20
34.152741
 30
0.0
  0
POINT
  8
DEFPOINTS
  6
BYBLOCK
 62
     0
 10
286.952896
 20
33.465436
 30
0.0
  0
ENDBLK
  8
0
  0
BLOCK
  8
0
  2
*D1
 70
    65
 10
0.0
 20
0.0
 30
0.0
  3
*D
  0
LINE
  8
0
  6
BYBLOCK
 62
     0
 10
286.302896
 20
34.137741
 30
0.0
 11
286.302896
 21
33.742288
 31
0.0
  0
LINE
  8
0
  6
BYBLOCK
 62
     0
 10
286.702896
 20
34.137741
 30
0.0
 11
286.702896
 21
33.742288
 31
0.0
  0
LINE
  8
0
  6
BYBLOCK
 62
     0
 10
286.152896
 20
33.757288
 30
0.0
 11
286.002896
 21
33.757288
 31
0.0
  0
LINE
  8
0
  6
BYBLOCK
 62
     0
 10
286.852896
 20
33.757288
 30
0.0
 11
287.002896
 21
33.757288
 31
0.0
  0
SOLID
  8
0
  6
BYBLOCK
 62
     0
 10
286.152896
 20
33.782288
 30
0.0
 11
286.152896
 21
33.732288
 31
0.0
 12
286.302896
 22
33.757288
 32
0.0
 13
286.302896
 23
33.757288
 33
0.0
  0
SOLID
  8
0
  6
BYBLOCK
 62
     0
 10
286.852896
 20
33.782288
 30
0.0
 11
286.852896
 21
33.732288
 31
0.0
 12
286.702896
 22
33.757288
 32
0.0
 13
286.702896
 23
33.757288
 33
0.0
  0
LINE
  8
0
  6
BYBLOCK
 62
     0
 10
286.302896
 20
33.757288
 30
0.0
 11
286.702896
 21
33.757288
 31
0.0
  0
TEXT
  8
0
  6
BYBLOCK
 62
     0
 10
286.377896
 20
33.794788
 30
0.0
 40
0.075
  1
0.40
  7
ROMANC
 72
     1
 11
286.502896
 21
33.832288
 31
0.0
 73
     2
  0
POINT
  8
DEFPOINTS
  6
BYBLOCK
 62
     0
 10
286.302896
 20
34.152741
 30
0.0
  0
POINT
  8
DEFPOINTS
  6
BYBLOCK
 62
     0
 10
286.702896
 20
34.152741
 30
0.0
  0
POINT
  8
DEFPOINTS
  6
BYBLOCK
 62
     0
 10
286.702896
 20
33.757288
 30
0.0
  0
ENDBLK
  8
0
  0
BLOCK
  8
0
  2
*D2
 70
    65
 10
0.0
 20
0.0
 30
0.0
  3
*D
  0
LINE
  8
0
  6
BYBLOCK
 62
     0
 10
286.967896
 20
34.152741
 30
0.0
 11
287.440024
 21
34.152741
 31
0.0
  0
LINE
  8
0
  6
BYBLOCK
 62
     0
 10
287.067896
 20
35.102741
 30
0.0
 11
287.440024
 21
35.102741
 31
0.0
  0
LINE
  8
0
  6
BYBLOCK
 62
     0
 10
287.425024
 20
34.302741
 30
0.0
 11
287.425024
 21
34.952741
 31
0.0
  0
SOLID
  8
0
  6
BYBLOCK
 62
     0
 10
287.400024
 20
34.302741
 30
0.0
 11
287.450024
 21
34.302741
 31
0.0
 12
287.425024
 22
34.152741
 32
0.0
 13
287.425024
 23
34.152741
 33
0.0
  0
SOLID
  8
0
  6
BYBLOCK
 62
     0
 10
287.400024
 20
34.952741
 30
0.0
 11
287.450024
 21
34.952741
 31
0.0
 12
287.425024
 22
35.102741
 32
0.0
 13
287.425024
 23
35.102741
 33
0.0
  0
TEXT
  8
0
  6
BYBLOCK
 62
     0
 10
287.387524
 20
34.502741
 30
0.0
 40
0.075
  1
0.95
 50
90.0
  7
ROMANC
 72
     1
 11
287.350024
 21
34.627741
 31
0.0
 73
     2
  0
POINT
  8
DEFPOINTS
  6
BYBLOCK
 62
     0
 10
286.952896
 20
34.152741
 30
0.0
  0
POINT
  8
DEFPOINTS
  6
BYBLOCK
 62
     0
 10
287.052896
 20
35.102741
 30
0.0
  0
POINT
  8
DEFPOINTS
  6
BYBLOCK
 62
     0
 10
287.425024
 20
35.102741
 30
0.0
  0
ENDBLK
  8
0
  0
BLOCK
  8
0
  2
*D3
 70
    65
 10
0.0
 20
0.0
 30
0.0
  3
*D
  0
LINE
  8
0
  6
BYBLOCK
 62
     0
 10
287.440024
 20
33.93997
 30
0.0
 11
287.822764
 21
33.93997
 31
0.0
  0
LINE
  8
0
  6
BYBLOCK
 62
     0
 10
287.440024
 20
35.658327
 30
0.0
 11
287.822764
 21
35.658327
 31
0.0
  0
LINE
  8
0
  6
BYBLOCK
 62
     0
 10
287.807764
 20
34.08997
 30
0.0
 11
287.807764
 21
35.508327
 31
0.0
  0
SOLID
  8
0
  6
BYBLOCK
 62
     0
 10
287.782764
 20
34.08997
 30
0.0
 11
287.832764
 21
34.08997
 31
0.0
 12
287.807764
 22
33.93997
 32
0.0
 13
287.807764
 23
33.93997
 33
0.0
  0
SOLID
  8
0
  6
BYBLOCK
 62
     0
 10
287.782764
 20
35.508327
 30
0.0
 11
287.832764
 21
35.508327
 31
0.0
 12
287.807764
 22
35.658327
 32
0.0
 13
287.807764
 23
35.658327
 33
0.0
  0
TEXT
  8
0
  6
BYBLOCK
 62
     0
 10
287.770264
 20
34.704505
 30
0.0
 40
0.075
  1
1.7
 50
90.0
  7
ROMANC
 72
     1
 11
287.732764
 21
34.799148
 31
0.0
 73
     2
  0
POINT
  8
DEFPOINTS
  6
BYBLOCK
 62
     0
 10
287.425024
 20
33.93997
 30
0.0
  0
POINT
  8
DEFPOINTS
  6
BYBLOCK
 62
     0
 10
287.425024
 20
35.658327
 30
0.0
  0
POINT
  8
DEFPOINTS
  6
BYBLOCK
 62
     0
 10
287.807764
 20
35.658327
 30
0.0
  0
ENDBLK
  8
0
  0
BLOCK
  8
0
  2
*D4
 70
    65
 10
0.0
 20
0.0
 30
0.0
  3
*D
  0
LINE
  8
0
  6
BYBLOCK
 62
     0
 10
287.052896
 20
35.117741
 30
0.0
 11
287.052896
 21
36.152868
 31
0.0
  0
LINE
  8
0
  6
BYBLOCK
 62
     0
 10
285.952896
 20
35.117741
 30
0.0
 11
285.952896
 21
36.152868
 31
0.0
  0
LINE
  8
0
  6
BYBLOCK
 62
     0
 10
286.902896
 20
36.137868
 30
0.0
 11
286.102896
 21
36.137868
 31
0.0
  0
SOLID
  8
0
  6
BYBLOCK
 62
     0
 10
286.902896
 20
36.162868
 30
0.0
 11
286.902896
 21
36.112868
 31
0.0
 12
287.052896
 22
36.137868
 32
0.0
 13
287.052896
 23
36.137868
 33
0.0
  0
SOLID
  8
0
  6
BYBLOCK
 62
     0
 10
286.102896
 20
36.162868
 30
0.0
 11
286.102896
 21
36.112868
 31
0.0
 12
285.952896
 22
36.137868
 32
0.0
 13
285.952896
 23
36.137868
 33
0.0
  0
TEXT
  8
0
  6
BYBLOCK
 62
     0
 10
286.372539
 20
36.175368
 30
0.0
 40
0.075
  1
1.10
  7
ROMANC
 72
     1
 11
286.502896
 21
36.212868
 31
0.0
 73
     2
  0
POINT
  8
DEFPOINTS
  6
BYBLOCK
 62
     0
 10
287.052896
 20
35.102741
 30
0.0
  0
POINT
  8
DEFPOINTS
  6
BYBLOCK
 62
     0
 10
285.952896
 20
35.102741
 30
0.0
  0
POINT
  8
DEFPOINTS
  6
BYBLOCK
 62
     0
 10
285.952896
 20
36.137868
 30
0.0
  0
ENDBLK
  8
0
  0
ENDSEC
  0
SECTION
  2
ENTITIES
  0
LINE
  8
0
 10
291.895795
 20
29.897444
 30
0.0
 11
291.895795
 21
44.747444
 31
0.0
  0
TEXT
  8
0
 10
283.887846
 20
40.56142
 30
0.0
 40
0.3
  1
P = 50 dm
  7
ROMANC
  0
LINE
  8
0
 10
281.395795
 20
44.747444
 30
0.0
 11
281.395795
 21
29.897444
 31
0.0
  0
LINE
  8
0
 10
281.395795
 20
29.897444
 30
0.0
 11
291.895795
 21
29.897444
 31
0.0
  0
LINE
  8
0
 10
291.895795
 20
44.747444
 30
0.0
 11
281.395795
 21
44.747444
 31
0.0
  0
TEXT
  8
0
 10
287.122271
 20
41.564915
 30
0.0
 40
0.1
  1
2
  7
ROMANC
  0
TEXT
  8
0
 10
283.925768
 20
41.857589
 30
0.0
 40
0.3
  1
ESCALA  1:50
  7
ROMANC
  0
TEXT
  8
0
 10
283.925768
 20
42.343303
 30
0.0
 40
0.3
  1
TIPUS   NT149C
  7
ROMANC
  0
TEXT
  8
0
 10
283.938862
 20
41.258999
 30
0.0
 40
0.3
  1
S = 149 dm
  7
ROMANC
  0
LINE
  8
0
  6
BYBLOCK
 62
     0
 10
287.067896
 20
35.102741
 30
0.0
 11
287.440024
 21
35.102741
 31
0.0
  0
LINE
  8
0
  6
BYBLOCK
 62
     0
 10
286.526018
 20
35.658327
 30
0.0
 11
287.440024
 21
35.658327
 31
0.0
  0
LINE
  8
0
  6
BYBLOCK
 62
     0
 10
287.425024
 20
34.952741
 30
0.0
 11
287.425024
 21
34.802741
 31
0.0
  0
LINE
  8
0
  6
BYBLOCK
 62
     0
 10
287.425024
 20
35.808327
 30
0.0
 11
287.425024
 21
35.958327
 31
0.0
  0
SOLID
  8
0
  6
BYBLOCK
 62
     0
 10
287.400024
 20
34.952741
 30
0.0
 11
287.450024
 21
34.952741
 31
0.0
 12
287.425024
 22
35.102741
 32
0.0
 13
287.425024
 23
35.102741
 33
0.0
  0
SOLID
  8
0
  6
BYBLOCK
 62
     0
 10
287.400024
 20
35.808327
 30
0.0
 11
287.450024
 21
35.808327
 31
0.0
 12
287.425024
 22
35.658327
 32
0.0
 13
287.425024
 23
35.658327
 33
0.0
  0
LINE
  8
0
  6
BYBLOCK
 62
     0
 10
287.425024
 20
35.102741
 30
0.0
 11
287.425024
 21
35.658327
 31
0.0
  0
TEXT
  8
0
  6
BYBLOCK
 62
     0
 10
287.387524
 20
35.255534
 30
0.0
 40
0.075
  1
0.55
 50
90.0
  7
ROMANC
 72
     4
 11
287.350024
 21
35.380534
 31
0.0
  0
POINT
  8
DEFPOINTS
  6
BYBLOCK
 62
     0
 10
287.052896
 20
35.102741
 30
0.0
  0
POINT
  8
DEFPOINTS
  6
BYBLOCK
 62
     0
 10
286.511018
 20
35.658327
 30
0.0
  0
POINT
  8
DEFPOINTS
  6
BYBLOCK
 62
     0
 10
287.425024
 20
35.658327
 30
0.0
  0
LINE
  8
0
  6
BYBLOCK
 62
     0
 10
286.967896
 20
34.152741
 30
0.0
 11
287.440024
 21
34.152741
 31
0.0
  0
LINE
  8
0
  6
BYBLOCK
 62
     0
 10
286.514593
 20
33.93997
 30
0.0
 11
287.440024
 21
33.93997
 31
0.0
  0
LINE
  8
0
  6
BYBLOCK
 62
     0
 10
287.425024
 20
34.302741
 30
0.0
 11
287.425024
 21
34.452741
 31
0.0
  0
LINE
  8
0
  6
BYBLOCK
 62
     0
 10
287.425024
 20
33.78997
 30
0.0
 11
287.425024
 21
33.63997
 31
0.0
  0
SOLID
  8
0
  6
BYBLOCK
 62
     0
 10
287.400024
 20
34.302741
 30
0.0
 11
287.450024
 21
34.302741
 31
0.0
 12
287.425024
 22
34.152741
 32
0.0
 13
287.425024
 23
34.152741
 33
0.0
  0
SOLID
  8
0
  6
BYBLOCK
 62
     0
 10
287.400024
 20
33.78997
 30
0.0
 11
287.450024
 21
33.78997
 31
0.0
 12
287.425024
 22
33.93997
 32
0.0
 13
287.425024
 23
33.93997
 33
0.0
  0
LINE
  8
0
  6
BYBLOCK
 62
     0
 10
287.425024
 20
34.152741
 30
0.0
 11
287.425024
 21
33.93997
 31
0.0
  0
TEXT
  8
0
  6
BYBLOCK
 62
     0
 10
287.387524
 20
33.95707
 30
0.0
 40
0.075
  1
0.2
 50
90.0
  7
ROMANC
 72
     4
 11
287.350024
 21
34.046355
 31
0.0
  0
POINT
  8
DEFPOINTS
  6
BYBLOCK
 62
     0
 10
286.952896
 20
34.152741
 30
0.0
  0
POINT
  8
DEFPOINTS
  6
BYBLOCK
 62
     0
 10
286.499593
 20
33.93997
 30
0.0
  0
POINT
  8
DEFPOINTS
  6
BYBLOCK
 62
     0
 10
287.425024
 20
33.93997
 30
0.0
  0
LINE
  8
0
  6
BYBLOCK
 62
     0
 10
287.052896
 20
35.117741
 30
0.0
 11
287.052896
 21
36.152868
 31
0.0
  0
LINE
  8
0
  6
BYBLOCK
 62
     0
 10
285.952896
 20
35.117741
 30
0.0
 11
285.952896
 21
36.152868
 31
0.0
  0
LINE
  8
0
  6
BYBLOCK
 62
     0
 10
286.902896
 20
36.137868
 30
0.0
 11
286.102896
 21
36.137868
 31
0.0
  0
SOLID
  8
0
  6
BYBLOCK
 62
     0
 10
286.902896
 20
36.162868
 30
0.0
 11
286.902896
 21
36.112868
 31
0.0
 12
287.052896
 22
36.137868
 32
0.0
 13
287.052896
 23
36.137868
 33
0.0
  0
SOLID
  8
0
  6
BYBLOCK
 62
     0
 10
286.102896
 20
36.162868
 30
0.0
 11
286.102896
 21
36.112868
 31
0.0
 12
285.952896
 22
36.137868
 32
0.0
 13
285.952896
 23
36.137868
 33
0.0
  0
TEXT
  8
0
  6
BYBLOCK
 62
     0
 10
286.372539
 20
36.175368
 30
0.0
 40
0.075
  1
1.10
  7
ROMANC
 72
     1
 11
286.502896
 21
36.212868
 31
0.0
 73
     2
  0
POINT
  8
DEFPOINTS
  6
BYBLOCK
 62
     0
 10
287.052896
 20
35.102741
 30
0.0
  0
POINT
  8
DEFPOINTS
  6
BYBLOCK
 62
     0
 10
285.952896
 20
35.102741
 30
0.0
  0
POINT
  8
DEFPOINTS
  6
BYBLOCK
 62
     0
 10
285.952896
 20
36.137868
 30
0.0
  0
ARC
  8
0
 10
286.502896
 20
34.152741
 30
0.0
 40
0.21
 50
182.729403
 51
202.5
  0
ARC
  8
0
 10
286.502896
 20
34.152741
 30
0.0
 40
0.21
 50
202.5
 51
225.0
  0
ARC
  8
0
 10
286.502896
 20
34.152741
 30
0.0
 40
0.21
 50
225.0
 51
247.5
  0
ARC
  8
0
 10
286.502896
 20
34.152741
 30
0.0
 40
0.21
 50
247.5
 51
270.0
  0
ARC
  8
0
 10
286.502896
 20
34.152741
 30
0.0
 40
0.21
 50
270.0
 51
292.5
  0
ARC
  8
0
 10
286.502896
 20
34.152741
 30
0.0
 40
0.21
 50
292.5
 51
315.0
  0
ARC
  8
0
 10
286.502896
 20
34.152741
 30
0.0
 40
0.21
 50
315.0
 51
337.5
  0
ARC
  8
0
 10
286.502896
 20
34.152741
 30
0.0
 40
0.21
 50
337.5
 51
357.270597
  0
LINE
  8
0
 10
286.712658
 20
34.142741
 30
0.0
 11
286.961899
 21
34.142741
 31
0.0
  0
LINE
  8
0
 10
286.961899
 20
34.142741
 30
0.0
 11
287.050732
 21
34.986654
 31
0.0
  0
ARC
  8
0
 10
286.502896
 20
35.102741
 30
0.0
 40
0.56
 50
348.03593
 51
0.0
  0
ARC
  8
0
 10
286.502896
 20
35.102741
 30
0.0
 40
0.56
 50
360.0
 51
22.5
  0
ARC
  8
0
 10
286.502896
 20
35.102741
 30
0.0
 40
0.56
 50
22.5
 51
45.0
  0
ARC
  8
0
 10
286.502896
 20
35.102741
 30
0.0
 40
0.56
 50
45.0
 51
67.5
  0
ARC
  8
0
 10
286.502896
 20
35.102741
 30
0.0
 40
0.56
 50
67.5
 51
90.0
  0
ARC
  8
0
 10
286.502896
 20
35.102741
 30
0.0
 40
0.56
 50
90.0
 51
112.5
  0
ARC
  8
0
 10
286.502896
 20
35.102741
 30
0.0
 40
0.56
 50
112.5
 51
135.0
  0
ARC
  8
0
 10
286.502896
 20
35.102741
 30
0.0
 40
0.56
 50
135.0
 51
157.5
  0
ARC
  8
0
 10
286.502896
 20
35.102741
 30
0.0
 40
0.56
 50
157.5
 51
180.053942
  0
LINE
  8
0
 10
285.942897
 20
35.102214
 30
0.0
 11
286.043894
 21
34.142741
 31
0.0
  0
LINE
  8
0
 10
286.043894
 20
34.142741
 30
0.0
 11
286.293135
 21
34.142741
 31
0.0
  0
ARC
  8
0
 10
286.502896
 20
34.152741
 30
0.0
 40
0.19
 50
176.983039
 51
202.5
  0
ARC
  8
0
 10
286.502896
 20
34.152741
 30
0.0
 40
0.19
 50
202.5
 51
225.0
  0
ARC
  8
0
 10
286.502896
 20
34.152741
 30
0.0
 40
0.19
 50
225.0
 51
247.5
  0
ARC
  8
0
 10
286.502896
 20
34.152741
 30
0.0
 40
0.19
 50
247.5
 51
270.0
  0
ARC
  8
0
 10
286.502896
 20
34.152741
 30
0.0
 40
0.19
 50
270.0
 51
292.5
  0
ARC
  8
0
 10
286.502896
 20
34.152741
 30
0.0
 40
0.19
 50
292.5
 51
315.0
  0
ARC
  8
0
 10
286.502896
 20
34.152741
 30
0.0
 40
0.19
 50
315.0
 51
337.5
  0
ARC
  8
0
 10
286.502896
 20
34.152741
 30
0.0
 40
0.19
 50
337.5
 51
3.016961
  0
LINE
  8
0
 10
286.692633
 20
34.162741
 30
0.0
 11
286.943894
 21
34.162741
 31
0.0
  0
LINE
  8
0
 10
286.943894
 20
34.162741
 30
0.0
 11
287.030952
 21
34.989792
 31
0.0
  0
ARC
  8
0
 10
286.502896
 20
35.102741
 30
0.0
 40
0.54
 50
347.926553
 51
360.0
  0
ARC
  8
0
 10
286.502896
 20
35.102741
 30
0.0
 40
0.54
 50
0.0
 51
22.5
  0
ARC
  8
0
 10
286.502896
 20
35.102741
 30
0.0
 40
0.54
 50
22.5
 51
45.0
  0
ARC
  8
0
 10
286.502896
 20
35.102741
 30
0.0
 40
0.54
 50
45.0
 51
67.5
  0
ARC
  8
0
 10
286.502896
 20
35.102741
 30
0.0
 40
0.54
 50
67.5
 51
90.0
  0
ARC
  8
0
 10
286.502896
 20
35.102741
 30
0.0
 40
0.54
 50
90.0
 51
112.5
  0
ARC
  8
0
 10
286.502896
 20
35.102741
 30
0.0
 40
0.54
 50
112.5
 51
135.0
  0
ARC
  8
0
 10
286.502896
 20
35.102741
 30
0.0
 40
0.54
 50
135.0
 51
157.5
  0
ARC
  8
0
 10
286.502896
 20
35.102741
 30
0.0
 40
0.54
 50
157.5
 51
179.944565
  0
LINE
  8
0
 10
285.962897
 20
35.103263
 30
0.0
 11
286.061899
 21
34.162741
 31
0.0
  0
LINE
  8
0
 10
286.061899
 20
34.162741
 30
0.0
 11
286.31316
 21
34.162741
 31
0.0
  0
LINE
  8
0
  6
BYBLOCK
 62
     0
 10
287.440024
 20
33.93997
 30
0.0
 11
287.822764
 21
33.93997
 31
0.0
  0
LINE
  8
0
  6
BYBLOCK
 62
     0
 10
287.440024
 20
35.658327
 30
0.0
 11
287.822764
 21
35.658327
 31
0.0
  0
LINE
  8
0
  6
BYBLOCK
 62
     0
 10
287.807764
 20
34.08997
 30
0.0
 11
287.807764
 21
35.508327
 31
0.0
  0
SOLID
  8
0
  6
BYBLOCK
 62
     0
 10
287.782764
 20
34.08997
 30
0.0
 11
287.832764
 21
34.08997
 31
0.0
 12
287.807764
 22
33.93997
 32
0.0
 13
287.807764
 23
33.93997
 33
0.0
  0
SOLID
  8
0
  6
BYBLOCK
 62
     0
 10
287.782764
 20
35.508327
 30
0.0
 11
287.832764
 21
35.508327
 31
0.0
 12
287.807764
 22
35.658327
 32
0.0
 13
287.807764
 23
35.658327
 33
0.0
  0
TEXT
  8
0
  6
BYBLOCK
 62
     0
 10
287.770264
 20
34.704505
 30
0.0
 40
0.075
  1
1.7
 50
90.0
  7
ROMANC
 72
     1
 11
287.732764
 21
34.799148
 31
0.0
 73
     2
  0
POINT
  8
DEFPOINTS
  6
BYBLOCK
 62
     0
 10
287.425024
 20
33.93997
 30
0.0
  0
POINT
  8
DEFPOINTS
  6
BYBLOCK
 62
     0
 10
287.425024
 20
35.658327
 30
0.0
  0
POINT
  8
DEFPOINTS
  6
BYBLOCK
 62
     0
 10
287.807764
 20
35.658327
 30
0.0
  0
LINE
  8
0
  6
BYBLOCK
 62
     0
 10
286.967896
 20
34.152741
 30
0.0
 11
287.440024
 21
34.152741
 31
0.0
  0
LINE
  8
0
  6
BYBLOCK
 62
     0
 10
287.067896
 20
35.102741
 30
0.0
 11
287.440024
 21
35.102741
 31
0.0
  0
LINE
  8
0
  6
BYBLOCK
 62
     0
 10
287.425024
 20
34.302741
 30
0.0
 11
287.425024
 21
34.952741
 31
0.0
  0
SOLID
  8
0
  6
BYBLOCK
 62
     0
 10
287.400024
 20
34.302741
 30
0.0
 11
287.450024
 21
34.302741
 31
0.0
 12
287.425024
 22
34.152741
 32
0.0
 13
287.425024
 23
34.152741
 33
0.0
  0
SOLID
  8
0
  6
BYBLOCK
 62
     0
 10
287.400024
 20
34.952741
 30
0.0
 11
287.450024
 21
34.952741
 31
0.0
 12
287.425024
 22
35.102741
 32
0.0
 13
287.425024
 23
35.102741
 33
0.0
  0
TEXT
  8
0
  6
BYBLOCK
 62
     0
 10
287.387524
 20
34.502741
 30
0.0
 40
0.075
  1
0.95
 50
90.0
  7
ROMANC
 72
     1
 11
287.350024
 21
34.627741
 31
0.0
 73
     2
  0
POINT
  8
DEFPOINTS
  6
BYBLOCK
 62
     0
 10
286.952896
 20
34.152741
 30
0.0
  0
POINT
  8
DEFPOINTS
  6
BYBLOCK
 62
     0
 10
287.052896
 20
35.102741
 30
0.0
  0
POINT
  8
DEFPOINTS
  6
BYBLOCK
 62
     0
 10
287.425024
 20
35.102741
 30
0.0
  0
LINE
  8
0
  6
BYBLOCK
 62
     0
 10
286.302896
 20
34.137741
 30
0.0
 11
286.302896
 21
33.742288
 31
0.0
  0
LINE
  8
0
  6
BYBLOCK
 62
     0
 10
286.702896
 20
34.137741
 30
0.0
 11
286.702896
 21
33.742288
 31
0.0
  0
LINE
  8
0
  6
BYBLOCK
 62
     0
 10
286.152896
 20
33.757288
 30
0.0
 11
286.002896
 21
33.757288
 31
0.0
  0
LINE
  8
0
  6
BYBLOCK
 62
     0
 10
286.852896
 20
33.757288
 30
0.0
 11
287.002896
 21
33.757288
 31
0.0
  0
SOLID
  8
0
  6
BYBLOCK
 62
     0
 10
286.152896
 20
33.782288
 30
0.0
 11
286.152896
 21
33.732288
 31
0.0
 12
286.302896
 22
33.757288
 32
0.0
 13
286.302896
 23
33.757288
 33
0.0
  0
SOLID
  8
0
  6
BYBLOCK
 62
     0
 10
286.852896
 20
33.782288
 30
0.0
 11
286.852896
 21
33.732288
 31
0.0
 12
286.702896
 22
33.757288
 32
0.0
 13
286.702896
 23
33.757288
 33
0.0
  0
LINE
  8
0
  6
BYBLOCK
 62
     0
 10
286.302896
 20
33.757288
 30
0.0
 11
286.702896
 21
33.757288
 31
0.0
  0
TEXT
  8
0
  6
BYBLOCK
 62
     0
 10
286.377896
 20
33.794788
 30
0.0
 40
0.075
  1
0.40
  7
ROMANC
 72
     1
 11
286.502896
 21
33.832288
 31
0.0
 73
     2
  0
POINT
  8
DEFPOINTS
  6
BYBLOCK
 62
     0
 10
286.302896
 20
34.152741
 30
0.0
  0
POINT
  8
DEFPOINTS
  6
BYBLOCK
 62
     0
 10
286.702896
 20
34.152741
 30
0.0
  0
POINT
  8
DEFPOINTS
  6
BYBLOCK
 62
     0
 10
286.702896
 20
33.757288
 30
0.0
  0
LINE
  8
0
  6
BYBLOCK
 62
     0
 10
286.052896
 20
34.137741
 30
0.0
 11
286.052896
 21
33.450436
 31
0.0
  0
LINE
  8
0
  6
BYBLOCK
 62
     0
 10
286.952896
 20
34.137741
 30
0.0
 11
286.952896
 21
33.450436
 31
0.0
  0
LINE
  8
0
  6
BYBLOCK
 62
     0
 10
286.202896
 20
33.465436
 30
0.0
 11
286.802896
 21
33.465436
 31
0.0
  0
SOLID
  8
0
  6
BYBLOCK
 62
     0
 10
286.202896
 20
33.490436
 30
0.0
 11
286.202896
 21
33.440436
 31
0.0
 12
286.052896
 22
33.465436
 32
0.0
 13
286.052896
 23
33.465436
 33
0.0
  0
SOLID
  8
0
  6
BYBLOCK
 62
     0
 10
286.802896
 20
33.490436
 30
0.0
 11
286.802896
 21
33.440436
 31
0.0
 12
286.952896
 22
33.465436
 32
0.0
 13
286.952896
 23
33.465436
 33
0.0
  0
TEXT
  8
0
  6
BYBLOCK
 62
     0
 10
286.377896
 20
33.502936
 30
0.0
 40
0.075
  1
0.90
  7
ROMANC
 72
     1
 11
286.502896
 21
33.540436
 31
0.0
 73
     2
  0
POINT
  8
DEFPOINTS
  6
BYBLOCK
 62
     0
 10
286.052896
 20
34.152741
 30
0.0
  0
POINT
  8
DEFPOINTS
  6
BYBLOCK
 62
     0
 10
286.952896
 20
34.152741
 30
0.0
  0
POINT
  8
DEFPOINTS
  6
BYBLOCK
 62
     0
 10
286.952896
 20
33.465436
 30
0.0
  0
ARC
  8
0
 10
286.502896
 20
34.152741
 30
0.0
 40
0.2
 50
180.0
 51
202.5
  0
ARC
  8
0
 10
286.502896
 20
34.152741
 30
0.0
 40
0.2
 50
202.5
 51
225.0
  0
ARC
  8
0
 10
286.502896
 20
34.152741
 30
0.0
 40
0.2
 50
225.0
 51
247.5
  0
ARC
  8
0
 10
286.502896
 20
34.152741
 30
0.0
 40
0.2
 50
247.5
 51
270.0
  0
ARC
  8
0
 10
286.502896
 20
34.152741
 30
0.0
 40
0.2
 50
270.0
 51
292.5
  0
ARC
  8
0
 10
286.502896
 20
34.152741
 30
0.0
 40
0.2
 50
292.5
 51
315.0
  0
ARC
  8
0
 10
286.502896
 20
34.152741
 30
0.0
 40
0.2
 50
315.0
 51
337.5
  0
ARC
  8
0
 10
286.502896
 20
34.152741
 30
0.0
 40
0.2
 50
337.5
 51
0.0
  0
LINE
  8
0
 10
286.702896
 20
34.152741
 30
0.0
 11
286.952896
 21
34.152741
 31
0.0
  0
LINE
  8
0
 10
286.952896
 20
34.152741
 30
0.0
 11
287.052896
 21
35.102741
 31
0.0
  0
LINE
  8
0
 10
287.052896
 20
35.102741
 30
0.0
 11
287.040842
 21
34.98822
 31
0.0
  0
ARC
  8
0
 10
286.502896
 20
35.102741
 30
0.0
 40
0.55
 50
347.981988
 51
0.0
  0
ARC
  8
0
 10
286.502896
 20
35.102741
 30
0.0
 40
0.55
 50
0.0
 51
22.5
  0
ARC
  8
0
 10
286.502896
 20
35.102741
 30
0.0
 40
0.55
 50
22.5
 51
45.0
  0
ARC
  8
0
 10
286.502896
 20
35.102741
 30
0.0
 40
0.55
 50
45.0
 51
67.5
  0
ARC
  8
0
 10
286.502896
 20
35.102741
 30
0.0
 40
0.55
 50
67.5
 51
90.0
  0
ARC
  8
0
 10
286.502896
 20
35.102741
 30
0.0
 40
0.55
 50
90.0
 51
112.5
  0
ARC
  8
0
 10
286.502896
 20
35.102741
 30
0.0
 40
0.55
 50
112.5
 51
135.0
  0
ARC
  8
0
 10
286.502896
 20
35.102741
 30
0.0
 40
0.55
 50
135.0
 51
157.5
  0
ARC
  8
0
 10
286.502896
 20
35.102741
 30
0.0
 40
0.55
 50
157.5
 51
180.0
  0
LINE
  8
0
 10
285.952896
 20
35.102741
 30
0.0
 11
286.052896
 21
34.152741
 31
0.0
  0
LINE
  8
0
 10
286.052896
 20
34.152741
 30
0.0
 11
286.302896
 21
34.152741
 31
0.0
  0
ARC
  8
0
 10
286.502896
 20
35.102741
 30
0.0
 40
0.55
 50
180.0
 51
192.018012
  0
ENDSEC
  0
EOF
